  0
SECTION
  2
HEADER
  9
$ACADVER
  1
AC1009
  9
$INSBASE
 10
0.0
 20
0.0
 30
0.0
  9
$EXTMIN
 10
0.0
 20
-2.960436562073669
 30
0.0
  9
$EXTMAX
 10
244.9858633899315
 20
209.21630311712329
 30
0.0
  9
$LIMMIN
 10
0.0
 20
0.0
  9
$LIMMAX
 10
390.0
 20
270.0
  9
$ORTHOMODE
 70
     1
  9
$REGENMODE
 70
     1
  9
$FILLMODE
 70
     1
  9
$QTEXTMODE
 70
     0
  9
$MIRRTEXT
 70
     1
  9
$DRAGMODE
 70
     2
  9
$LTSCALE
 40
5.0
  9
$OSMODE
 70
  3071
  9
$ATTMODE
 70
     1
  9
$TEXTSIZE
 40
3.2000000000000002
  9
$TRACEWID
 40
1.0
  9
$TEXTSTYLE
  7
K
  9
$CLAYER
  8
0
  9
$CELTYPE
  6
BYLAYER
  9
$CECOLOR
 62
   256
  9
$DIMSCALE
 40
1.0
  9
$DIMASZ
 40
3.0
  9
$DIMEXO
 40
1.0
  9
$DIMDLI
 40
6.0
  9
$DIMRND
 40
0.0
  9
$DIMDLE
 40
0.0
  9
$DIMEXE
 40
1.0
  9
$DIMTP
 40
495.0
  9
$DIMTM
 40
0.0
  9
$DIMTXT
 40
3.2000000000000002
  9
$DIMCEN
 40
0.0
  9
$DIMTSZ
 40
0.0
  9
$DIMTOL
 70
     0
  9
$DIMLIM
 70
     0
  9
$DIMTIH
 70
     0
  9
$DIMTOH
 70
     0
  9
$DIMSE1
 70
     0
  9
$DIMSE2
 70
     0
  9
$DIMTAD
 70
     1
  9
$DIMZIN
 70
     8
  9
$DIMBLK
  1

  9
$DIMASO
 70
     0
  9
$DIMSHO
 70
     1
  9
$DIMPOST
  1

  9
$DIMAPOST
  1

  9
$DIMALT
 70
     0
  9
$DIMALTD
 70
     2
  9
$DIMALTF
 40
25.399999999999999
  9
$DIMLFAC
 40
1.0
  9
$DIMTOFL
 70
     0
  9
$DIMTVP
 40
0.0
  9
$DIMTIX
 70
     0
  9
$DIMSOXD
 70
     0
  9
$DIMSAH
 70
     0
  9
$DIMBLK1
  1

  9
$DIMBLK2
  1

  9
$DIMSTYLE
  2
ITM
  9
$DIMCLRD
 70
     4
  9
$DIMCLRE
 70
     4
  9
$DIMCLRT
 70
     4
  9
$DIMTFAC
 40
1.0
  9
$DIMGAP
 40
1.0
  9
$LUNITS
 70
     2
  9
$LUPREC
 70
     2
  9
$SKETCHINC
 40
1.0
  9
$FILLETRAD
 40
0.4
  9
$AUNITS
 70
     0
  9
$AUPREC
 70
     0
  9
$MENU
  1
.
  9
$ELEVATION
 40
0.0
  9
$PELEVATION
 40
0.0
  9
$THICKNESS
 40
0.0
  9
$LIMCHECK
 70
     0
  9
$BLIPMODE
 70
     0
  9
$CHAMFERA
 40
1.1999999999999991
  9
$CHAMFERB
 40
1.1999999999999991
  9
$SKPOLY
 70
     0
  9
$TDCREATE
 40
2453354.0921258219
  9
$TDUPDATE
 40
2456597.6667592479
  9
$TDINDWG
 40
512.60854251160004
  9
$TDUSRTIMER
 40
512.60826453699997
  9
$USRTIMER
 70
     1
  9
$ANGBASE
 50
0.0
  9
$ANGDIR
 70
     0
  9
$PDMODE
 70
     0
  9
$PDSIZE
 40
0.0
  9
$PLINEWID
 40
0.0
  9
$COORDS
 70
     1
  9
$SPLFRAME
 70
     0
  9
$SPLINETYPE
 70
     6
  9
$SPLINESEGS
 70
     8
  9
$ATTDIA
 70
     0
  9
$ATTREQ
 70
     1
  9
$HANDLING
 70
     1
  9
$HANDSEED
  5
20E
  9
$SURFTAB1
 70
     6
  9
$SURFTAB2
 70
     6
  9
$SURFTYPE
 70
     6
  9
$SURFU
 70
     6
  9
$SURFV
 70
     6
  9
$UCSNAME
  2

  9
$UCSORG
 10
0.0
 20
0.0
 30
0.0
  9
$UCSXDIR
 10
1.0
 20
0.0
 30
0.0
  9
$UCSYDIR
 10
0.0
 20
1.0
 30
0.0
  9
$PUCSNAME
  2

  9
$PUCSORG
 10
0.0
 20
0.0
 30
0.0
  9
$PUCSXDIR
 10
1.0
 20
0.0
 30
0.0
  9
$PUCSYDIR
 10
0.0
 20
1.0
 30
0.0
  9
$USERI1
 70
     4
  9
$USERI2
 70
     1
  9
$USERI3
 70
     1
  9
$USERI4
 70
     0
  9
$USERI5
 70
     0
  9
$USERR1
 40
1.0
  9
$USERR2
 40
3.0
  9
$USERR3
 40
3.2000000000000002
  9
$USERR4
 40
3.0
  9
$USERR5
 40
10.0
  9
$WORLDVIEW
 70
     1
  9
$SHADEDGE
 70
     3
  9
$SHADEDIF
 70
    70
  9
$TILEMODE
 70
     1
  9
$MAXACTVP
 70
    16
  9
$PLIMCHECK
 70
     0
  9
$PEXTMIN
 10
0.0
 20
0.0
 30
0.0
  9
$PEXTMAX
 10
0.0
 20
0.0
 30
0.0
  9
$PLIMMIN
 10
0.0
 20
0.0
  9
$PLIMMAX
 10
12.0
 20
9.0
  9
$UNITMODE
 70
     0
  9
$VISRETAIN
 70
     0
  9
$PLINEGEN
 70
     0
  9
$PSLTSCALE
 70
     1
  0
ENDSEC
  0
SECTION
  2
TABLES
  0
TABLE
  2
VPORT
 70
     1
  0
VPORT
  2
*ACTIVE
 70
     0
 10
0.0
 20
0.0
 11
1.0
 21
1.0
 12
202.55787946771341
 22
133.5127261426681
 13
0.0
 23
0.0
 14
5.0
 24
5.0
 15
10.0
 25
10.0
 16
0.0
 26
0.0
 36
1.0
 17
0.0
 27
0.0
 37
0.0
 40
275.42274993631997
 41
1.831871345029239
 42
50.0
 43
0.0
 44
0.0
 50
0.0
 51
0.0
 71
    16
 72
   500
 73
     1
 74
     1
 75
     0
 76
     0
 77
     0
 78
     1
  0
ENDTAB
  0
TABLE
  2
LTYPE
 70
     4
  0
LTYPE
  2
CONTINUOUS
 70
     0
  3
Solid line
 72
    65
 73
     0
 40
0.0
  0
LTYPE
  2
DASHED
 70
     0
  3
__ __ __ __ __ __ __ __ __ __ __ __ __ __ __
 72
    65
 73
     2
 40
0.75
 49
0.5
 49
-0.25
  0
LTYPE
  2
CENTER
 70
     0
  3
____ _ ____ _ ____ _ ____ _ ____ _ ____ _ ____
 72
    65
 73
     4
 40
2.0
 49
1.25
 49
-0.25
 49
0.25
 49
-0.25
  0
LTYPE
  2
PHANTOM2
 70
     0
  3
___ _ _ ___ _ _ ___ _ _ ___ _ _
 72
    65
 73
     6
 40
1.25
 49
0.625
 49
-0.125
 49
0.125
 49
-0.125
 49
0.125
 49
-0.125
  0
ENDTAB
  0
TABLE
  2
LAYER
 70
     5
  0
LAYER
  2
0
 70
     0
 62
     7
  6
CONTINUOUS
  0
LAYER
  2
2
 70
     0
 62
     2
  6
DASHED
  0
LAYER
  2
1
 70
     0
 62
     1
  6
CENTER
  0
LAYER
  2
WAKU
 70
     0
 62
     5
  6
CONTINUOUS
  0
LAYER
  2
3
 70
     0
 62
     3
  6
CONTINUOUS
  0
ENDTAB
  0
TABLE
  2
STYLE
 70
     3
  0
STYLE
  2
STANDARD
 70
     0
 40
0.0
 41
1.0
 50
0.0
 71
     0
 42
2.5
  3
ROMANS
  4
EXTFONT
  0
STYLE
  2
K
 70
     0
 40
0.0
 41
0.75
 50
0.0
 71
     0
 42
3.2000000000000002
  3
ROMANS.shx
  4
EXTFONT.shx
  0
STYLE
  2
STANDARD1
 70
     0
 40
0.0
 41
1.0
 50
0.0
 71
     0
 42
3.0
  3
txt
  4

  0
ENDTAB
  0
TABLE
  2
VIEW
 70
     0
  0
ENDTAB
  0
TABLE
  2
UCS
 70
     0
  0
ENDTAB
  0
TABLE
  2
APPID
 70
     3
  0
APPID
  2
ACAD
 70
     0
  0
APPID
  2
ACAD_MLEADERVER
 70
     0
  0
APPID
  2
ACAD_NAV_VCDISPLAY
 70
     0
  0
ENDTAB
  0
TABLE
  2
DIMSTYLE
 70
     2
  0
DIMSTYLE
  2
ITM
 70
     0
  3

  4

  5

  6

  7

 40
0.0
 41
2.5
 42
1.0
 43
6.0
 44
1.0
 45
0.0
 46
0.0
 47
495.0
 48
0.0
140
3.0
141
0.0
142
0.0
143
25.399999999999999
144
1.0
145
0.0
146
1.0
147
1.0
 71
     0
 72
     0
 73
     0
 74
     0
 75
     0
 76
     0
 77
     3
 78
     8
170
     0
171
     2
172
     1
173
     0
174
     0
175
     0
176
     0
177
     0
178
     0
  0
DIMSTYLE
  2
STANDARD
 70
     0
  3

  4

  5

  6

  7

 40
1.0
 41
0.18
 42
0.0625
 43
0.38
 44
0.18
 45
0.0
 46
0.0
 47
0.0
 48
0.0
140
0.18
141
0.09
142
0.0
143
25.399999999999999
144
1.0
145
0.0
146
1.0
147
0.09
 71
     0
 72
     0
 73
     1
 74
     1
 75
     0
 76
     0
 77
     0
 78
     0
170
     0
171
     2
172
     0
173
     0
174
     0
175
     0
176
     0
177
     0
178
     0
  0
ENDTAB
  0
ENDSEC
  0
SECTION
  2
BLOCKS
  0
BLOCK
  8
0
  2
$MODEL_SPACE
 70
     0
 10
0.0
 20
0.0
 30
0.0
  3
$MODEL_SPACE
  1

  0
ENDBLK
  5
14
  8
0
  0
BLOCK
 67
     1
  8
0
  2
$PAPER_SPACE
 70
     0
 10
0.0
 20
0.0
 30
0.0
  3
$PAPER_SPACE
  1

  0
ENDBLK
  5
1B
 67
     1
  8
0
  0
BLOCK
  8
0
  2
ARROW1
 70
     0
 10
0.0
 20
0.0
 30
0.0
  3
ARROW1
  1

  0
SOLID
  5
4C
  8
WAKU
  6
CONTINUOUS
 62
     4
 10
-1.0
 20
0.1666666666666714
 30
0.0
 11
-1.0
 21
-0.1666666666666714
 31
0.0
 12
0.0
 22
0.0
 32
0.0
 13
0.0
 23
0.0
 33
0.0
  0
ENDBLK
  5
50
  8
0
  0
ENDSEC
  0
SECTION
  2
ENTITIES
  0
LINE
  5
77
  8
0
 10
101.5786301951654
 20
153.3241369578177
 30
0.0
 11
151.57863094022349
 21
153.3241369578175
 31
0.0
  0
LINE
  5
78
  8
0
 10
101.5786301951654
 20
153.3241369578177
 30
0.0
 11
101.5786301951655
 21
175.32413683860841
 31
0.0
  0
LINE
  5
79
  8
0
 10
151.5786309402236
 20
175.32413683860821
 30
0.0
 11
101.5786301951655
 21
175.32413683860841
 31
0.0
  0
LINE
  5
7A
  8
0
 10
151.57863094022349
 20
153.3241369578175
 30
0.0
 11
151.5786309402236
 21
175.32413683860821
 31
0.0
  0
LINE
  5
7B
  8
0
 10
101.5786301951655
 20
175.32413683860841
 30
0.0
 11
101.5786301951656
 21
180.3241376581723
 31
0.0
  0
LINE
  5
7C
  8
0
 10
101.5786301951656
 20
180.3241376581723
 30
0.0
 11
151.5786309402236
 21
180.32413765817199
 31
0.0
  0
LINE
  5
7D
  8
0
 10
151.5786309402236
 20
180.32413765817199
 30
0.0
 11
151.5786309402236
 21
175.32413683860821
 31
0.0
  0
LINE
  5
7E
  8
0
 10
151.57863094022349
 20
148.32413613825361
 30
0.0
 11
101.5786301951654
 21
148.32413613825381
 31
0.0
  0
LINE
  5
7F
  8
0
 10
101.5786301951654
 20
148.32413613825381
 30
0.0
 11
101.5786301951654
 21
153.3241369578177
 31
0.0
  0
LINE
  5
80
  8
0
 10
151.57863094022349
 20
153.3241369578175
 30
0.0
 11
151.57863094022349
 21
148.32413613825361
 31
0.0
  0
LINE
  5
81
  8
0
 10
151.5786309402238
 20
197.8241377326778
 30
0.0
 11
147.57863028457271
 21
201.82413838832889
 31
0.0
  0
LINE
  5
82
  8
0
 10
105.57863038515561
 20
201.82413838832909
 30
0.0
 11
101.5786301951657
 21
197.82413773267811
 31
0.0
  0
LINE
  5
83
  8
0
 10
147.57863028457271
 20
201.82413838832889
 30
0.0
 11
105.57863038515561
 21
201.82413838832909
 31
0.0
  0
CIRCLE
  5
84
  8
0
 10
112.5786301951657
 20
191.324136898213
 30
0.0
 40
5.5
  0
CIRCLE
  5
85
  8
0
 10
140.57863019516569
 20
191.32413689821291
 30
0.0
 40
5.5
  0
LINE
  5
86
  8
0
 10
101.5786301951657
 20
180.3241376581723
 30
0.0
 11
101.5786301951657
 21
197.82413773267811
 31
0.0
  0
LINE
  5
87
  8
0
 10
151.57863094022369
 20
180.32413765817199
 30
0.0
 11
151.5786309402238
 21
197.8241377326778
 31
0.0
  0
LINE
  5
88
  8
0
 10
147.5786302845724
 20
126.82413540809669
 30
0.0
 11
151.57863094022349
 21
130.8241360637478
 31
0.0
  0
LINE
  5
89
  8
0
 10
147.5786302845724
 20
126.82413540809669
 30
0.0
 11
105.57863038515529
 21
126.82413540809679
 31
0.0
  0
LINE
  5
8A
  8
0
 10
101.5786301951655
 20
130.824136063748
 30
0.0
 11
105.57863038515529
 21
126.82413540809679
 31
0.0
  0
CIRCLE
  5
8B
  8
0
 10
112.5786301951655
 20
137.324136898213
 30
0.0
 40
5.499999999999992
  0
CIRCLE
  5
8C
  8
0
 10
140.57863019516549
 20
137.32413689821291
 30
0.0
 40
5.5
  0
LINE
  5
8D
  8
0
 10
101.5786301951655
 20
130.824136063748
 30
0.0
 11
101.5786301951656
 21
148.32413613825381
 31
0.0
  0
LINE
  5
8E
  8
0
 10
151.57863094022349
 20
130.8241360637478
 30
0.0
 11
151.5786309402236
 21
148.32413613825361
 31
0.0
  0
LINE
  5
8F
  8
0
 10
225.98586262997239
 20
201.82413838832889
 30
0.0
 11
241.98586338993161
 21
201.82413838832889
 31
0.0
  0
LINE
  5
90
  8
0
 10
241.98586338993161
 20
201.82413838832889
 30
0.0
 11
241.9858633899315
 21
197.8241377326778
 31
0.0
  0
LINE
  5
91
  8
0
 10
241.9858633899315
 20
197.8241377326778
 30
0.0
 11
225.9858626299723
 21
197.8241377326778
 31
0.0
  0
LINE
  5
92
  8
0
 10
225.9858626299723
 20
197.8241377326778
 30
0.0
 11
225.98586262997239
 21
201.82413838832889
 31
0.0
  0
LINE
  5
93
  8
0
 10
225.9858626299723
 20
180.32413765817199
 30
0.0
 11
225.9858626299723
 21
197.8241377326778
 31
0.0
  0
LINE
  5
94
  8
0
 10
225.9858626299723
 20
130.8241360637478
 30
0.0
 11
241.9858633899315
 21
130.8241360637478
 31
0.0
  0
LINE
  5
95
  8
0
 10
225.9858626299723
 20
130.8241360637478
 30
0.0
 11
225.9858626299723
 21
148.32413613825361
 31
0.0
  0
LINE
  5
96
  8
0
 10
225.9858626299723
 20
148.32413613825361
 30
0.0
 11
190.98586434360581
 21
148.32413613825361
 31
0.0
  0
LINE
  5
97
  8
0
 10
185.9858616613968
 20
153.3241369578175
 30
0.0
 11
190.98586434360581
 21
148.32413613825361
 31
0.0
  0
LINE
  5
98
  8
0
 10
185.9858616613968
 20
153.3241369578175
 30
0.0
 11
185.9858616613968
 21
175.32413683860821
 31
0.0
  0
LINE
  5
99
  8
0
 10
190.98586434360581
 20
180.32413765817199
 30
0.0
 11
185.9858616613968
 21
175.32413683860821
 31
0.0
  0
LINE
  5
9A
  8
0
 10
190.98586434360581
 20
180.32413765817199
 30
0.0
 11
225.9858626299723
 21
180.32413765817199
 31
0.0
  0
CIRCLE
  5
9B
  8
0
 10
201.9858633899315
 20
164.3241368982128
 30
0.0
 40
9.0
  0
LINE
  5
9C
  8
0
 10
241.9858633899315
 20
197.8241377326778
 30
0.0
 11
241.9858633899315
 21
130.8241360637478
 31
0.0
  0
LINE
  5
9D
  8
0
 10
241.98586338993161
 20
126.82413540809669
 30
0.0
 11
225.98586262997239
 21
126.82413540809669
 31
0.0
  0
LINE
  5
9E
  8
0
 10
225.98586262997239
 20
126.82413540809669
 30
0.0
 11
225.9858626299723
 21
130.8241360637478
 31
0.0
  0
LINE
  5
9F
  8
0
 10
241.9858633899315
 20
130.8241360637478
 30
0.0
 11
241.98586338993161
 21
126.82413540809669
 31
0.0
  0
LINE
  5
A0
  8
1
 10
244.9858633899315
 20
191.324136898213
 30
0.0
 11
222.9858626299723
 21
191.324136898213
 31
0.0
  0
LINE
  5
A5
  8
1
 10
244.9858633899315
 20
137.324136898213
 30
0.0
 11
222.9858626299723
 21
137.324136898213
 31
0.0
  0
LINE
  5
A6
  8
0
 10
147.5786302845726
 20
41.935780642553219
 30
0.0
 11
147.57863028457251
 21
57.935781402512447
 31
0.0
  0
LINE
  5
A7
  8
0
 10
147.57863028457251
 20
57.935781402512447
 30
0.0
 11
151.5786309402236
 21
57.935781402512447
 31
0.0
  0
LINE
  5
A8
  8
0
 10
151.5786309402236
 20
57.935781402512447
 30
0.0
 11
151.57863094022369
 21
41.935780642553219
 31
0.0
  0
LINE
  5
A9
  8
0
 10
151.57863094022369
 20
41.935780642553219
 30
0.0
 11
147.5786302845726
 21
41.935780642553219
 31
0.0
  0
LINE
  5
AA
  8
0
 10
105.57863038515541
 20
57.935781402512269
 30
0.0
 11
105.57863038515541
 21
41.935780642553048
 31
0.0
  0
LINE
  5
AB
  8
0
 10
147.57863028457251
 20
57.935781402512447
 30
0.0
 11
105.57863038515541
 21
57.935781402512269
 31
0.0
  0
LINE
  5
AC
  8
0
 10
147.5786302845726
 20
41.935780642553219
 30
0.0
 11
105.57863038515541
 21
41.935780642553048
 31
0.0
  0
LINE
  5
AD
  8
0
 10
101.5786301951656
 20
41.935780642552999
 30
0.0
 11
101.5786301951655
 21
57.93578140251222
 31
0.0
  0
LINE
  5
AE
  8
0
 10
101.5786301951655
 20
57.93578140251222
 30
0.0
 11
105.57863038515541
 21
57.935781402512269
 31
0.0
  0
LINE
  5
AF
  8
0
 10
105.57863038515541
 20
41.935780642553048
 30
0.0
 11
101.5786301951656
 21
41.935780642552999
 31
0.0
  0
LINE
  5
B0
  8
0
 10
151.57863094022349
 20
92.935779688878796
 30
0.0
 11
101.5786301951655
 21
92.935779688878682
 31
0.0
  0
LINE
  5
B1
  8
0
 10
101.5786301951656
 20
57.93578140251222
 30
0.0
 11
101.5786301951655
 21
92.935779688878682
 31
0.0
  0
LINE
  5
B2
  8
0
 10
151.57863094022369
 20
57.935781402512333
 30
0.0
 11
151.57863094022349
 21
92.935779688878796
 31
0.0
  0
LINE
  5
B3
  8
0
 10
101.5786301951655
 20
97.93578237108764
 30
0.0
 11
151.57863094022349
 21
97.935782371087825
 31
0.0
  0
LINE
  5
B4
  8
0
 10
101.5786301951655
 20
92.935779688878682
 30
0.0
 11
101.5786301951655
 21
97.93578237108764
 31
0.0
  0
LINE
  5
B5
  8
0
 10
151.57863094022349
 20
97.935782371087825
 30
0.0
 11
151.57863094022349
 21
92.935779688878796
 31
0.0
  0
LINE
  5
B6
  8
2
 10
149.578630612398
 20
171.3241352888879
 30
0.0
 11
149.5786306123982
 21
157.32413671939941
 31
0.0
  0
LINE
  5
BB
  8
2
 10
103.5786302901605
 20
157.32413671939909
 30
0.0
 11
103.5786302901604
 21
171.32413528888759
 31
0.0
  0
LINE
  5
BC
  8
1
 10
98.343978799141425
 20
81.935780642552885
 30
0.0
 11
153.80349073453931
 21
81.935780642553098
 31
0.0
  0
LINE
  5
BD
  8
1
 10
112.5786301951658
 20
60.935781402512333
 30
0.0
 11
112.5786301951658
 21
38.935780642553112
 31
0.0
  0
LINE
  5
BE
  8
1
 10
140.57863019516549
 20
60.93578140251239
 30
0.0
 11
140.57863019516569
 21
38.935780642553219
 31
0.0
  0
LINE
  5
BF
  8
2
 10
102.578630242663
 20
156.3241384181315
 30
0.0
 11
150.57862891366571
 21
156.3241384181317
 31
0.0
  0
LINE
  5
C0
  8
2
 10
150.57862891366571
 20
172.3241373154458
 30
0.0
 11
102.578630242663
 21
172.3241373154456
 31
0.0
  0
LINE
  5
C1
  8
2
 10
102.5786321053079
 20
156.3241384181315
 30
0.0
 11
102.578630242663
 21
172.3241373154456
 31
0.0
  0
LINE
  5
C2
  8
2
 10
225.98586262997239
 20
196.82413570611999
 30
0.0
 11
241.9858633899315
 21
196.8241357061199
 31
0.0
  0
LINE
  5
C3
  8
2
 10
241.98586338993161
 20
185.82413762836981
 30
0.0
 11
225.98586262997239
 21
185.82413762836981
 31
0.0
  0
LINE
  5
C4
  8
2
 10
225.98586262997239
 20
142.82413616805599
 30
0.0
 11
241.98586338993161
 21
142.82413616805599
 31
0.0
  0
LINE
  5
C5
  8
2
 10
241.98586338993161
 20
131.82413809030569
 30
0.0
 11
225.98586262997239
 21
131.82413809030569
 31
0.0
  0
LINE
  5
C6
  8
2
 10
151.57863094022349
 20
173.32413561671331
 30
0.0
 11
149.578630612398
 21
171.3241352888879
 31
0.0
  0
LINE
  5
C7
  8
2
 10
149.578630612398
 20
171.3241352888879
 30
0.0
 11
103.57863029016031
 21
171.3241352888879
 31
0.0
  0
LINE
  5
C8
  8
2
 10
103.57863029016031
 20
171.3241352888879
 30
0.0
 11
101.5786301951654
 21
173.32413561671319
 31
0.0
  0
LINE
  5
C9
  8
2
 10
101.5786301951655
 20
155.3241363915736
 30
0.0
 11
103.5786302901605
 21
157.32413671939909
 31
0.0
  0
LINE
  5
CA
  8
2
 10
103.5786302901605
 20
157.32413671939909
 30
0.0
 11
149.5786306123982
 21
157.32413671939941
 31
0.0
  0
LINE
  5
CB
  8
2
 10
149.5786306123982
 20
157.32413671939941
 30
0.0
 11
151.5786309402236
 21
155.3241363915738
 31
0.0
  0
LINE
  5
CC
  8
2
 10
146.07863097002601
 20
57.935781402512447
 30
0.0
 11
146.0786309700261
 21
41.935780642553219
 31
0.0
  0
LINE
  5
CD
  8
2
 10
135.0786310296306
 20
57.935781402512333
 30
0.0
 11
135.0786310296306
 21
41.935780642553169
 31
0.0
  0
LINE
  5
CE
  8
2
 10
118.07863010575861
 20
57.935781402512269
 30
0.0
 11
118.07863010575861
 21
41.935780642553112
 31
0.0
  0
LINE
  5
CF
  8
2
 10
107.07863016536319
 20
57.93578140251222
 30
0.0
 11
107.07863016536329
 21
41.935780642553048
 31
0.0
  0
LINE
  5
D0
  8
1
 10
159.9944341874297
 20
164.3241368982128
 30
0.0
 11
94.600496534532567
 21
164.3241368982128
 31
0.0
  0
LINE
  5
D1
  8
2
 10
150.57863089272621
 20
156.3241384181317
 30
0.0
 11
150.5786308927261
 21
172.3241373154458
 31
0.0
  0
LINE
  5
D2
  8
1
 10
189.9858633899315
 20
164.3241368982128
 30
0.0
 11
213.9858633899315
 21
164.3241368982128
 31
0.0
  0
LINE
  5
D3
  8
1
 10
201.9858633899315
 20
176.3241368982128
 30
0.0
 11
201.9858633899315
 21
152.3241368982128
 31
0.0
  0
LINE
  5
D4
  8
1
 10
105.5786301951657
 20
191.324136898213
 30
0.0
 11
119.5786301951657
 21
191.32413689821291
 31
0.0
  0
LINE
  5
D5
  8
1
 10
112.5786301951658
 20
198.324136898213
 30
0.0
 11
112.5786301951657
 21
184.324136898213
 31
0.0
  0
LINE
  5
D6
  8
1
 10
133.57863019516569
 20
191.32413689821291
 30
0.0
 11
147.57863019516569
 21
191.32413689821291
 31
0.0
  0
LINE
  5
D7
  8
1
 10
140.57863019516569
 20
198.32413689821291
 30
0.0
 11
140.57863019516569
 21
184.32413689821291
 31
0.0
  0
LINE
  5
D8
  8
1
 10
133.57863019516549
 20
137.32413689821291
 30
0.0
 11
147.57863019516549
 21
137.3241368982128
 31
0.0
  0
LINE
  5
D9
  8
1
 10
140.57863019516549
 20
144.32413689821291
 30
0.0
 11
140.57863019516549
 21
130.32413689821291
 31
0.0
  0
LINE
  5
DA
  8
1
 10
105.5786301951655
 20
137.324136898213
 30
0.0
 11
119.5786301951655
 21
137.32413689821291
 31
0.0
  0
LINE
  5
DB
  8
1
 10
112.5786301951656
 20
144.324136898213
 30
0.0
 11
112.5786301951655
 21
130.324136898213
 31
0.0
  0
LINE
  5
DC
  8
1
 10
126.5786303348641
 20
209.21630311712329
 30
0.0
 11
126.5786303348641
 21
117.7055770667252
 31
0.0
  0
LINE
  5
DD
  8
2
 10
103.5786302901604
 20
88.935779033227945
 30
0.0
 11
101.5786301951655
 21
90.935779361053307
 31
0.0
  0
LINE
  5
DE
  8
2
 10
149.57863061239809
 20
88.935779033227945
 30
0.0
 11
103.5786302901604
 21
88.935779033227945
 31
0.0
  0
LINE
  5
DF
  8
2
 10
102.578632105308
 20
73.935782162471554
 30
0.0
 11
102.578630242663
 21
89.935781059785626
 31
0.0
  0
LINE
  5
E0
  8
2
 10
150.57862891366571
 20
89.935781059785867
 30
0.0
 11
102.578630242663
 21
89.935781059785626
 31
0.0
  0
LINE
  5
E1
  8
2
 10
103.5786302901605
 20
74.935780463739192
 30
0.0
 11
103.5786302901605
 21
88.935779033227703
 31
0.0
  0
LINE
  5
E2
  8
2
 10
103.5786302901605
 20
74.935780463739192
 30
0.0
 11
149.5786306123982
 21
74.935780463739533
 31
0.0
  0
LINE
  5
E3
  8
2
 10
101.5786301951655
 20
72.935780135913646
 30
0.0
 11
103.5786302901605
 21
74.935780463739192
 31
0.0
  0
LINE
  5
E4
  8
2
 10
102.5786302426631
 20
73.935782162471554
 30
0.0
 11
150.5786289136658
 21
73.935782162471796
 31
0.0
  0
LINE
  5
E5
  8
2
 10
150.5786308927263
 20
73.935782162471796
 30
0.0
 11
150.5786308927261
 21
89.935781059785867
 31
0.0
  0
LINE
  5
E6
  8
2
 10
149.5786306123982
 20
74.935780463739533
 30
0.0
 11
151.5786309402236
 21
72.93578013591393
 31
0.0
  0
LINE
  5
E7
  8
2
 10
149.57863061239809
 20
88.935779033227945
 30
0.0
 11
149.5786306123982
 21
74.935780463739533
 31
0.0
  0
LINE
  5
E8
  8
2
 10
151.5786309402236
 20
90.935779361053434
 30
0.0
 11
149.57863061239809
 21
88.935779033227945
 31
0.0
  0
CIRCLE
  5
E9
  8
3
 10
201.9858633899315
 20
164.3241368982128
 30
0.0
 40
8.0
  0
CIRCLE
  5
ED
  8
0
 10
201.9858633899315
 20
164.3241368982128
 30
0.0
 40
6.9175000000000004
  0
TEXT
  5
181
  8
0
 62
     3
 10
0.0
 20
0.0
 30
0.0
 40
10.0
  1
BJ215-16040W
  7
STANDARD1
  0
ENDSEC
  0
EOF
