  0
SECTION
  2
HEADER
  9
$ACADVER
  1
AC1009
  9
$INSBASE
 10
0.0
 20
0.0
 30
0.0
  9
$EXTMIN
 10
0.0
 20
-2.960436562073669
 30
0.0
  9
$EXTMAX
 10
167.315060782329
 20
135.32538729284479
 30
0.0
  9
$LIMMIN
 10
0.0
 20
0.0
  9
$LIMMAX
 10
390.0
 20
270.0
  9
$ORTHOMODE
 70
     1
  9
$REGENMODE
 70
     1
  9
$FILLMODE
 70
     1
  9
$QTEXTMODE
 70
     0
  9
$MIRRTEXT
 70
     1
  9
$DRAGMODE
 70
     2
  9
$LTSCALE
 40
5.0
  9
$OSMODE
 70
  3071
  9
$ATTMODE
 70
     1
  9
$TEXTSIZE
 40
3.2000000000000002
  9
$TRACEWID
 40
1.0
  9
$TEXTSTYLE
  7
K
  9
$CLAYER
  8
0
  9
$CELTYPE
  6
BYLAYER
  9
$CECOLOR
 62
   256
  9
$DIMSCALE
 40
1.0
  9
$DIMASZ
 40
3.0
  9
$DIMEXO
 40
1.0
  9
$DIMDLI
 40
6.0
  9
$DIMRND
 40
0.0
  9
$DIMDLE
 40
0.0
  9
$DIMEXE
 40
1.0
  9
$DIMTP
 40
495.0
  9
$DIMTM
 40
0.0
  9
$DIMTXT
 40
3.2000000000000002
  9
$DIMCEN
 40
0.0
  9
$DIMTSZ
 40
0.0
  9
$DIMTOL
 70
     0
  9
$DIMLIM
 70
     0
  9
$DIMTIH
 70
     0
  9
$DIMTOH
 70
     0
  9
$DIMSE1
 70
     0
  9
$DIMSE2
 70
     0
  9
$DIMTAD
 70
     1
  9
$DIMZIN
 70
     8
  9
$DIMBLK
  1

  9
$DIMASO
 70
     0
  9
$DIMSHO
 70
     1
  9
$DIMPOST
  1

  9
$DIMAPOST
  1

  9
$DIMALT
 70
     0
  9
$DIMALTD
 70
     2
  9
$DIMALTF
 40
25.399999999999999
  9
$DIMLFAC
 40
1.0
  9
$DIMTOFL
 70
     0
  9
$DIMTVP
 40
0.0
  9
$DIMTIX
 70
     0
  9
$DIMSOXD
 70
     0
  9
$DIMSAH
 70
     0
  9
$DIMBLK1
  1

  9
$DIMBLK2
  1

  9
$DIMSTYLE
  2
ITM
  9
$DIMCLRD
 70
     4
  9
$DIMCLRE
 70
     4
  9
$DIMCLRT
 70
     4
  9
$DIMTFAC
 40
1.0
  9
$DIMGAP
 40
1.0
  9
$LUNITS
 70
     2
  9
$LUPREC
 70
     2
  9
$SKETCHINC
 40
1.0
  9
$FILLETRAD
 40
0.4
  9
$AUNITS
 70
     0
  9
$AUPREC
 70
     0
  9
$MENU
  1
.
  9
$ELEVATION
 40
0.0
  9
$PELEVATION
 40
0.0
  9
$THICKNESS
 40
0.0
  9
$LIMCHECK
 70
     0
  9
$BLIPMODE
 70
     0
  9
$CHAMFERA
 40
1.1999999999999991
  9
$CHAMFERB
 40
1.1999999999999991
  9
$SKPOLY
 70
     0
  9
$TDCREATE
 40
2453354.0921258219
  9
$TDUPDATE
 40
2456597.6665411349
  9
$TDINDWG
 40
512.61564442129998
  9
$TDUSRTIMER
 40
512.61536644679995
  9
$USRTIMER
 70
     1
  9
$ANGBASE
 50
0.0
  9
$ANGDIR
 70
     0
  9
$PDMODE
 70
     0
  9
$PDSIZE
 40
0.0
  9
$PLINEWID
 40
0.0
  9
$COORDS
 70
     1
  9
$SPLFRAME
 70
     0
  9
$SPLINETYPE
 70
     6
  9
$SPLINESEGS
 70
     8
  9
$ATTDIA
 70
     0
  9
$ATTREQ
 70
     1
  9
$HANDLING
 70
     1
  9
$HANDSEED
  5
20E
  9
$SURFTAB1
 70
     6
  9
$SURFTAB2
 70
     6
  9
$SURFTYPE
 70
     6
  9
$SURFU
 70
     6
  9
$SURFV
 70
     6
  9
$UCSNAME
  2

  9
$UCSORG
 10
0.0
 20
0.0
 30
0.0
  9
$UCSXDIR
 10
1.0
 20
0.0
 30
0.0
  9
$UCSYDIR
 10
0.0
 20
1.0
 30
0.0
  9
$PUCSNAME
  2

  9
$PUCSORG
 10
0.0
 20
0.0
 30
0.0
  9
$PUCSXDIR
 10
1.0
 20
0.0
 30
0.0
  9
$PUCSYDIR
 10
0.0
 20
1.0
 30
0.0
  9
$USERI1
 70
     4
  9
$USERI2
 70
     1
  9
$USERI3
 70
     1
  9
$USERI4
 70
     0
  9
$USERI5
 70
     0
  9
$USERR1
 40
1.0
  9
$USERR2
 40
3.0
  9
$USERR3
 40
3.2000000000000002
  9
$USERR4
 40
3.0
  9
$USERR5
 40
10.0
  9
$WORLDVIEW
 70
     1
  9
$SHADEDGE
 70
     3
  9
$SHADEDIF
 70
    70
  9
$TILEMODE
 70
     1
  9
$MAXACTVP
 70
    16
  9
$PLIMCHECK
 70
     0
  9
$PEXTMIN
 10
0.0
 20
0.0
 30
0.0
  9
$PEXTMAX
 10
0.0
 20
0.0
 30
0.0
  9
$PLIMMIN
 10
0.0
 20
0.0
  9
$PLIMMAX
 10
12.0
 20
9.0
  9
$UNITMODE
 70
     0
  9
$VISRETAIN
 70
     0
  9
$PLINEGEN
 70
     0
  9
$PSLTSCALE
 70
     1
  0
ENDSEC
  0
SECTION
  2
TABLES
  0
TABLE
  2
VPORT
 70
     1
  0
VPORT
  2
*ACTIVE
 70
     0
 10
0.0
 20
0.0
 11
1.0
 21
1.0
 12
202.55787946771341
 22
133.5127261426681
 13
0.0
 23
0.0
 14
5.0
 24
5.0
 15
10.0
 25
10.0
 16
0.0
 26
0.0
 36
1.0
 17
0.0
 27
0.0
 37
0.0
 40
275.42274993631997
 41
1.831871345029239
 42
50.0
 43
0.0
 44
0.0
 50
0.0
 51
0.0
 71
    16
 72
   500
 73
     1
 74
     1
 75
     0
 76
     0
 77
     0
 78
     1
  0
ENDTAB
  0
TABLE
  2
LTYPE
 70
     4
  0
LTYPE
  2
CONTINUOUS
 70
     0
  3
Solid line
 72
    65
 73
     0
 40
0.0
  0
LTYPE
  2
DASHED
 70
     0
  3
__ __ __ __ __ __ __ __ __ __ __ __ __ __ __
 72
    65
 73
     2
 40
0.75
 49
0.5
 49
-0.25
  0
LTYPE
  2
CENTER
 70
     0
  3
____ _ ____ _ ____ _ ____ _ ____ _ ____ _ ____
 72
    65
 73
     4
 40
2.0
 49
1.25
 49
-0.25
 49
0.25
 49
-0.25
  0
LTYPE
  2
PHANTOM2
 70
     0
  3
___ _ _ ___ _ _ ___ _ _ ___ _ _
 72
    65
 73
     6
 40
1.25
 49
0.625
 49
-0.125
 49
0.125
 49
-0.125
 49
0.125
 49
-0.125
  0
ENDTAB
  0
TABLE
  2
LAYER
 70
     5
  0
LAYER
  2
0
 70
     0
 62
     7
  6
CONTINUOUS
  0
LAYER
  2
2
 70
     0
 62
     2
  6
DASHED
  0
LAYER
  2
1
 70
     0
 62
     1
  6
CENTER
  0
LAYER
  2
WAKU
 70
     0
 62
     5
  6
CONTINUOUS
  0
LAYER
  2
3
 70
     0
 62
     3
  6
CONTINUOUS
  0
ENDTAB
  0
TABLE
  2
STYLE
 70
     3
  0
STYLE
  2
STANDARD
 70
     0
 40
0.0
 41
1.0
 50
0.0
 71
     0
 42
2.5
  3
ROMANS
  4
EXTFONT
  0
STYLE
  2
K
 70
     0
 40
0.0
 41
0.75
 50
0.0
 71
     0
 42
3.2000000000000002
  3
ROMANS.shx
  4
EXTFONT.shx
  0
STYLE
  2
STANDARD1
 70
     0
 40
0.0
 41
1.0
 50
0.0
 71
     0
 42
3.0
  3
txt
  4

  0
ENDTAB
  0
TABLE
  2
VIEW
 70
     0
  0
ENDTAB
  0
TABLE
  2
UCS
 70
     0
  0
ENDTAB
  0
TABLE
  2
APPID
 70
     3
  0
APPID
  2
ACAD
 70
     0
  0
APPID
  2
ACAD_MLEADERVER
 70
     0
  0
APPID
  2
ACAD_NAV_VCDISPLAY
 70
     0
  0
ENDTAB
  0
TABLE
  2
DIMSTYLE
 70
     2
  0
DIMSTYLE
  2
ITM
 70
     0
  3

  4

  5

  6

  7

 40
0.0
 41
2.5
 42
1.0
 43
6.0
 44
1.0
 45
0.0
 46
0.0
 47
495.0
 48
0.0
140
3.0
141
0.0
142
0.0
143
25.399999999999999
144
1.0
145
0.0
146
1.0
147
1.0
 71
     0
 72
     0
 73
     0
 74
     0
 75
     0
 76
     0
 77
     3
 78
     8
170
     0
171
     2
172
     1
173
     0
174
     0
175
     0
176
     0
177
     0
178
     0
  0
DIMSTYLE
  2
STANDARD
 70
     0
  3

  4

  5

  6

  7

 40
1.0
 41
0.18
 42
0.0625
 43
0.38
 44
0.18
 45
0.0
 46
0.0
 47
0.0
 48
0.0
140
0.18
141
0.09
142
0.0
143
25.399999999999999
144
1.0
145
0.0
146
1.0
147
0.09
 71
     0
 72
     0
 73
     1
 74
     1
 75
     0
 76
     0
 77
     0
 78
     0
170
     0
171
     2
172
     0
173
     0
174
     0
175
     0
176
     0
177
     0
178
     0
  0
ENDTAB
  0
ENDSEC
  0
SECTION
  2
BLOCKS
  0
BLOCK
  8
0
  2
$MODEL_SPACE
 70
     0
 10
0.0
 20
0.0
 30
0.0
  3
$MODEL_SPACE
  1

  0
ENDBLK
  5
14
  8
0
  0
BLOCK
 67
     1
  8
0
  2
$PAPER_SPACE
 70
     0
 10
0.0
 20
0.0
 30
0.0
  3
$PAPER_SPACE
  1

  0
ENDBLK
  5
1B
 67
     1
  8
0
  0
BLOCK
  8
0
  2
ARROW1
 70
     0
 10
0.0
 20
0.0
 30
0.0
  3
ARROW1
  1

  0
SOLID
  5
4C
  8
WAKU
  6
CONTINUOUS
 62
     4
 10
-1.0
 20
0.1666666666666714
 30
0.0
 11
-1.0
 21
-0.1666666666666714
 31
0.0
 12
0.0
 22
0.0
 32
0.0
 13
0.0
 23
0.0
 33
0.0
  0
ENDBLK
  5
50
  8
0
  0
ENDSEC
  0
SECTION
  2
ENTITIES
  0
LINE
  5
77
  8
0
 10
80.888502235887501
 20
117.4370815943998
 30
0.0
 11
58.88850235509679
 21
117.4370815943999
 31
0.0
  0
LINE
  5
78
  8
0
 10
58.88850235509679
 20
117.4370815943999
 30
0.0
 11
58.888502355096797
 21
119.4370819222255
 31
0.0
  0
LINE
  5
79
  8
0
 10
58.888502355096797
 20
119.4370819222255
 30
0.0
 11
80.888502235887501
 21
119.4370819222253
 31
0.0
  0
LINE
  5
7A
  8
0
 10
80.888502235887501
 20
119.4370819222253
 30
0.0
 11
80.888502235887501
 21
117.4370815943998
 31
0.0
  0
LINE
  5
7B
  8
0
 10
58.888502355096747
 20
105.4370814900918
 30
0.0
 11
80.888502235887444
 21
105.4370814900916
 31
0.0
  0
LINE
  5
7C
  8
0
 10
58.888502355096747
 20
105.4370814900918
 30
0.0
 11
58.88850235509679
 21
117.4370815943999
 31
0.0
  0
LINE
  5
7D
  8
0
 10
80.888502235887444
 20
105.4370814900916
 30
0.0
 11
80.888502235887501
 21
117.4370815943998
 31
0.0
  0
LINE
  5
7E
  8
0
 10
80.888502235887444
 20
103.4370811622661
 30
0.0
 11
58.888502355096747
 21
103.4370811622662
 31
0.0
  0
LINE
  5
7F
  8
0
 10
58.888502355096747
 20
103.4370811622662
 30
0.0
 11
58.888502355096747
 21
105.4370814900918
 31
0.0
  0
LINE
  5
80
  8
0
 10
80.888502235887444
 20
105.4370814900916
 30
0.0
 11
80.888502235887444
 21
103.4370811622661
 31
0.0
  0
LINE
  5
81
  8
0
 10
80.888502235887614
 20
129.43708076738531
 30
0.0
 11
79.888502071974841
 21
130.43708093129811
 31
0.0
  0
LINE
  5
82
  8
0
 10
59.888502402594348
 20
130.4370809312982
 30
0.0
 11
58.888502355096897
 21
129.43708076738551
 31
0.0
  0
LINE
  5
83
  8
0
 10
79.888502071974841
 20
130.43708093129811
 30
0.0
 11
59.888502402594348
 21
130.4370809312982
 31
0.0
  0
CIRCLE
  5
84
  8
0
 10
63.88850235509689
 20
125.43708154224581
 30
0.0
 40
2.7500000000000142
  0
CIRCLE
  5
85
  8
0
 10
75.888502355096875
 20
125.43708154224571
 30
0.0
 40
2.7499999999999849
  0
LINE
  5
86
  8
0
 10
58.888502355096861
 20
119.4370819222255
 30
0.0
 11
58.888502355096897
 21
129.43708076738551
 31
0.0
  0
LINE
  5
87
  8
0
 10
80.888502235887586
 20
119.4370819222253
 30
0.0
 11
80.888502235887614
 21
129.43708076738531
 31
0.0
  0
LINE
  5
88
  8
0
 10
79.888502071974699
 20
92.437082153193344
 30
0.0
 11
59.888502402594213
 21
92.437082153193415
 31
0.0
  0
LINE
  5
89
  8
0
 10
58.888502355096762
 20
93.437082317106245
 30
0.0
 11
59.888502402594213
 21
92.437082153193415
 31
0.0
  0
CIRCLE
  5
8A
  8
0
 10
63.88850235509679
 20
97.437081542245807
 30
0.0
 40
2.75
  0
CIRCLE
  5
8B
  8
0
 10
75.88850235509679
 20
97.437081542245764
 30
0.0
 40
2.75
  0
LINE
  5
8C
  8
0
 10
79.888502071974699
 20
92.437082153193344
 30
0.0
 11
80.888502235887486
 21
93.437082317106118
 31
0.0
  0
LINE
  5
8D
  8
0
 10
58.888502355096762
 20
93.437082317106245
 30
0.0
 11
58.888502355096797
 21
103.4370811622662
 31
0.0
  0
LINE
  5
8E
  8
0
 10
80.888502235887486
 20
93.437082317106118
 30
0.0
 11
80.888502235887529
 21
103.4370811622661
 31
0.0
  0
LINE
  5
8F
  8
2
 10
79.688502411721203
 20
114.83708158732171
 30
0.0
 11
79.688502411721203
 21
108.03708149716969
 31
0.0
  0
LINE
  5
94
  8
2
 10
60.088502412093717
 20
108.03708149716979
 30
0.0
 11
60.088502412093739
 21
114.8370815873219
 31
0.0
  0
LINE
  5
95
  8
2
 10
59.488502383595247
 20
107.437081352256
 30
0.0
 11
80.288503255126898
 21
107.4370813522559
 31
0.0
  0
LINE
  5
96
  8
2
 10
80.288503255126955
 20
115.4370817322355
 30
0.0
 11
59.488502383595268
 21
115.4370817322357
 31
0.0
  0
LINE
  5
97
  8
2
 10
59.488502383595247
 20
107.437081352256
 30
0.0
 11
59.488502383595247
 21
107.46315465905499
 31
0.0
  0
LINE
  5
98
  8
2
 10
59.488502383595247
 20
107.46315465905499
 30
0.0
 11
59.488502383595268
 21
115.4370817322357
 31
0.0
  0
LINE
  5
99
  8
1
 10
54.348530025478041
 20
111.43708154224581
 30
0.0
 11
84.844336356283904
 21
111.43708154224571
 31
0.0
  0
LINE
  5
9E
  8
0
 10
79.888502071974713
 20
38.44781167424523
 30
0.0
 11
79.888502071974699
 21
46.44781205422484
 31
0.0
  0
LINE
  5
9F
  8
0
 10
79.888502071974699
 20
46.44781205422484
 30
0.0
 11
80.888502235887486
 21
46.44781205422484
 31
0.0
  0
LINE
  5
A0
  8
0
 10
80.888502235887486
 20
46.44781205422484
 30
0.0
 11
80.888502235887501
 21
38.44781167424523
 31
0.0
  0
LINE
  5
A1
  8
0
 10
80.888502235887501
 20
38.44781167424523
 30
0.0
 11
79.888502071974713
 21
38.44781167424523
 31
0.0
  0
LINE
  5
A2
  8
0
 10
59.888502402594213
 20
46.447812054224777
 30
0.0
 11
59.888502402594241
 21
38.44781167424518
 31
0.0
  0
LINE
  5
A3
  8
0
 10
79.888502071974699
 20
46.44781205422484
 30
0.0
 11
59.888502402594213
 21
46.447812054224777
 31
0.0
  0
LINE
  5
A4
  8
0
 10
79.888502071974713
 20
38.44781167424523
 30
0.0
 11
59.888502402594241
 21
38.44781167424518
 31
0.0
  0
LINE
  5
A5
  8
0
 10
58.88850235509679
 20
38.44781167424518
 30
0.0
 11
58.888502355096762
 21
46.447812054224777
 31
0.0
  0
LINE
  5
A6
  8
0
 10
58.888502355096762
 20
46.447812054224777
 30
0.0
 11
59.888502402594213
 21
46.447812054224777
 31
0.0
  0
LINE
  5
A7
  8
0
 10
59.888502402594241
 20
38.44781167424518
 30
0.0
 11
58.88850235509679
 21
38.44781167424518
 31
0.0
  0
LINE
  5
A8
  8
0
 10
80.888502235887444
 20
64.447812210687033
 30
0.0
 11
58.888502355096747
 21
64.447812210686919
 31
0.0
  0
LINE
  5
A9
  8
0
 10
58.888502355096797
 20
46.44781205422472
 30
0.0
 11
58.888502355096747
 21
64.447812210686919
 31
0.0
  0
LINE
  5
AA
  8
0
 10
80.888502235887529
 20
46.44781205422484
 30
0.0
 11
80.888502235887444
 21
64.447812210687033
 31
0.0
  0
LINE
  5
AB
  8
0
 10
58.888502355096747
 20
66.447812538512466
 30
0.0
 11
80.888502235887444
 21
66.447812538512579
 31
0.0
  0
LINE
  5
AC
  8
0
 10
58.888502355096747
 20
64.447812210686919
 30
0.0
 11
58.888502355096747
 21
66.447812538512466
 31
0.0
  0
LINE
  5
AD
  8
0
 10
80.888502235887444
 20
66.447812538512579
 30
0.0
 11
80.888502235887444
 21
64.447812210687033
 31
0.0
  0
LINE
  5
AE
  8
2
 10
79.688502411721203
 20
61.847811039455713
 30
0.0
 11
79.688502411721203
 21
55.047811414964968
 31
0.0
  0
LINE
  5
AF
  8
2
 10
60.088502412093739
 20
55.047811414964912
 30
0.0
 11
60.088502412093717
 21
61.84781103945565
 31
0.0
  0
LINE
  5
B0
  8
1
 10
75.888502355096804
 20
49.447812054224833
 30
0.0
 11
75.88850235509679
 21
35.447811674245209
 31
0.0
  0
LINE
  5
B1
  8
2
 10
59.488502383595268
 20
54.44781243420433
 30
0.0
 11
80.288503255126955
 21
54.447812434204451
 31
0.0
  0
LINE
  5
B2
  8
2
 10
80.288503255126898
 20
62.447811882861487
 30
0.0
 11
59.488502383595247
 21
62.447811882861373
 31
0.0
  0
LINE
  5
B3
  8
2
 10
59.488502383595261
 20
54.44781243420433
 30
0.0
 11
59.488502383595247
 21
62.447811882861373
 31
0.0
  0
LINE
  5
B4
  8
1
 10
63.888502355096911
 20
35.447811674245187
 30
0.0
 11
63.888502355096882
 21
49.447812054224791
 31
0.0
  0
LINE
  5
B5
  8
1
 10
55.888502355096769
 20
58.447811674245102
 30
0.0
 11
83.888502235887486
 21
58.44781167424518
 31
0.0
  0
LINE
  5
B6
  8
0
 10
156.31506040234939
 20
130.43708093129811
 30
0.0
 11
164.315060782329
 21
130.43708093129811
 31
0.0
  0
LINE
  5
B7
  8
0
 10
164.315060782329
 20
129.43708076738531
 30
0.0
 11
156.31506040234939
 21
129.43708076738531
 31
0.0
  0
LINE
  5
B8
  8
0
 10
156.31506040234939
 20
129.43708076738531
 30
0.0
 11
156.31506040234939
 21
130.43708093129811
 31
0.0
  0
LINE
  5
B9
  8
0
 10
164.315060782329
 20
130.43708093129811
 30
0.0
 11
164.315060782329
 21
129.43708076738531
 31
0.0
  0
LINE
  5
BA
  8
0
 10
156.31506040234939
 20
119.4370819222253
 30
0.0
 11
156.31506040234939
 21
129.43708076738531
 31
0.0
  0
LINE
  5
BB
  8
0
 10
156.31506040234939
 20
93.437082317106118
 30
0.0
 11
164.315060782329
 21
93.437082317106118
 31
0.0
  0
LINE
  5
BC
  8
0
 10
156.31506040234939
 20
93.437082317106118
 30
0.0
 11
156.31506040234939
 21
103.4370811622661
 31
0.0
  0
LINE
  5
BD
  8
0
 10
156.31506040234939
 20
103.4370811622661
 30
0.0
 11
138.3150602458872
 21
103.4370811622661
 31
0.0
  0
LINE
  5
BE
  8
0
 10
136.31505991806159
 20
105.4370814900916
 30
0.0
 11
138.3150602458872
 21
103.4370811622661
 31
0.0
  0
LINE
  5
BF
  8
0
 10
136.31505991806159
 20
105.4370814900916
 30
0.0
 11
136.31505991806159
 21
117.4370815943998
 31
0.0
  0
LINE
  5
C0
  8
0
 10
138.3150602458872
 20
119.4370819222253
 30
0.0
 11
136.31505991806159
 21
117.4370815943998
 31
0.0
  0
LINE
  5
C1
  8
0
 10
138.3150602458872
 20
119.4370819222253
 30
0.0
 11
156.31506040234939
 21
119.4370819222253
 31
0.0
  0
CIRCLE
  5
C2
  8
0
 10
144.315060782329
 20
111.43708154224571
 30
0.0
 40
4.5999999999999943
  0
LINE
  5
C3
  8
0
 10
164.315060782329
 20
129.43708076738531
 30
0.0
 11
164.315060782329
 21
93.437082317106118
 31
0.0
  0
LINE
  5
C4
  8
0
 10
164.315060782329
 20
92.437082153193344
 30
0.0
 11
156.31506040234939
 21
92.437082153193344
 31
0.0
  0
LINE
  5
C5
  8
0
 10
156.31506040234939
 20
92.437082153193344
 30
0.0
 11
156.31506040234939
 21
93.437082317106118
 31
0.0
  0
LINE
  5
C6
  8
0
 10
164.315060782329
 20
93.437082317106118
 30
0.0
 11
164.315060782329
 21
92.437082153193344
 31
0.0
  0
LINE
  5
C7
  8
1
 10
153.31506040234939
 20
125.43708154224571
 30
0.0
 11
167.315060782329
 21
125.43708154224571
 31
0.0
  0
LINE
  5
C8
  8
1
 10
153.31506040234939
 20
97.437081542245807
 30
0.0
 11
167.315060782329
 21
97.437081542245807
 31
0.0
  0
LINE
  5
C9
  8
2
 10
58.888502355096797
 20
116.0370816443188
 30
0.0
 11
60.088502412093739
 21
114.8370815873219
 31
0.0
  0
LINE
  5
CA
  8
2
 10
58.888502355096783
 20
106.83708144017289
 30
0.0
 11
60.088502412093717
 21
108.03708149716979
 31
0.0
  0
LINE
  5
CB
  8
2
 10
79.688502411721203
 20
108.03708149716969
 30
0.0
 11
80.888502235887444
 21
106.8370814401728
 31
0.0
  0
LINE
  5
CC
  8
2
 10
80.888502235887501
 20
116.0370816443186
 30
0.0
 11
79.688502411721203
 21
114.83708158732171
 31
0.0
  0
LINE
  5
CD
  8
2
 10
80.888502235887486
 20
63.047810863622061
 30
0.0
 11
79.688502411721203
 21
61.847811039455713
 31
0.0
  0
LINE
  5
CE
  8
2
 10
79.688502411721231
 20
55.047811414964968
 30
0.0
 11
80.888502235887529
 21
53.847811590798727
 31
0.0
  0
LINE
  5
CF
  8
2
 10
58.888502355096783
 20
63.04781086362194
 30
0.0
 11
60.088502412093717
 21
61.84781103945565
 31
0.0
  0
LINE
  5
D0
  8
2
 10
60.088502412093739
 20
55.047811414964912
 30
0.0
 11
58.888502355096783
 21
53.847811590798578
 31
0.0
  0
LINE
  5
D1
  8
2
 10
61.138502258239242
 20
46.447812054224777
 30
0.0
 11
61.138502258239257
 21
38.44781167424518
 31
0.0
  0
LINE
  5
D2
  8
2
 10
66.638502228436906
 20
46.447812054224812
 30
0.0
 11
66.638502228436948
 21
38.447811674245202
 31
0.0
  0
LINE
  5
D3
  8
2
 10
73.138502362547371
 20
46.44781205422484
 30
0.0
 11
73.138502362547399
 21
38.44781167424523
 31
0.0
  0
LINE
  5
D4
  8
2
 10
78.638503264067623
 20
46.44781205422484
 30
0.0
 11
78.638503264067651
 21
38.44781167424523
 31
0.0
  0
LINE
  5
D5
  8
2
 10
156.31506040234939
 20
128.18708195947821
 30
0.0
 11
164.315060782329
 21
128.18708195947821
 31
0.0
  0
LINE
  5
D6
  8
2
 10
164.315060782329
 20
122.6870819892805
 30
0.0
 11
156.31506040234939
 21
122.6870819892805
 31
0.0
  0
LINE
  5
D7
  8
2
 10
156.31506040234939
 20
100.1870810952109
 30
0.0
 11
164.315060782329
 21
100.1870810952109
 31
0.0
  0
LINE
  5
D8
  8
2
 10
164.315060782329
 20
94.687081125013236
 30
0.0
 11
156.31506040234939
 21
94.687081125013208
 31
0.0
  0
LINE
  5
D9
  8
2
 10
60.088502412093739
 20
114.8370815873219
 30
0.0
 11
79.688502411721203
 21
114.83708158732171
 31
0.0
  0
LINE
  5
DA
  8
2
 10
60.094505266815482
 20
108.04308435189159
 30
0.0
 11
79.688502411721203
 21
108.03936960023719
 31
0.0
  0
LINE
  5
DB
  8
1
 10
80.8885022358876
 20
125.43708154224571
 30
0.0
 11
58.888502355096882
 21
125.43708154224581
 31
0.0
  0
LINE
  5
DC
  8
1
 10
75.888502355096875
 20
119.4370819222254
 30
0.0
 11
75.888502355096875
 21
130.43708093129811
 31
0.0
  0
LINE
  5
DD
  8
1
 10
63.888502355096897
 20
130.4370809312982
 30
0.0
 11
63.888502355096882
 21
119.4370819222254
 31
0.0
  0
LINE
  5
DE
  8
1
 10
75.88850235509679
 20
92.43708215319333
 30
0.0
 11
75.888502355096804
 21
103.437081162266
 31
0.0
  0
LINE
  5
DF
  8
1
 10
63.888502355096819
 20
92.437082153193515
 30
0.0
 11
63.888502355096797
 21
103.4370811622663
 31
0.0
  0
LINE
  5
E0
  8
1
 10
80.888502235887529
 20
97.43708154224602
 30
0.0
 11
58.888502355096797
 21
97.43708154224592
 31
0.0
  0
LINE
  5
E1
  8
1
 10
75.88850235509679
 20
103.4370811622663
 30
0.0
 11
75.88850235509679
 21
92.4370821531936
 31
0.0
  0
LINE
  5
E2
  8
1
 10
138.41506078232899
 20
111.43708154224571
 30
0.0
 11
150.215060782329
 21
111.43708154224571
 31
0.0
  0
LINE
  5
E3
  8
1
 10
144.315060782329
 20
117.3370815422457
 30
0.0
 11
144.315060782329
 21
105.5370815422457
 31
0.0
  0
LINE
  5
E4
  8
2
 10
80.288502207389016
 20
54.447812434204387
 30
0.0
 11
80.288502207389016
 21
62.447811882861409
 31
0.0
  0
LINE
  5
E5
  8
2
 10
60.088502412093717
 20
61.84781103945565
 30
0.0
 11
79.688502411721203
 21
61.847811039455657
 31
0.0
  0
LINE
  5
E6
  8
2
 10
79.688502411721231
 20
55.047811414964968
 30
0.0
 11
60.088502412093753
 21
55.04781141496489
 31
0.0
  0
LINE
  5
E7
  8
1
 10
69.888502237284584
 20
135.32538729284479
 30
0.0
 11
69.888502237284584
 21
87.730732409032768
 31
0.0
  0
LINE
  5
E8
  8
2
 10
80.288502110629395
 20
107.4631545581619
 30
0.0
 11
80.288502187986495
 21
115.43708163134259
 31
0.0
  0
CIRCLE
  5
E9
  8
0
 10
144.315060782329
 20
111.43708154224571
 30
0.0
 40
3.3235000000000001
  0
CIRCLE
  5
EA
  8
3
 10
144.315060782329
 20
111.43708154224571
 30
0.0
 40
4.0
  0
TEXT
  5
181
  8
0
 62
     3
 10
0.0
 20
0.0
 30
0.0
 40
10.0
  1
BJ215-08020W
  7
STANDARD1
  0
ENDSEC
  0
EOF
