  0
SECTION
  2
HEADER
  9
$ACADVER
  1
AC1009
  9
$INSBASE
 10
0.0
 20
0.0
 30
0.0
  9
$EXTMIN
 10
0.0
 20
-2.960436562073669
 30
0.0
  9
$EXTMAX
 10
168.0306526545194
 20
122.7511260215651
 30
0.0
  9
$LIMMIN
 10
0.0
 20
0.0
  9
$LIMMAX
 10
12.0
 20
9.0
  9
$ORTHOMODE
 70
     1
  9
$REGENMODE
 70
     1
  9
$FILLMODE
 70
     1
  9
$QTEXTMODE
 70
     0
  9
$MIRRTEXT
 70
     0
  9
$DRAGMODE
 70
     2
  9
$LTSCALE
 40
5.0
  9
$OSMODE
 70
  3071
  9
$ATTMODE
 70
     1
  9
$TEXTSIZE
 40
0.2
  9
$TRACEWID
 40
0.05
  9
$TEXTSTYLE
  7
STANDARD
  9
$CLAYER
  8
1
  9
$CELTYPE
  6
BYLAYER
  9
$CECOLOR
 62
   256
  9
$DIMSCALE
 40
1.0
  9
$DIMASZ
 40
0.18
  9
$DIMEXO
 40
0.0625
  9
$DIMDLI
 40
0.38
  9
$DIMRND
 40
0.0
  9
$DIMDLE
 40
0.0
  9
$DIMEXE
 40
0.18
  9
$DIMTP
 40
0.0
  9
$DIMTM
 40
0.0
  9
$DIMTXT
 40
0.18
  9
$DIMCEN
 40
0.09
  9
$DIMTSZ
 40
0.0
  9
$DIMTOL
 70
     0
  9
$DIMLIM
 70
     0
  9
$DIMTIH
 70
     1
  9
$DIMTOH
 70
     1
  9
$DIMSE1
 70
     0
  9
$DIMSE2
 70
     0
  9
$DIMTAD
 70
     0
  9
$DIMZIN
 70
     0
  9
$DIMBLK
  1

  9
$DIMASO
 70
     1
  9
$DIMSHO
 70
     1
  9
$DIMPOST
  1

  9
$DIMAPOST
  1

  9
$DIMALT
 70
     0
  9
$DIMALTD
 70
     2
  9
$DIMALTF
 40
25.399999999999999
  9
$DIMLFAC
 40
1.0
  9
$DIMTOFL
 70
     0
  9
$DIMTVP
 40
0.0
  9
$DIMTIX
 70
     0
  9
$DIMSOXD
 70
     0
  9
$DIMSAH
 70
     0
  9
$DIMBLK1
  1

  9
$DIMBLK2
  1

  9
$DIMSTYLE
  2
STANDARD
  9
$DIMCLRD
 70
     0
  9
$DIMCLRE
 70
     0
  9
$DIMCLRT
 70
     0
  9
$DIMTFAC
 40
1.0
  9
$DIMGAP
 40
0.09
  9
$LUNITS
 70
     2
  9
$LUPREC
 70
     4
  9
$SKETCHINC
 40
0.1
  9
$FILLETRAD
 40
0.0
  9
$AUNITS
 70
     0
  9
$AUPREC
 70
     0
  9
$MENU
  1
.
  9
$ELEVATION
 40
0.0
  9
$PELEVATION
 40
0.0
  9
$THICKNESS
 40
0.0
  9
$LIMCHECK
 70
     0
  9
$BLIPMODE
 70
     0
  9
$CHAMFERA
 40
0.0
  9
$CHAMFERB
 40
0.0
  9
$SKPOLY
 70
     0
  9
$TDCREATE
 40
2453083.4120647679
  9
$TDUPDATE
 40
2456597.666404271
  9
$TDINDWG
 40
0.2225584722
  9
$TDUSRTIMER
 40
0.2225583565
  9
$USRTIMER
 70
     1
  9
$ANGBASE
 50
0.0
  9
$ANGDIR
 70
     0
  9
$PDMODE
 70
     0
  9
$PDSIZE
 40
0.0
  9
$PLINEWID
 40
0.0
  9
$COORDS
 70
     1
  9
$SPLFRAME
 70
     0
  9
$SPLINETYPE
 70
     6
  9
$SPLINESEGS
 70
     8
  9
$ATTDIA
 70
     0
  9
$ATTREQ
 70
     1
  9
$HANDLING
 70
     1
  9
$HANDSEED
  5
A94
  9
$SURFTAB1
 70
     6
  9
$SURFTAB2
 70
     6
  9
$SURFTYPE
 70
     6
  9
$SURFU
 70
     6
  9
$SURFV
 70
     6
  9
$UCSNAME
  2

  9
$UCSORG
 10
0.0
 20
0.0
 30
0.0
  9
$UCSXDIR
 10
1.0
 20
0.0
 30
0.0
  9
$UCSYDIR
 10
0.0
 20
1.0
 30
0.0
  9
$PUCSNAME
  2

  9
$PUCSORG
 10
0.0
 20
0.0
 30
0.0
  9
$PUCSXDIR
 10
1.0
 20
0.0
 30
0.0
  9
$PUCSYDIR
 10
0.0
 20
1.0
 30
0.0
  9
$USERI1
 70
     0
  9
$USERI2
 70
     1
  9
$USERI3
 70
     0
  9
$USERI4
 70
     0
  9
$USERI5
 70
     0
  9
$USERR1
 40
0.0
  9
$USERR2
 40
0.0
  9
$USERR3
 40
0.0
  9
$USERR4
 40
0.0
  9
$USERR5
 40
0.0
  9
$WORLDVIEW
 70
     1
  9
$SHADEDGE
 70
     3
  9
$SHADEDIF
 70
    70
  9
$TILEMODE
 70
     1
  9
$MAXACTVP
 70
    64
  9
$PLIMCHECK
 70
     0
  9
$PEXTMIN
 10
0.0
 20
0.0
 30
0.0
  9
$PEXTMAX
 10
0.0
 20
0.0
 30
0.0
  9
$PLIMMIN
 10
0.0
 20
0.0
  9
$PLIMMAX
 10
12.0
 20
9.0
  9
$UNITMODE
 70
     0
  9
$VISRETAIN
 70
     1
  9
$PLINEGEN
 70
     0
  9
$PSLTSCALE
 70
     1
  0
ENDSEC
  0
SECTION
  2
TABLES
  0
TABLE
  2
VPORT
 70
     1
  0
VPORT
  2
*ACTIVE
 70
     0
 10
0.0
 20
0.0
 11
1.0
 21
1.0
 12
87.498837048965356
 22
59.895866798935749
 13
0.0
 23
0.0
 14
0.5
 24
0.5
 15
0.5
 25
0.5
 16
0.0
 26
0.0
 36
1.0
 17
0.0
 27
0.0
 37
0.0
 40
126.845526946105
 41
1.831871345029239
 42
50.0
 43
0.0
 44
0.0
 50
0.0
 51
0.0
 71
     0
 72
  1000
 73
     1
 74
     2
 75
     0
 76
     0
 77
     0
 78
     0
  0
ENDTAB
  0
TABLE
  2
LTYPE
 70
     4
  0
LTYPE
  2
CONTINUOUS
 70
     0
  3
Solid Line
 72
    65
 73
     0
 40
0.0
  0
LTYPE
  2
CENTER
 70
     0
  3
____ _ ____ _ ____ _ ____ _ ____ _ ____ _ ____
 72
    65
 73
     4
 40
2.0
 49
1.25
 49
-0.25
 49
0.25
 49
-0.25
  0
LTYPE
  2
HIDDEN
 70
     0
  3
_ _ _ _ _ _ _ _ _ _ _ _ _ _ _ _ _ _ _ _ _ _ _
 72
    65
 73
     2
 40
0.375
 49
0.25
 49
-0.125
  0
LTYPE
  2
PHANTOM2
 70
     0
  3
___ _ _ ___ _ _ ___ _ _ ___ _ _
 72
    65
 73
     6
 40
1.25
 49
0.625
 49
-0.125
 49
0.125
 49
-0.125
 49
0.125
 49
-0.125
  0
ENDTAB
  0
TABLE
  2
LAYER
 70
     4
  0
LAYER
  2
0
 70
     0
 62
     7
  6
CONTINUOUS
  0
LAYER
  2
1
 70
     0
 62
     1
  6
CENTER
  0
LAYER
  2
2
 70
     0
 62
     2
  6
HIDDEN
  0
LAYER
  2
3
 70
     0
 62
     3
  6
CONTINUOUS
  0
ENDTAB
  0
TABLE
  2
STYLE
 70
     2
  0
STYLE
  2
STANDARD
 70
     0
 40
0.0
 41
1.0
 50
0.0
 71
     0
 42
0.2
  3
simplex.shx
  4
bigfont.shx
  0
STYLE
  2
STANDARD1
 70
     0
 40
0.0
 41
1.0
 50
0.0
 71
     0
 42
3.0
  3
txt
  4

  0
ENDTAB
  0
TABLE
  2
VIEW
 70
     0
  0
ENDTAB
  0
TABLE
  2
UCS
 70
     0
  0
ENDTAB
  0
TABLE
  2
APPID
 70
     3
  0
APPID
  2
ACAD
 70
     0
  0
APPID
  2
ACAD_MLEADERVER
 70
     0
  0
APPID
  2
ACAD_NAV_VCDISPLAY
 70
     0
  0
ENDTAB
  0
TABLE
  2
DIMSTYLE
 70
     1
  0
DIMSTYLE
  2
STANDARD
 70
     0
  3

  4

  5

  6

  7

 40
1.0
 41
0.18
 42
0.0625
 43
0.38
 44
0.18
 45
0.0
 46
0.0
 47
0.0
 48
0.0
140
0.18
141
0.09
142
0.0
143
25.399999999999999
144
1.0
145
0.0
146
1.0
147
0.09
 71
     0
 72
     0
 73
     1
 74
     1
 75
     0
 76
     0
 77
     0
 78
     0
170
     0
171
     2
172
     0
173
     0
174
     0
175
     0
176
     0
177
     0
178
     0
  0
ENDTAB
  0
ENDSEC
  0
SECTION
  2
BLOCKS
  0
BLOCK
  8
0
  2
$MODEL_SPACE
 70
     0
 10
0.0
 20
0.0
 30
0.0
  3
$MODEL_SPACE
  1

  0
ENDBLK
  5
21
  8
0
  0
BLOCK
 67
     1
  8
0
  2
$PAPER_SPACE
 70
     0
 10
0.0
 20
0.0
 30
0.0
  3
$PAPER_SPACE
  1

  0
ENDBLK
  5
5B
 67
     1
  8
0
  0
ENDSEC
  0
SECTION
  2
ENTITIES
  0
LINE
  5
80E
  8
0
 10
77.62724059556993
 20
57.147713962615512
 30
0.0
 11
78.82724059556989
 21
58.347713962615501
 31
0.0
  0
LINE
  5
80F
  8
0
 10
84.627240595570015
 20
58.347713962615501
 30
0.0
 11
78.82724059556989
 21
58.347713962615501
 31
0.0
  0
LINE
  5
810
  8
3
 10
84.627240595570015
 20
57.67121396261561
 30
0.0
 11
78.150740595569999
 21
57.671213962615639
 31
0.0
  0
LINE
  5
811
  8
0
 10
78.82724059556989
 20
58.347713962615551
 30
0.0
 11
78.827240595569904
 21
50.347713962615437
 31
0.0
  0
LINE
  5
812
  8
0
 10
78.827240595570004
 20
50.347713962615437
 30
0.0
 11
77.627240595570015
 21
51.547713962615433
 31
0.0
  0
LINE
  5
813
  8
0
 10
77.62724059556993
 20
57.147713962615512
 30
0.0
 11
77.627240595570015
 21
51.547713962615433
 31
0.0
  0
LINE
  5
814
  8
3
 10
84.627240595570015
 20
51.024213962615391
 30
0.0
 11
78.150740595569999
 21
51.02421396261537
 31
0.0
  0
LINE
  5
815
  8
0
 10
84.627240595569944
 20
50.347713962615437
 30
0.0
 11
78.827240595570004
 21
50.347713962615437
 31
0.0
  0
LINE
  5
816
  8
0
 10
117.02724059557001
 20
58.347713962615501
 30
0.0
 11
111.6272404763604
 21
58.347713962615501
 31
0.0
  0
LINE
  5
817
  8
3
 10
117.41781805267659
 20
57.671213962615639
 30
0.0
 11
111.6272404763603
 21
57.671213962615582
 31
0.0
  0
LINE
  5
818
  8
0
 10
117.62724059557
 20
57.308483478073981
 30
0.0
 11
117.02724059556991
 21
58.34771396261533
 31
0.0
  0
LINE
  5
819
  8
0
 10
117.02724059557001
 20
50.347713962615558
 30
0.0
 11
111.6272404763604
 21
50.347713962615529
 31
0.0
  0
LINE
  5
81A
  8
3
 10
117.41781805267679
 20
51.02421396261537
 30
0.0
 11
111.6272404763604
 21
51.024213962615391
 31
0.0
  0
LINE
  5
81B
  8
0
 10
117.02724059557001
 20
58.347713962615387
 30
0.0
 11
117.02724059557001
 21
50.347713962615387
 31
0.0
  0
LINE
  5
81C
  8
0
 10
117.62724059557
 20
57.308483478073981
 30
0.0
 11
117.6272405955699
 21
51.386944447156672
 31
0.0
  0
LINE
  5
81D
  8
0
 10
117.6272405955699
 20
51.386944447156672
 30
0.0
 11
117.02724059557001
 21
50.34771396261533
 31
0.0
  0
CIRCLE
  5
822
  8
0
 10
95.627240535965143
 20
97.04941999209035
 30
0.0
 40
2.5
  0
CIRCLE
  5
823
  8
3
 10
95.627240535965143
 20
97.04941999209035
 30
0.0
 40
2.0669999999999988
  0
LINE
  5
824
  8
0
 10
97.070616207764033
 20
97.049419992090066
 30
0.0
 11
96.348928371277225
 21
95.799419992090066
 31
0.0
  0
LINE
  5
825
  8
0
 10
96.348928371865213
 20
98.299419991073265
 30
0.0
 11
97.070616208352263
 21
97.049419991073265
 31
0.0
  0
LINE
  5
826
  8
0
 10
94.905552700066224
 20
98.299419991073265
 30
0.0
 11
96.348928373040053
 21
98.299419991073265
 31
0.0
  0
LINE
  5
827
  8
0
 10
94.183864864166495
 20
97.049419992090066
 30
0.0
 11
94.905552700653274
 21
98.299419992090066
 31
0.0
  0
LINE
  5
828
  8
0
 10
94.905552700065286
 20
95.7994199931087
 30
0.0
 11
94.183864863578265
 21
97.04941999310779
 31
0.0
  0
LINE
  5
829
  8
0
 10
96.348928371865213
 20
95.79941999310779
 30
0.0
 11
94.90555269889137
 21
95.79941999310779
 31
0.0
  0
LINE
  5
82B
  8
0
 10
155.3289466250439
 20
56.657115037493782
 30
0.0
 11
157.3289466250439
 21
55.502414499114927
 31
0.0
  0
LINE
  5
82C
  8
0
 10
153.32894662667189
 20
55.502414500055572
 30
0.0
 11
155.32894662667189
 21
56.657115038435101
 31
0.0
  0
LINE
  5
82D
  8
0
 10
153.32894662667189
 20
53.193013425177128
 30
0.0
 11
153.32894662667189
 21
55.502414501935498
 31
0.0
  0
LINE
  5
82E
  8
0
 10
155.3289466250439
 20
52.038312887737789
 30
0.0
 11
153.3289466250439
 21
53.193013426116629
 31
0.0
  0
LINE
  5
82F
  8
0
 10
157.32894662341411
 20
53.193013425175991
 30
0.0
 11
155.3289466234159
 21
52.038312886796461
 31
0.0
  0
LINE
  5
830
  8
0
 10
157.3289466234159
 20
55.502414500055806
 30
0.0
 11
157.3289466234159
 21
53.19301342329743
 31
0.0
  0
CIRCLE
  5
831
  8
0
 10
155.32894662504461
 20
54.347713962615728
 30
0.0
 40
4.000000000000056
  0
CIRCLE
  5
832
  8
3
 10
155.32894662504461
 20
54.347713962615728
 30
0.0
 40
3.3235000000002231
  0
LINE
  5
833
  8
0
 10
144.82894667860339
 20
45.84771400219298
 30
0.0
 11
165.82894667860299
 21
45.84771400219298
 31
0.0
  0
ARC
  5
834
  8
0
 10
145.80266723696641
 20
51.759199183283933
 30
0.0
 40
5.6228100464977411
 50
244.38424747036791
 51
304.38424746830623
  0
LINE
  5
835
  8
0
 10
144.82894667860319
 20
45.84771400219298
 30
0.0
 11
142.62724075643141
 21
47.118869509035193
 31
0.0
  0
LINE
  5
836
  8
0
 10
165.82894667860299
 20
45.84771400219298
 30
0.0
 11
168.03065260077491
 21
47.118869509035193
 31
0.0
  0
ARC
  5
837
  8
0
 10
164.85522612023979
 20
51.759199183283933
 30
0.0
 40
5.6228100464977411
 50
235.6157525316938
 51
295.61575252963212
  0
ARC
  5
838
  8
0
 10
155.32894667865659
 20
67.153908764766101
 30
0.0
 40
21.01751962797988
 50
252.4120462260509
 51
287.58795377391021
  0
LINE
  5
839
  8
0
 10
144.82894657139309
 20
62.347713717183353
 30
0.0
 11
142.62724064922119
 21
61.07655821034114
 31
0.0
  0
ARC
  5
83A
  8
0
 10
145.80266712975629
 20
56.436228536092408
 30
0.0
 40
5.6228100464977411
 50
55.615752531693801
 51
115.6157525358233
  0
ARC
  5
83B
  8
0
 10
155.32894657144641
 20
41.041518954610247
 30
0.0
 40
21.01751962797988
 50
72.412046226089771
 51
107.5879537739491
  0
ARC
  5
83C
  8
0
 10
164.85522601302961
 20
56.436228536092408
 30
0.0
 40
5.6228100464977411
 50
64.384247464176653
 51
124.3842474683062
  0
LINE
  5
83D
  8
0
 10
165.82894657139281
 20
62.347713717183353
 30
0.0
 11
168.0306524935647
 21
61.07655821034114
 31
0.0
  0
LINE
  5
83E
  8
0
 10
144.828946571393
 20
62.347713717183353
 30
0.0
 11
165.82894657139229
 21
62.347713717183353
 31
0.0
  0
ARC
  5
83F
  8
0
 10
90.127240535968824
 20
62.022338904210947
 30
0.0
 40
15.88594976741253
 50
249.74384199965871
 51
290.25615800031221
  0
ARC
  5
840
  8
0
 10
101.1272405359615
 20
62.022338904210947
 30
0.0
 40
15.88594976741253
 50
249.74384199968779
 51
290.25615800034132
  0
ARC
  5
841
  8
0
 10
101.12724053596131
 20
46.173088815203101
 30
0.0
 40
15.88594976741253
 50
69.743841999658699
 51
110.2561580003121
  0
ARC
  5
842
  8
0
 10
90.127240535968596
 20
46.173088815203101
 30
0.0
 40
15.88594976741253
 50
69.743841999687817
 51
110.2561580003413
  0
LINE
  5
843
  8
0
 10
106.6272404763605
 20
62.059039265335713
 30
0.0
 11
106.6272404763606
 21
46.13638909435754
 31
0.0
  0
LINE
  5
844
  8
0
 10
106.6272404763605
 20
111.4002730068277
 30
0.0
 11
106.6272404763605
 21
98.698566977353039
 31
0.0
  0
LINE
  5
845
  8
0
 10
106.6272404763605
 20
98.698566977353039
 30
0.0
 11
95.6272405359652
 21
92.347713962615643
 31
0.0
  0
LINE
  5
846
  8
0
 10
106.6272404763605
 20
111.4002730068277
 30
0.0
 11
95.627240535965143
 21
117.7511260215651
 31
0.0
  0
LINE
  5
847
  8
0
 10
84.627240595569901
 20
111.4002730068277
 30
0.0
 11
95.6272405359652
 21
117.7511260215651
 31
0.0
  0
LINE
  5
848
  8
0
 10
84.627240595569788
 20
98.698566977353039
 30
0.0
 11
95.627240535965143
 21
92.347713962615643
 31
0.0
  0
LINE
  5
849
  8
0
 10
84.627240595569845
 20
101.04941999209029
 30
0.0
 11
78.82724059556989
 21
101.04941999209029
 31
0.0
  0
LINE
  5
84A
  8
3
 10
84.627240595569901
 20
101.7259199920902
 30
0.0
 11
78.150740595569886
 21
101.7259199920902
 31
0.0
  0
LINE
  5
84B
  8
3
 10
84.627240595569901
 20
108.3729199920905
 30
0.0
 11
78.150740595569886
 21
108.3729199920905
 31
0.0
  0
LINE
  5
84C
  8
0
 10
84.627240595569901
 20
109.04941999209041
 30
0.0
 11
78.827240595569776
 21
109.04941999209041
 31
0.0
  0
LINE
  5
84D
  8
1
 10
95.627240535965257
 20
87.347713962615643
 30
0.0
 11
95.627240535965143
 21
122.7511260215651
 31
0.0
  0
LINE
  5
84E
  8
1
 10
122.6272405955698
 20
105.04941999209029
 30
0.0
 11
72.627240595569845
 21
105.04941999209041
 31
0.0
  0
LINE
  5
84F
  8
0
 10
117.6272405955699
 20
108.0101895075488
 30
0.0
 11
117.02724059556979
 21
109.04941999209019
 31
0.0
  0
LINE
  5
850
  8
0
 10
117.6272405955698
 20
102.0886504766315
 30
0.0
 11
117.02724059556991
 21
101.04941999209019
 31
0.0
  0
LINE
  5
851
  8
0
 10
77.627240595569816
 20
107.8494199920904
 30
0.0
 11
77.627240595569901
 21
102.2494199920903
 31
0.0
  0
LINE
  5
852
  8
0
 10
117.6272405955699
 20
108.0101895075488
 30
0.0
 11
117.6272405955698
 21
102.0886504766315
 31
0.0
  0
LINE
  5
853
  8
0
 10
117.02724059556991
 20
109.04941999209019
 30
0.0
 11
117.02724059556991
 21
101.04941999209019
 31
0.0
  0
LINE
  5
854
  8
3
 10
117.4178180526764
 20
108.3729199920905
 30
0.0
 11
111.6272404763602
 21
108.3729199920904
 31
0.0
  0
LINE
  5
855
  8
3
 10
117.41781805267669
 20
101.7259199920902
 30
0.0
 11
111.6272404763603
 21
101.7259199920902
 31
0.0
  0
LINE
  5
856
  8
0
 10
117.02724059556991
 20
101.04941999209041
 30
0.0
 11
111.6272404763603
 21
101.04941999209041
 31
0.0
  0
LINE
  5
857
  8
0
 10
117.02724059556991
 20
109.04941999209041
 30
0.0
 11
111.6272404763603
 21
109.04941999209041
 31
0.0
  0
LINE
  5
858
  8
0
 10
78.82724059556989
 20
101.04941999209029
 30
0.0
 11
77.627240595569901
 21
102.2494199920903
 31
0.0
  0
LINE
  5
859
  8
0
 10
77.627240595569816
 20
107.8494199920904
 30
0.0
 11
78.827240595569776
 21
109.04941999209041
 31
0.0
  0
LINE
  5
85A
  8
0
 10
78.827240595569776
 20
109.04941999209041
 30
0.0
 11
78.827240595569805
 21
101.04941999209029
 31
0.0
  0
LINE
  5
85B
  8
0
 10
106.6272404763605
 20
48.097713962617107
 30
0.0
 11
106.6272404763605
 21
60.597713962614172
 31
0.0
  0
LINE
  5
85C
  8
0
 10
111.6272404763603
 20
60.597713962615522
 30
0.0
 11
111.6272404763603
 21
48.097713962617341
 31
0.0
  0
ARC
  5
85D
  8
0
 10
108.1603333361123
 20
48.718548838017178
 30
0.0
 40
3.3225695729499738
 50
334.38424746782562
 51
34.384247468038808
  0
LINE
  5
85E
  8
0
 10
110.90234632546149
 20
46.842160463150847
 30
0.0
 11
111.6272404763603
 21
48.097713962617107
 31
0.0
  0
LINE
  5
85F
  8
0
 10
107.3521346272594
 20
46.842160463150847
 30
0.0
 11
106.6272404763605
 21
48.097713962617107
 31
0.0
  0
ARC
  5
860
  8
0
 10
110.09414761660859
 20
48.718548838017178
 30
0.0
 40
3.3225695729499738
 50
145.61575253196031
 51
205.61575253217421
  0
LINE
  5
861
  8
0
 10
110.90234632546149
 20
46.842160463150847
 30
0.0
 11
107.3521346272594
 21
46.842160463150847
 31
0.0
  0
LINE
  5
862
  8
0
 10
110.90234632546149
 20
50.594937212885107
 30
0.0
 11
107.3521346272609
 21
50.594937212883302
 31
0.0
  0
LINE
  5
863
  8
0
 10
110.90234632546149
 20
58.100490712346378
 30
0.0
 11
107.3521346272609
 21
58.100490712348197
 31
0.0
  0
LINE
  5
864
  8
0
 10
110.90234632546149
 20
61.853267462080652
 30
0.0
 11
107.3521346272594
 21
61.853267462080652
 31
0.0
  0
ARC
  5
865
  8
0
 10
119.191021460051
 20
54.347713962614847
 30
0.0
 40
12.41944341639239
 50
162.41204622599531
 51
197.5879537739977
  0
ARC
  5
866
  8
0
 10
110.09414761660859
 20
59.976879087214307
 30
0.0
 40
3.3225695729499738
 50
154.3842474678257
 51
214.38424746803969
  0
LINE
  5
867
  8
0
 10
107.3521346272594
 20
61.853267462080652
 30
0.0
 11
106.6272404763605
 21
60.597713962614392
 31
0.0
  0
LINE
  5
868
  8
0
 10
110.90234632546149
 20
61.853267462080652
 30
0.0
 11
111.6272404763603
 21
60.597713962614392
 31
0.0
  0
ARC
  5
869
  8
0
 10
99.063459492669949
 20
54.347713962614847
 30
0.0
 40
12.41944341639239
 50
342.41204622600219
 51
17.58795377400461
  0
ARC
  5
86A
  8
0
 10
108.1603333361123
 20
59.976879087214307
 30
0.0
 40
3.3225695729499738
 50
325.61575253196122
 51
25.615752532174259
  0
LINE
  5
86B
  8
0
 10
106.6272404763605
 20
98.799419992091742
 30
0.0
 11
106.6272404763605
 21
111.299419992089
 31
0.0
  0
LINE
  5
86C
  8
0
 10
111.6272404763603
 20
111.299419992089
 30
0.0
 11
111.6272404763603
 21
98.799419992091742
 31
0.0
  0
LINE
  5
86D
  8
0
 10
111.4829029090622
 20
111.54941999209009
 30
0.0
 11
111.6272404763603
 21
111.299419992089
 31
0.0
  0
ARC
  5
86E
  8
0
 10
102.09575077381351
 20
108.29941999209009
 30
0.0
 40
9.3871521352487513
 50
339.7438419995832
 51
20.256158000416779
  0
ARC
  5
86F
  8
0
 10
116.15873017890731
 20
108.29941999209009
 30
0.0
 40
9.3871521352487513
 50
159.7438419995832
 51
200.2561580004168
  0
LINE
  5
870
  8
0
 10
106.77157804365849
 20
111.54941999209009
 30
0.0
 11
106.6272404763605
 21
111.299419992089
 31
0.0
  0
LINE
  5
871
  8
0
 10
111.4829029090622
 20
111.54941999209009
 30
0.0
 11
106.77157804365849
 21
111.54941999209009
 31
0.0
  0
LINE
  5
872
  8
0
 10
110.902346325461
 20
105.04941999209041
 30
0.0
 11
107.3521346272593
 21
105.04941999209041
 31
0.0
  0
LINE
  5
873
  8
0
 10
111.4829029090622
 20
98.549419992090606
 30
0.0
 11
106.77157804365849
 21
98.549419992090606
 31
0.0
  0
LINE
  5
874
  8
0
 10
106.77157804365849
 20
98.549419992090606
 30
0.0
 11
106.6272404763605
 21
98.799419992091742
 31
0.0
  0
ARC
  5
875
  8
0
 10
116.15873017890721
 20
101.79941999209061
 30
0.0
 40
9.3871521352487513
 50
159.7438419995832
 51
200.2561580004168
  0
ARC
  5
876
  8
0
 10
102.09575077381351
 20
101.79941999209061
 30
0.0
 40
9.3871521352487513
 50
339.7438419995832
 51
20.256158000416779
  0
LINE
  5
877
  8
0
 10
111.4829029090622
 20
98.549419992090606
 30
0.0
 11
111.6272404763603
 21
98.799419992091742
 31
0.0
  0
CIRCLE
  5
878
  8
0
 10
155.32894662504461
 20
54.347713962615728
 30
0.0
 40
6.25
  0
LINE
  5
879
  8
0
 10
155.32894662504461
 20
61.85326746208051
 30
0.0
 11
148.82894662504481
 21
58.100490712348119
 31
0.0
  0
LINE
  5
87A
  8
0
 10
161.82894662504441
 20
58.100490712348119
 30
0.0
 11
155.32894662504461
 21
61.85326746208051
 31
0.0
  0
LINE
  5
87B
  8
0
 10
161.82894662504441
 20
50.59493721288333
 30
0.0
 11
161.82894662504441
 21
58.100490712348119
 31
0.0
  0
LINE
  5
87C
  8
0
 10
155.32894662504461
 20
46.842160463150947
 30
0.0
 11
161.82894662504441
 21
50.59493721288333
 31
0.0
  0
LINE
  5
87D
  8
0
 10
148.82894662504481
 20
50.59493721288333
 30
0.0
 11
155.32894662504461
 21
46.842160463150947
 31
0.0
  0
LINE
  5
87E
  8
0
 10
148.82894662504481
 20
58.100490712348119
 30
0.0
 11
148.82894662504481
 21
50.59493721288333
 31
0.0
  0
ARC
  5
88F
  8
0
 10
95.6272405359652
 20
105.04941999209041
 30
0.0
 40
10.500000000000011
 50
279.1976373338581
 51
260.80236266614349
  0
ARC
  5
890
  8
0
 10
95.627240535965143
 20
97.04941999209035
 30
0.0
 40
2.8999999999999879
 50
305.36146231005449
 51
234.63853768994551
  0
LINE
  5
891
  8
0
 10
84.627240595569788
 20
98.698566977353039
 30
0.0
 11
84.627240595569901
 21
111.4002730068277
 31
0.0
  0
LINE
  5
892
  8
0
 10
94.127240522926741
 20
45.847713962615607
 30
0.0
 11
94.127240535965257
 21
44.847713962615607
 31
0.0
  0
LINE
  5
893
  8
0
 10
97.127240535965257
 20
44.847713962615629
 30
0.0
 11
97.127240549003773
 21
45.847713962615629
 31
0.0
  0
LINE
  5
894
  8
0
 10
84.627240595569901
 20
46.136389094357469
 30
0.0
 11
85.127240535965257
 21
45.847713962615551
 31
0.0
  0
LINE
  5
895
  8
0
 10
106.1272405359652
 20
45.847713962615629
 30
0.0
 11
106.6272404763606
 21
46.13638909435754
 31
0.0
  0
LINE
  5
896
  8
0
 10
106.6272404763605
 20
62.059039265335713
 30
0.0
 11
106.1272405359652
 21
62.347713962615643
 31
0.0
  0
LINE
  5
897
  8
0
 10
85.127240535965186
 20
62.347713962615558
 30
0.0
 11
84.627240595569845
 21
62.05903926533562
 31
0.0
  0
LINE
  5
898
  8
0
 10
90.627240535965299
 20
35.347713962615593
 30
0.0
 11
92.127240535965313
 21
33.847713962615593
 31
0.0
  0
LINE
  5
899
  8
0
 10
99.127240535965313
 20
33.847713962615607
 30
0.0
 11
100.6272405359652
 21
35.347713962615607
 31
0.0
  0
LINE
  5
89A
  8
0
 10
90.627240535965257
 20
42.847713962615579
 30
0.0
 11
90.627240535965299
 21
35.347713962615593
 31
0.0
  0
LINE
  5
89B
  8
0
 10
100.6272405359652
 20
35.347713962615607
 30
0.0
 11
100.6272405359652
 21
42.847713962615607
 31
0.0
  0
ARC
  5
89C
  8
0
 10
90.827240535965245
 20
43.647713962615583
 30
0.0
 40
0.8000000000000113
 50
270.0
 51
0.0
  0
ARC
  5
89D
  8
0
 10
100.4272405359653
 20
43.647713962615612
 30
0.0
 40
0.8000000000000113
 50
180.0000000000004
 51
270.0
  0
ARC
  5
89E
  8
0
 10
90.827240535965245
 20
45.047713962615568
 30
0.0
 40
0.7999999999999972
 50
0.0
 51
90.0
  0
ARC
  5
89F
  8
0
 10
100.4272405359653
 20
45.047713962615617
 30
0.0
 40
0.7999999999999972
 50
90.0
 51
180.0000000000004
  0
LINE
  5
8A0
  8
0
 10
91.627240535965257
 20
45.047713962615568
 30
0.0
 11
91.627240535965257
 21
43.647713962615583
 31
0.0
  0
LINE
  5
8A1
  8
0
 10
99.627240535965257
 20
43.647713962615612
 30
0.0
 11
99.627240535965257
 21
45.047713962615603
 31
0.0
  0
LINE
  5
8A2
  8
0
 10
95.627240535965257
 20
44.847713962615629
 30
0.0
 11
94.127240535965257
 21
44.847713962615607
 31
0.0
  0
LINE
  5
8A3
  8
0
 10
97.127240535965257
 20
44.847713962615629
 30
0.0
 11
95.627240535965257
 21
44.847713962615629
 31
0.0
  0
LINE
  5
8A4
  8
0
 10
84.627240595569901
 20
47.118869509034901
 30
0.0
 11
84.627240595569901
 21
46.137339159798898
 31
0.0
  0
LINE
  5
8A5
  8
0
 10
106.1272405359652
 20
45.847713962615629
 30
0.0
 11
85.127240535965257
 21
45.847713962615551
 31
0.0
  0
LINE
  5
8A6
  8
0
 10
95.627240535965143
 20
61.076558210374031
 30
0.0
 11
95.6272405359652
 21
47.118869509034973
 31
0.0
  0
LINE
  5
8A7
  8
0
 10
84.627240595569788
 20
61.076558210373967
 30
0.0
 11
84.627240595569901
 21
47.118869509034901
 31
0.0
  0
LINE
  5
8A8
  8
0
 10
84.627240595569788
 20
61.076558210373967
 30
0.0
 11
84.627240595569845
 21
62.05787138682706
 31
0.0
  0
LINE
  5
8A9
  8
0
 10
106.1272405359652
 20
62.347713962615643
 30
0.0
 11
85.12724053596537
 21
62.347713962615643
 31
0.0
  0
LINE
  5
8AA
  8
0
 10
99.127240535965313
 20
33.847713962615607
 30
0.0
 11
92.127240535965313
 21
33.847713962615593
 31
0.0
  0
LINE
  5
8AB
  8
0
 10
90.627240535965299
 20
35.347713962615593
 30
0.0
 11
100.6272405359652
 21
35.347713962615607
 31
0.0
  0
LINE
  5
8AC
  8
0
 10
90.627240535965257
 20
42.847713962615579
 30
0.0
 11
100.6272405359652
 21
42.847713962615607
 31
0.0
  0
LINE
  5
8AD
  8
0
 10
91.627240535965257
 20
43.647713962615583
 30
0.0
 11
99.627240535965257
 21
43.647713962615612
 31
0.0
  0
LINE
  5
8AE
  8
0
 10
99.627240535965257
 20
45.047713962615603
 30
0.0
 11
97.127240535965257
 21
45.047713962615617
 31
0.0
  0
LINE
  5
8AF
  8
0
 10
94.127240535965257
 20
45.047713962615603
 30
0.0
 11
91.627240535965257
 21
45.047713962615568
 31
0.0
  0
LINE
  5
8B0
  8
3
 10
99.877240535965313
 20
34.597713962615622
 30
0.0
 11
99.877240535965257
 21
42.847713962615607
 31
0.0
  0
LINE
  5
8B1
  8
0
 10
99.877240535965257
 20
42.847713962615607
 30
0.0
 11
99.877240535965257
 21
42.847713962615607
 31
0.0
  0
LINE
  5
8B2
  8
3
 10
91.377240535965313
 20
34.597713962615593
 30
0.0
 11
91.377240535965257
 21
42.847713962615579
 31
0.0
  0
LINE
  5
8B3
  8
0
 10
91.377240535965257
 20
42.847713962615579
 30
0.0
 11
91.377240535965257
 21
42.847713962615579
 31
0.0
  0
LINE
  5
8B4
  8
0
 10
99.877240535965257
 20
42.847713962615607
 30
0.0
 11
99.877240535965257
 21
42.847713962615607
 31
0.0
  0
LINE
  5
8B5
  8
0
 10
99.877240535965257
 20
42.847713962615607
 30
0.0
 11
99.877240535965257
 21
42.847713962615607
 31
0.0
  0
LINE
  5
8B6
  8
1
 10
122.6272405955699
 20
54.347713962615607
 30
0.0
 11
72.627240595569958
 21
54.347713962615501
 31
0.0
  0
LINE
  5
8B7
  8
1
 10
95.627240535965299
 20
29.213127706283789
 30
0.0
 11
95.627240535965257
 21
67.347713962615643
 31
0.0
  0
LINE
  5
8B8
  8
0
 10
145.82894693051841
 20
45.847713962615707
 30
0.0
 11
145.82894662504461
 21
44.847713962615707
 31
0.0
  0
LINE
  5
8B9
  8
0
 10
148.82894662504461
 20
44.8477139626157
 30
0.0
 11
148.82894649093419
 21
45.8477139626157
 31
0.0
  0
LINE
  5
8BA
  8
0
 10
150.32894662504461
 20
35.3477139626157
 30
0.0
 11
151.82894662504461
 21
33.8477139626157
 31
0.0
  0
LINE
  5
8BB
  8
0
 10
158.82894662504461
 20
33.847713962615671
 30
0.0
 11
160.32894662504449
 21
35.347713962615671
 31
0.0
  0
LINE
  5
8BC
  8
0
 10
150.32894662504461
 20
42.8477139626157
 30
0.0
 11
150.32894662504461
 21
35.3477139626157
 31
0.0
  0
LINE
  5
8BD
  8
0
 10
160.32894662504449
 20
35.347713962615671
 30
0.0
 11
160.32894662504461
 21
42.847713962615671
 31
0.0
  0
ARC
  5
8BE
  8
0
 10
150.52894662504451
 20
43.64771396261569
 30
0.0
 40
0.8000000000000397
 50
270.0
 51
0.0
  0
ARC
  5
8BF
  8
0
 10
160.12894662504459
 20
43.647713962615661
 30
0.0
 40
0.8000000000000113
 50
180.0000000000004
 51
269.99999999999841
  0
ARC
  5
8C0
  8
0
 10
150.5289466250446
 20
45.047713962615703
 30
0.0
 40
0.8000000000000113
 50
0.0000000000008142
 51
90.0
  0
ARC
  5
8C1
  8
0
 10
160.12894662504459
 20
45.04771396261566
 30
0.0
 40
0.7999999999999972
 50
90.0
 51
180.0000000000004
  0
LINE
  5
8C2
  8
0
 10
151.32894662504461
 20
45.047713962615688
 30
0.0
 11
151.32894662504461
 21
43.64771396261569
 31
0.0
  0
LINE
  5
8C3
  8
0
 10
159.32894662504461
 20
43.647713962615661
 30
0.0
 11
159.32894662504461
 21
45.04771396261566
 31
0.0
  0
LINE
  5
8C4
  8
0
 10
148.82894662504461
 20
44.8477139626157
 30
0.0
 11
145.82894662504461
 21
44.847713962615707
 31
0.0
  0
LINE
  5
8C5
  8
0
 10
161.679799639782
 20
61.076558210374088
 30
0.0
 11
161.679799639782
 21
58.186600931407177
 31
0.0
  0
LINE
  5
8C6
  8
0
 10
161.67979963978189
 20
50.508826986373627
 30
0.0
 11
161.67979963978189
 21
47.118869509035022
 31
0.0
  0
LINE
  5
8C7
  8
0
 10
168.0306526545194
 20
61.07655821037401
 30
0.0
 11
168.03065265451929
 21
47.118869509034951
 31
0.0
  0
LINE
  5
8C8
  8
0
 10
148.97809361030721
 20
61.07655821037411
 30
0.0
 11
148.97809361030721
 21
58.186600931407213
 31
0.0
  0
LINE
  5
8C9
  8
0
 10
148.97809361030721
 20
50.508826986373677
 30
0.0
 11
148.9780936103071
 21
47.118869509035058
 31
0.0
  0
LINE
  5
8CA
  8
0
 10
165.82894662504461
 20
62.347713962615643
 30
0.0
 11
144.9639466250446
 21
62.347713962615728
 31
0.0
  0
LINE
  5
8CB
  8
0
 10
142.6272405955699
 20
61.07655821037411
 30
0.0
 11
142.6272405955699
 21
47.118869509035051
 31
0.0
  0
LINE
  5
8CC
  8
0
 10
158.82894662504461
 20
33.8477139626157
 30
0.0
 11
151.82894662504461
 21
33.8477139626157
 31
0.0
  0
LINE
  5
8CD
  8
0
 10
150.32894662504461
 20
35.3477139626157
 30
0.0
 11
160.32894662504461
 21
35.3477139626157
 31
0.0
  0
LINE
  5
8CE
  8
0
 10
150.32894662504461
 20
42.8477139626157
 30
0.0
 11
160.32894662504461
 21
42.847713962615671
 31
0.0
  0
LINE
  5
8CF
  8
0
 10
159.32894662504461
 20
45.04771396261566
 30
0.0
 11
151.32894662504461
 21
45.047713962615688
 31
0.0
  0
LINE
  5
8D0
  8
3
 10
159.57894662504461
 20
34.597713962615671
 30
0.0
 11
159.57894662504461
 21
42.847713962615671
 31
0.0
  0
LINE
  5
8D1
  8
0
 10
159.57894662504461
 20
42.847713962615671
 30
0.0
 11
159.57894662504461
 21
42.847713962615671
 31
0.0
  0
LINE
  5
8D2
  8
3
 10
151.07894662504461
 20
34.5977139626157
 30
0.0
 11
151.07894662504461
 21
42.8477139626157
 31
0.0
  0
LINE
  5
8D3
  8
0
 10
151.07894662504461
 20
42.8477139626157
 30
0.0
 11
151.07894662504461
 21
42.8477139626157
 31
0.0
  0
LINE
  5
8D4
  8
0
 10
159.57894662504461
 20
42.847713962615671
 30
0.0
 11
159.57894662504461
 21
42.847713962615671
 31
0.0
  0
LINE
  5
8D5
  8
0
 10
159.57894662504461
 20
42.847713962615671
 30
0.0
 11
159.57894662504461
 21
42.847713962615671
 31
0.0
  0
LINE
  5
8D6
  8
1
 10
155.32894662504449
 20
28.8477139626157
 30
0.0
 11
155.32894662504461
 21
67.347713717183353
 31
0.0
  0
LINE
  5
8D7
  8
1
 10
146.32894662504481
 20
54.347713962615728
 30
0.0
 11
164.32894662504441
 21
54.347713962615728
 31
0.0
  0
LINE
  5
8D8
  8
0
 10
97.305565538978158
 20
62.347713873208683
 30
0.0
 11
96.733337898900686
 21
62.26307714027277
 31
0.0
  0
LINE
  5
8D9
  8
0
 10
96.733337898900686
 20
62.26307714027277
 30
0.0
 11
96.110991658339231
 21
62.212919831694279
 31
0.0
  0
LINE
  5
8DA
  8
0
 10
96.110991658339231
 20
62.212919831694279
 30
0.0
 11
95.498179090487724
 21
62.202127665699642
 31
0.0
  0
LINE
  5
8DB
  8
0
 10
95.498179090487724
 20
62.202127665699642
 30
0.0
 11
94.870252234091936
 21
62.229912743390713
 31
0.0
  0
LINE
  5
8DC
  8
0
 10
94.870252234091936
 20
62.229912743390713
 30
0.0
 11
94.402639825990377
 21
62.277393430889759
 31
0.0
  0
LINE
  5
8DD
  8
0
 10
94.402639825990377
 20
62.277393430889759
 30
0.0
 11
93.948915532952128
 21
62.347713873208683
 31
0.0
  0
LINE
  5
8DE
  8
1
 10
90.227240535965166
 20
97.04941999209035
 30
0.0
 11
101.02724053596511
 21
97.04941999209035
 31
0.0
  0
LINE
  5
8DF
  8
0
 10
97.305565538978158
 20
94.684419997454796
 30
0.0
 11
96.733337898900686
 21
94.460438780904923
 31
0.0
  0
LINE
  5
8E0
  8
0
 10
96.733337898900686
 20
94.460438780904923
 30
0.0
 11
96.110991658339231
 21
94.326857321382676
 31
0.0
  0
LINE
  5
8E1
  8
0
 10
96.110991658339231
 20
94.326857321382676
 30
0.0
 11
95.498179090487724
 21
94.298031956375752
 31
0.0
  0
LINE
  5
8E2
  8
0
 10
95.498179090487724
 20
94.298031956375752
 30
0.0
 11
94.870252234091936
 21
94.372182928444062
 31
0.0
  0
LINE
  5
8E3
  8
0
 10
94.870252234091936
 20
94.372182928444062
 30
0.0
 11
94.402639825990377
 21
94.498451643110414
 31
0.0
  0
LINE
  5
8E4
  8
0
 10
94.402639825990377
 20
94.498451643110414
 30
0.0
 11
93.948915532952128
 21
94.684419997454796
 31
0.0
  0
LINE
  5
8F3
  8
1
 10
147.32894662504461
 20
42.3477139626157
 30
0.0
 11
147.32894662504469
 21
64.847713962615728
 31
0.0
  0
LINE
  5
8F9
  8
1
 10
43.925534446885969
 20
42.347713962615558
 30
0.0
 11
43.925534446885798
 21
64.847713962615572
 31
0.0
  0
LINE
  5
8FA
  8
1
 10
44.925534446885699
 20
54.347713962615572
 30
0.0
 11
26.92553444688615
 21
54.347713962615522
 31
0.0
  0
LINE
  5
8FB
  8
1
 10
35.925534446886061
 20
28.847713962615529
 30
0.0
 11
35.925534446885891
 21
67.347713717183183
 31
0.0
  0
LINE
  5
8FC
  8
0
 10
31.675534446885958
 20
42.847713962615487
 30
0.0
 11
31.675534446885958
 21
42.847713962615487
 31
0.0
  0
LINE
  5
8FD
  8
0
 10
31.675534446885958
 20
42.847713962615487
 30
0.0
 11
31.675534446885958
 21
42.847713962615487
 31
0.0
  0
LINE
  5
8FE
  8
0
 10
40.175534446885962
 20
42.847713962615529
 30
0.0
 11
40.175534446885962
 21
42.847713962615529
 31
0.0
  0
LINE
  5
8FF
  8
3
 10
40.17553444688599
 20
34.597713962615529
 30
0.0
 11
40.175534446885962
 21
42.847713962615529
 31
0.0
  0
LINE
  5
900
  8
0
 10
31.675534446885958
 20
42.847713962615487
 30
0.0
 11
31.675534446885958
 21
42.847713962615487
 31
0.0
  0
LINE
  5
901
  8
3
 10
31.675534446886051
 20
34.597713962615487
 30
0.0
 11
31.675534446885958
 21
42.847713962615487
 31
0.0
  0
LINE
  5
902
  8
0
 10
31.925534446885958
 20
45.047713962615468
 30
0.0
 11
39.925534446885962
 21
45.047713962615518
 31
0.0
  0
LINE
  5
903
  8
0
 10
40.925534446885962
 20
42.847713962615529
 30
0.0
 11
30.925534446885958
 21
42.847713962615472
 31
0.0
  0
LINE
  5
904
  8
0
 10
40.92553444688604
 20
35.347713962615529
 30
0.0
 11
30.92553444688599
 21
35.347713962615501
 31
0.0
  0
LINE
  5
905
  8
0
 10
32.425534446886047
 20
33.847713962615522
 30
0.0
 11
39.425534446886047
 21
33.847713962615529
 31
0.0
  0
LINE
  5
906
  8
0
 10
48.627240476360583
 20
61.076558210373967
 30
0.0
 11
48.627240476360683
 21
47.118869509034901
 31
0.0
  0
LINE
  5
907
  8
0
 10
25.425534446885891
 20
62.347713962615423
 30
0.0
 11
46.290534446885907
 21
62.347713962615579
 31
0.0
  0
LINE
  5
908
  8
0
 10
42.276387461623131
 20
61.07655821033682
 30
0.0
 11
42.276387461623429
 21
47.118869509034901
 31
0.0
  0
LINE
  5
90A
  8
0
 10
23.223828417411131
 20
61.07655821037379
 30
0.0
 11
23.223828417411209
 21
47.118869509034731
 31
0.0
  0
LINE
  5
90B
  8
0
 10
29.574681432148399
 20
61.076558176356791
 30
0.0
 11
29.574681432148701
 21
47.118869509034823
 31
0.0
  0
LINE
  5
90D
  8
0
 10
42.425534446885962
 20
44.847713962615543
 30
0.0
 11
45.425534446885962
 21
44.847713962615558
 31
0.0
  0
LINE
  5
90E
  8
0
 10
31.925534446885958
 20
43.647713962615477
 30
0.0
 11
31.925534446885958
 21
45.047713962615468
 31
0.0
  0
LINE
  5
90F
  8
0
 10
39.925534446885962
 20
45.047713962615518
 30
0.0
 11
39.925534446885962
 21
43.647713962615519
 31
0.0
  0
ARC
  5
910
  8
0
 10
31.125534446886011
 20
45.047713962615461
 30
0.0
 40
0.7999999999999972
 50
359.99999999999972
 51
90.000000000000171
  0
ARC
  5
911
  8
0
 10
40.725534446885973
 20
45.047713962615532
 30
0.0
 40
0.8000000000000113
 50
90.000000000000171
 51
179.9999999999994
  0
ARC
  5
912
  8
0
 10
31.125534446886011
 20
43.64771396261547
 30
0.0
 40
0.8000000000000113
 50
270.00000000000182
 51
359.99999999999972
  0
ARC
  5
913
  8
0
 10
40.72553444688603
 20
43.647713962615519
 30
0.0
 40
0.8000000000000397
 50
180.00000000000011
 51
270.00000000000023
  0
LINE
  5
914
  8
0
 10
30.925534446886051
 20
35.347713962615472
 30
0.0
 11
30.925534446885958
 21
42.847713962615472
 31
0.0
  0
LINE
  5
915
  8
0
 10
40.925534446885962
 20
42.847713962615529
 30
0.0
 11
40.92553444688604
 21
35.347713962615529
 31
0.0
  0
LINE
  5
916
  8
0
 10
32.425534446886047
 20
33.847713962615487
 30
0.0
 11
30.925534446886051
 21
35.347713962615472
 31
0.0
  0
LINE
  5
917
  8
0
 10
40.92553444688604
 20
35.347713962615529
 30
0.0
 11
39.425534446886047
 21
33.847713962615529
 31
0.0
  0
LINE
  5
918
  8
0
 10
42.425534446885962
 20
44.847713962615543
 30
0.0
 11
42.425534580996398
 21
45.847713962615543
 31
0.0
  0
LINE
  5
919
  8
0
 10
45.425534141412143
 20
45.847713962615551
 30
0.0
 11
45.425534446885962
 21
44.847713962615558
 31
0.0
  0
LINE
  5
91A
  8
2
 10
43.92553491254715
 20
55.847713786595548
 30
0.0
 11
43.92553491254715
 21
57.847714114421088
 31
0.0
  0
LINE
  5
91B
  8
2
 10
45.175534651776829
 20
55.84771378659557
 30
0.0
 11
42.675534707656183
 21
55.847713786595548
 31
0.0
  0
LINE
  5
91C
  8
2
 10
45.175534651776829
 20
55.84771378659557
 30
0.0
 11
45.175534651776829
 21
57.847714114421123
 31
0.0
  0
LINE
  5
91D
  8
2
 10
46.425534391006508
 20
57.443568545811928
 30
0.0
 11
45.725534648796597
 21
57.847714114421152
 31
0.0
  0
LINE
  5
91E
  8
2
 10
46.425534391006593
 20
46.309594215079308
 30
0.0
 11
46.425534391006508
 21
57.443568545811928
 31
0.0
  0
LINE
  5
91F
  8
2
 10
45.62553453256767
 20
45.847714010113009
 30
0.0
 11
46.425534391006593
 21
46.309594215079308
 31
0.0
  0
LINE
  5
920
  8
2
 10
41.425534502765302
 20
46.309594215079272
 30
0.0
 11
42.225534532567643
 21
45.847714010112959
 31
0.0
  0
LINE
  5
921
  8
2
 10
41.425534502765217
 20
57.443568545811857
 30
0.0
 11
41.425534502765302
 21
46.309594215079272
 31
0.0
  0
LINE
  5
922
  8
2
 10
42.125534710636423
 20
57.847714114421088
 30
0.0
 11
41.425534502765217
 21
57.443568545811857
 31
0.0
  0
LINE
  5
923
  8
2
 10
42.125534710636423
 20
57.847714114421088
 30
0.0
 11
45.725534648796653
 21
57.847714114421088
 31
0.0
  0
LINE
  5
924
  8
2
 10
42.675534707656183
 20
57.847714114421088
 30
0.0
 11
42.675534707656183
 21
55.847713786595548
 31
0.0
  0
LINE
  5
925
  8
2
 10
46.025534532567477
 20
61.547714010113019
 30
0.0
 11
46.679124214848493
 21
62.201304424041069
 31
0.0
  0
LINE
  5
926
  8
2
 10
41.825534532567502
 20
61.547714010112948
 30
0.0
 11
46.025534532567477
 21
61.547714010113019
 31
0.0
  0
LINE
  5
927
  8
2
 10
46.02553453256764
 20
45.847714010113023
 30
0.0
 11
46.025534532567477
 21
61.547714010113019
 31
0.0
  0
LINE
  5
928
  8
2
 10
41.025534532567477
 20
62.347714010112973
 30
0.0
 11
41.825534532567502
 21
61.547714010112948
 31
0.0
  0
LINE
  5
929
  8
2
 10
41.825534532567502
 20
61.547714010112948
 30
0.0
 11
41.825534532567602
 21
45.847714010112973
 31
0.0
  0
LINE
  5
931
  8
0
 10
46.425534500537559
 20
62.347713717183211
 30
0.0
 11
25.42553450053823
 21
62.34771371718314
 31
0.0
  0
LINE
  5
932
  8
0
 10
25.425534500537658
 20
62.34771371718314
 30
0.0
 11
23.223828578365829
 21
61.076558210340927
 31
0.0
  0
ARC
  5
933
  8
0
 10
26.399255058900891
 20
56.436228536092202
 30
0.0
 40
5.6228100464977411
 50
55.615752531693978
 51
115.6157525358235
  0
ARC
  5
934
  8
0
 10
35.92553450048419
 20
41.041518954610069
 30
0.0
 40
21.01751962797988
 50
72.412046226051061
 51
107.5879537739104
  0
ARC
  5
935
  8
0
 10
45.451813942174269
 20
56.436228536092258
 30
0.0
 40
5.6228100464977411
 50
64.384247464176838
 51
124.3842474683063
  0
LINE
  5
936
  8
0
 10
46.425534500537452
 20
62.347713717183211
 30
0.0
 11
48.62724042270932
 21
61.076558210340998
 31
0.0
  0
ARC
  5
937
  8
0
 10
35.925534393273963
 20
67.15390876476593
 30
0.0
 40
21.01751962797988
 50
252.4120462260899
 51
287.58795377394932
  0
ARC
  5
938
  8
0
 10
26.399254951690772
 20
51.759199183283712
 30
0.0
 40
5.6228100464977411
 50
244.38424747036811
 51
304.3842474683064
  0
LINE
  5
939
  8
0
 10
25.42553439332757
 20
45.847714002192767
 30
0.0
 11
23.223828471155699
 21
47.118869509034973
 31
0.0
  0
LINE
  5
93A
  8
0
 10
46.425534393327339
 20
45.847714002192838
 30
0.0
 11
48.627240315499201
 21
47.118869509035051
 31
0.0
  0
ARC
  5
93B
  8
0
 10
45.451813834964121
 20
51.759199183283769
 30
0.0
 40
5.6228100464977411
 50
235.615752531694
 51
295.61575252963229
  0
LINE
  5
93C
  8
0
 10
46.425534393327112
 20
45.847714002192838
 30
0.0
 11
25.42553439332757
 21
45.847714002192767
 31
0.0
  0
CIRCLE
  5
93D
  8
3
 10
35.925534446885941
 20
54.347713962615543
 30
0.0
 40
3.3235000000002231
  0
CIRCLE
  5
93E
  8
0
 10
35.925534446885941
 20
54.347713962615543
 30
0.0
 40
4.000000000000056
  0
LINE
  5
946
  8
2
 10
45.175534651776829
 20
55.84771378659557
 30
0.0
 11
43.925534679716513
 21
55.014380453940689
 31
0.0
  0
LINE
  5
947
  8
2
 10
43.925534679716513
 20
55.014380453940689
 30
0.0
 11
42.675534707656183
 21
55.847713786595548
 31
0.0
  0
LINE
  5
948
  8
2
 10
46.425534391006508
 20
57.443568545811928
 30
0.0
 11
41.425534502765217
 21
57.443568545811857
 31
0.0
  0
LINE
  5
949
  8
2
 10
46.425534391006593
 20
46.309594215079308
 30
0.0
 11
41.425534502765302
 21
46.309594215079279
 31
0.0
  0
TEXT
  5
A00
  8
0
 62
     3
 10
0.0
 20
0.0
 30
0.0
 40
10.0
  1
BJ214-10001
  7
STANDARD1
  0
ENDSEC
  0
EOF
