  0
SECTION
  2
HEADER
  9
$ACADVER
  1
AC1009
  9
$INSBASE
 10
0.0
 20
0.0
 30
0.0
  9
$EXTMIN
 10
-0.0171621212297168
 20
-2.9729287756819072
 30
-0.0000000000000058
  9
$EXTMAX
 10
357.58754964910088
 20
170.1914877865718
 30
0.0000000000000104
  9
$LIMMIN
 10
0.0
 20
0.0
  9
$LIMMAX
 10
375.0
 20
270.0
  9
$ORTHOMODE
 70
     1
  9
$REGENMODE
 70
     1
  9
$FILLMODE
 70
     1
  9
$QTEXTMODE
 70
     0
  9
$MIRRTEXT
 70
     0
  9
$DRAGMODE
 70
     2
  9
$LTSCALE
 40
5.0
  9
$OSMODE
 70
    37
  9
$ATTMODE
 70
     1
  9
$TEXTSIZE
 40
0.2
  9
$TRACEWID
 40
0.05
  9
$TEXTSTYLE
  7
STANDARD
  9
$CLAYER
  8
0
  9
$CELTYPE
  6
BYLAYER
  9
$CECOLOR
 62
   256
  9
$DIMSCALE
 40
1.0
  9
$DIMASZ
 40
3.0
  9
$DIMEXO
 40
2.0
  9
$DIMDLI
 40
10.0
  9
$DIMRND
 40
0.0
  9
$DIMDLE
 40
0.0
  9
$DIMEXE
 40
2.0
  9
$DIMTP
 40
0.0
  9
$DIMTM
 40
0.0
  9
$DIMTXT
 40
3.2000000000000002
  9
$DIMCEN
 40
0.09
  9
$DIMTSZ
 40
0.0
  9
$DIMTOL
 70
     0
  9
$DIMLIM
 70
     0
  9
$DIMTIH
 70
     0
  9
$DIMTOH
 70
     0
  9
$DIMSE1
 70
     0
  9
$DIMSE2
 70
     0
  9
$DIMTAD
 70
     1
  9
$DIMZIN
 70
     0
  9
$DIMBLK
  1

  9
$DIMASO
 70
     0
  9
$DIMSHO
 70
     0
  9
$DIMPOST
  1

  9
$DIMAPOST
  1

  9
$DIMALT
 70
     0
  9
$DIMALTD
 70
     2
  9
$DIMALTF
 40
25.399999999999999
  9
$DIMLFAC
 40
1.0
  9
$DIMTOFL
 70
     1
  9
$DIMTVP
 40
1.6000000000000001
  9
$DIMTIX
 70
     0
  9
$DIMSOXD
 70
     0
  9
$DIMSAH
 70
     0
  9
$DIMBLK1
  1

  9
$DIMBLK2
  1

  9
$DIMSTYLE
  2
STANDARD
  9
$DIMCLRD
 70
     0
  9
$DIMCLRE
 70
     0
  9
$DIMCLRT
 70
     0
  9
$DIMTFAC
 40
1.0
  9
$DIMGAP
 40
0.09
  9
$LUNITS
 70
     2
  9
$LUPREC
 70
     4
  9
$SKETCHINC
 40
0.1
  9
$FILLETRAD
 40
0.0
  9
$AUNITS
 70
     0
  9
$AUPREC
 70
     0
  9
$MENU
  1
E:\r13\win\SUPPORT\ACAD
  9
$ELEVATION
 40
0.0
  9
$PELEVATION
 40
0.0
  9
$THICKNESS
 40
0.0
  9
$LIMCHECK
 70
     0
  9
$BLIPMODE
 70
     0
  9
$CHAMFERA
 40
0.0
  9
$CHAMFERB
 40
0.0
  9
$SKPOLY
 70
     0
  9
$TDCREATE
 40
2449840.6171180559
  9
$TDUPDATE
 40
2456871.419017477
  9
$TDINDWG
 40
0.1256050926
  9
$TDUSRTIMER
 40
0.1256050926
  9
$USRTIMER
 70
     1
  9
$ANGBASE
 50
0.0
  9
$ANGDIR
 70
     0
  9
$PDMODE
 70
     0
  9
$PDSIZE
 40
0.0
  9
$PLINEWID
 40
0.0
  9
$COORDS
 70
     1
  9
$SPLFRAME
 70
     0
  9
$SPLINETYPE
 70
     6
  9
$SPLINESEGS
 70
     8
  9
$ATTDIA
 70
     0
  9
$ATTREQ
 70
     1
  9
$HANDLING
 70
     1
  9
$HANDSEED
  5
1592
  9
$SURFTAB1
 70
     6
  9
$SURFTAB2
 70
     6
  9
$SURFTYPE
 70
     6
  9
$SURFU
 70
     6
  9
$SURFV
 70
     6
  9
$UCSNAME
  2

  9
$UCSORG
 10
0.0
 20
0.0
 30
0.0
  9
$UCSXDIR
 10
1.0
 20
0.0
 30
0.0
  9
$UCSYDIR
 10
0.0
 20
1.0
 30
0.0
  9
$PUCSNAME
  2

  9
$PUCSORG
 10
0.0
 20
0.0
 30
0.0
  9
$PUCSXDIR
 10
1.0
 20
0.0
 30
0.0
  9
$PUCSYDIR
 10
0.0
 20
1.0
 30
0.0
  9
$USERI1
 70
     0
  9
$USERI2
 70
     1
  9
$USERI3
 70
     0
  9
$USERI4
 70
     0
  9
$USERI5
 70
     0
  9
$USERR1
 40
0.0
  9
$USERR2
 40
0.0
  9
$USERR3
 40
0.0
  9
$USERR4
 40
0.0
  9
$USERR5
 40
0.0
  9
$WORLDVIEW
 70
     1
  9
$SHADEDGE
 70
     3
  9
$SHADEDIF
 70
    70
  9
$TILEMODE
 70
     1
  9
$MAXACTVP
 70
    16
  9
$PLIMCHECK
 70
     0
  9
$PEXTMIN
 10
1.0000000000000000E+020
 20
1.0000000000000000E+020
 30
1.0000000000000000E+020
  9
$PEXTMAX
 10
-1.0000000000000000E+020
 20
-1.0000000000000000E+020
 30
-1.0000000000000000E+020
  9
$PLIMMIN
 10
0.0
 20
0.0
  9
$PLIMMAX
 10
12.0
 20
9.0
  9
$UNITMODE
 70
     0
  9
$VISRETAIN
 70
     0
  9
$PLINEGEN
 70
     0
  9
$PSLTSCALE
 70
     0
  0
ENDSEC
  0
SECTION
  2
TABLES
  0
TABLE
  2
VPORT
 70
     1
  0
VPORT
  2
*ACTIVE
 70
     0
 10
0.0
 20
0.0
 11
1.0
 21
1.0
 12
178.78519376393561
 22
83.609279505444931
 13
0.0
 23
0.0
 14
10.0
 24
10.0
 15
10.0
 25
10.0
 16
0.0
 26
0.0
 36
1.0
 17
0.0
 27
0.0
 37
0.0
 40
270.57763893978768
 41
1.3297150610583439
 42
50.0
 43
0.0
 44
0.0
 50
0.0
 51
0.0
 71
     0
 72
   100
 73
     1
 74
     0
 75
     0
 76
     0
 77
     0
 78
     0
  0
ENDTAB
  0
TABLE
  2
LTYPE
 70
     4
  0
LTYPE
  2
CONTINUOUS
 70
     0
  3
Solid Line
 72
    65
 73
     0
 40
0.0
  0
LTYPE
  2
CENTER
 70
     0
  3
____ _ ____ _ ____ _ ____ _ ____ _ ____ _ ____
 72
    65
 73
     4
 40
2.0
 49
1.25
 49
-0.25
 49
0.25
 49
-0.25
  0
LTYPE
  2
PHANTOM2
 70
     0
  3
___ _ _ ___ _ _ ___ _ _ ___ _ _
 72
    65
 73
     6
 40
1.25
 49
0.625
 49
-0.125
 49
0.125
 49
-0.125
 49
0.125
 49
-0.125
  0
LTYPE
  2
HIDDEN
 70
     0
  3
Hidden __ __ __ __ __ __ __ __ __ __ __ __ __ _
 72
    65
 73
     2
 40
0.375
 49
0.25
 49
-0.125
  0
ENDTAB
  0
TABLE
  2
LAYER
 70
     3
  0
LAYER
  2
0
 70
     0
 62
     7
  6
CONTINUOUS
  0
LAYER
  2
1
 70
     0
 62
     1
  6
CENTER
  0
LAYER
  2
2
 70
     0
 62
     2
  6
HIDDEN
  0
ENDTAB
  0
TABLE
  2
STYLE
 70
     2
  0
STYLE
  2
STANDARD
 70
     0
 40
0.0
 41
1.0
 50
0.0
 71
     0
 42
0.2
  3
TXT
  4
BIGFONT
  0
STYLE
  2
STANDARD1
 70
     0
 40
0.0
 41
1.0
 50
0.0
 71
     0
 42
3.0
  3
txt
  4

  0
ENDTAB
  0
TABLE
  2
VIEW
 70
     1
  0
VIEW
  2
ALL
 70
     0
 40
270.0
 10
220.99159700000001
 20
135.0
 41
0.0
 11
0.0
 21
0.0
 31
1.0
 12
0.0
 22
0.0
 32
0.0
 42
0.0
 43
0.0
 44
0.0
 50
0.0
 71
     0
  0
ENDTAB
  0
TABLE
  2
UCS
 70
     0
  0
ENDTAB
  0
TABLE
  2
APPID
 70
     4
  0
APPID
  2
ACAD
 70
     0
  0
APPID
  2
ACAD_MLEADERVER
 70
     0
  0
APPID
  2
ACAD_NAV_VCDISPLAY
 70
     0
  0
APPID
  2
ACAD_EXEMPT_FROM_CAD_STANDARDS
 70
     0
  0
ENDTAB
  0
TABLE
  2
DIMSTYLE
 70
     2
  0
DIMSTYLE
  2
STANDARD
 70
     0
  3

  4

  5

  6

  7

 40
1.0
 41
0.18
 42
0.0625
 43
0.38
 44
0.18
 45
0.0
 46
0.0
 47
0.0
 48
0.0
140
0.18
141
0.09
142
0.0
143
25.399999999999999
144
1.0
145
0.0
146
1.0
147
0.09
 71
     0
 72
     0
 73
     1
 74
     1
 75
     0
 76
     0
 77
     0
 78
     0
170
     0
171
     2
172
     0
173
     0
174
     0
175
     0
176
     0
177
     0
178
     0
  0
DIMSTYLE
  2
ISO-25
 70
     0
  3

  4

  5

  6

  7

 40
1.0
 41
2.5
 42
0.625
 43
3.75
 44
1.25
 45
0.0
 46
0.0
 47
0.0
 48
0.0
140
2.5
141
2.5
142
0.0
143
0.0393700787
144
1.0
145
0.0
146
1.0
147
0.625
 71
     0
 72
     0
 73
     0
 74
     0
 75
     0
 76
     0
 77
     1
 78
     8
170
     0
171
     3
172
     1
173
     0
174
     0
175
     0
176
     0
177
     0
178
     0
  0
ENDTAB
  0
ENDSEC
  0
SECTION
  2
BLOCKS
  0
BLOCK
  8
0
  2
$MODEL_SPACE
 70
     0
 10
0.0
 20
0.0
 30
0.0
  3
$MODEL_SPACE
  1

  0
ENDBLK
  5
E8
  8
0
  0
BLOCK
 67
     1
  8
0
  2
$PAPER_SPACE
 70
     0
 10
0.0
 20
0.0
 30
0.0
  3
$PAPER_SPACE
  1

  0
ENDBLK
  5
E6
 67
     1
  8
0
  0
BLOCK
  8
0
  2
SW_CENTERMARKSYMBOL_0
 70
     0
 10
0.0
 20
0.0
 30
0.0
  3
SW_CENTERMARKSYMBOL_0
  1

  0
LINE
  5
131E
  8
0
  6
CONTINUOUS
 62
     0
 10
0.0
 20
0.0
 30
0.0
 11
0.0
 21
2.0
 31
0.0
  0
LINE
  5
131F
  8
0
  6
CONTINUOUS
 62
     0
 10
0.0
 20
0.0
 30
0.0
 11
-2.0
 21
0.0
 31
0.0
  0
LINE
  5
1320
  8
0
  6
CONTINUOUS
 62
     0
 10
0.0
 20
0.0
 30
0.0
 11
0.0
 21
-2.0
 31
0.0
  0
LINE
  5
1321
  8
0
  6
CONTINUOUS
 62
     0
 10
0.0
 20
0.0
 30
0.0
 11
2.0
 21
0.0
 31
0.0
  0
LINE
  5
1322
  8
0
  6
CONTINUOUS
 62
     0
 10
0.0
 20
4.0
 30
0.0
 11
0.0
 21
8.0
 31
0.0
  0
LINE
  5
1323
  8
0
  6
CONTINUOUS
 62
     0
 10
-4.0
 20
0.0
 30
0.0
 11
-8.0
 21
0.0
 31
0.0
  0
LINE
  5
1324
  8
0
  6
CONTINUOUS
 62
     0
 10
0.0
 20
-4.0
 30
0.0
 11
0.0
 21
-8.0
 31
0.0
  0
LINE
  5
1325
  8
0
  6
CONTINUOUS
 62
     0
 10
4.0
 20
0.0
 30
0.0
 11
8.0
 21
0.0
 31
0.0
  0
ENDBLK
  5
1326
  8
0
  0
ENDSEC
  0
SECTION
  2
ENTITIES
  0
TEXT
  5
12D2
  8
0
 62
     3
 10
0.0
 20
0.0
 30
0.0
 40
10.0
  1
BJ168-12001
  7
STANDARD1
  0
LINE
  5
136D
  8
0
 10
248.63666136179131
 20
79.260830024494112
 30
0.0
 11
98.740505771091307
 21
79.260830024494055
 31
0.0
  0
LINE
  5
136E
  8
0
 10
208.51666136179131
 20
69.260830024494112
 30
0.0
 11
248.63666136179131
 21
69.260830024494112
 31
0.0
  0
LINE
  5
136F
  8
0
 10
248.63666136179131
 20
81.744144798041987
 30
0.0
 11
248.6366613617914
 21
66.77751525094618
 31
0.0
  0
ARC
  5
1371
  8
0
 10
115.6366613617913
 20
65.760830024494112
 30
0.0
 40
31.200000000000099
 50
298.9561900500002
 51
0.0
  0
LINE
  5
1372
  8
0
 10
146.8366613617913
 20
65.760830024494112
 30
0.0
 11
146.8366613617913
 21
79.260830024494112
 31
0.0
  0
LINE
  5
1374
  8
0
 10
98.740505771091307
 20
79.260830024494112
 30
0.0
 11
91.366661361791301
 21
51.74126804199409
 31
0.0
  0
ARC
  5
1375
  8
0
 10
117.8366613617913
 20
65.210830024494044
 30
0.0
 40
29.700000000000021
 50
206.96978771460019
 51
295.75463999659968
  0
CIRCLE
  5
1376
  8
0
 10
115.6366613617913
 20
65.760830024494112
 30
0.0
 40
6.0
  0
LINE
  5
1377
  8
0
 10
146.8366613617913
 20
74.260830024494112
 30
0.0
 11
208.51666136179131
 21
74.260830024494112
 31
0.0
  0
LINE
  5
1378
  8
0
 10
208.51666136179131
 20
74.260830024494112
 30
0.0
 11
208.51666136179131
 21
69.260830024494112
 31
0.0
  0
LINE
  5
1379
  8
0
 10
208.45318633769131
 20
69.260830024494112
 30
0.0
 11
208.51666136179131
 21
69.260830024494112
 31
0.0
  0
LINE
  5
137A
  8
0
 10
147.8553361938913
 20
53.376446819494049
 30
0.0
 11
205.86499588659129
 21
68.920088287394023
 31
0.0
  0
ARC
  5
137B
  8
0
 10
150.44352664489131
 20
43.71718855659406
 30
0.0
 40
10.0
 50
104.9999999999995
 51
147.6533865974998
  0
ARC
  5
137C
  8
0
 10
208.45318633769131
 20
59.260830024494112
 30
0.0
 40
10.000000000000041
 50
90.0
 51
104.9999999999995
  0
LINE
  5
1380
  8
0
 10
248.63666136179131
 20
155.18769771636889
 30
0.0
 11
146.8366613617913
 21
155.18769771636889
 31
0.0
  0
LINE
  5
1381
  8
0
 10
146.83666136179119
 20
145.1876977163688
 30
0.0
 11
248.63666136179131
 21
145.18769771636889
 31
0.0
  0
LINE
  5
1382
  8
0
 10
248.63666136179131
 20
142.70438294282101
 30
0.0
 11
248.63666136179131
 21
157.67101248991679
 31
0.0
  0
LINE
  5
1384
  8
0
 10
146.8366613617913
 20
143.18769771636889
 30
0.0
 11
91.366661361791273
 21
143.18769771636889
 31
0.0
  0
LINE
  5
1385
  8
0
 10
98.740505771091307
 20
143.18769771636889
 30
0.0
 11
98.740505771091307
 21
157.18769771636889
 31
0.0
  0
LINE
  5
1386
  8
0
 10
91.366661361791273
 20
157.18769771636889
 30
0.0
 11
146.8366613617913
 21
157.18769771636889
 31
0.0
  0
LINE
  5
1387
  8
0
 10
146.8366613617913
 20
143.18769771636889
 30
0.0
 11
146.8366613617913
 21
157.18769771636889
 31
0.0
  0
LINE
  5
138A
  8
0
 10
91.366661361791301
 20
143.18769771636889
 30
0.0
 11
91.366661361791301
 21
157.18769771636889
 31
0.0
  0
LINE
  5
138F
  8
0
 10
330.56352905366612
 20
35.510830024494062
 30
0.0
 11
344.56352905366612
 21
35.510830024494062
 31
0.0
  0
LINE
  5
1391
  8
0
 10
332.56352905366612
 20
49.06758697109413
 30
0.0
 11
332.56352905366612
 21
60.118694400694032
 31
0.0
  0
LINE
  5
1392
  8
0
 10
342.56352905366612
 20
49.06758697109413
 30
0.0
 11
342.56352905366612
 21
60.118694400694032
 31
0.0
  0
LINE
  5
1393
  8
0
 10
342.56352905366612
 20
49.067586971094102
 30
0.0
 11
332.56352905366612
 21
49.067586971094102
 31
0.0
  0
LINE
  5
1397
  8
0
 10
330.56352905366612
 20
60.994330862994047
 30
0.0
 11
330.56352905366612
 21
35.510830024494084
 31
0.0
  0
LINE
  5
1398
  8
0
 10
344.56352905366612
 20
35.510830024494084
 30
0.0
 11
344.56352905366612
 21
60.994330862994047
 31
0.0
  0
LINE
  5
139B
  8
0
 10
16.054626522115541
 20
35.510830024494062
 30
0.0
 11
30.054626522115541
 21
35.510830024494062
 31
0.0
  0
ARC
  5
139C
  8
0
 10
23.054626522115541
 20
74.260830024494112
 30
0.0
 40
14.999999999999989
 50
297.81813928470069
 51
242.18186071529919
  0
LINE
  5
139D
  8
0
 10
16.054626522115541
 20
79.260830024494112
 30
0.0
 11
16.054626522115541
 21
35.510830024494062
 31
0.0
  0
LINE
  5
139E
  8
0
 10
30.054626522115541
 20
79.260830024494112
 30
0.0
 11
16.054626522115541
 21
79.260830024494112
 31
0.0
  0
LINE
  5
139F
  8
0
 10
30.054626522115541
 20
79.260830024494112
 30
0.0
 11
30.054626522115541
 21
35.510830024494062
 31
0.0
  0
LINE
  5
13A0
  8
0
 10
30.054626522115541
 20
51.74126804199409
 30
0.0
 11
16.054626522115541
 21
51.74126804199409
 31
0.0
  0
ARC
  5
13A3
  8
0
 10
24.289839943515531
 20
74.063941615794079
 30
0.0
 40
6.2512027284891607
 50
337.2481359234996
 51
1.8048912003007269
  0
ARC
  5
13A4
  8
0
 10
22.436116394215531
 20
74.268703817694075
 30
0.0
 40
6.8833747284740179
 50
157.9852496484001
 51
202.0147503515999
  0
ARC
  5
13A5
  8
0
 10
23.05090967311553
 20
74.282419405194105
 30
0.0
 40
7.4638554217375166
 50
41.836139780799847
 51
138.1638602192001
  0
POLYLINE
  5
13A6
  8
0
 66
     1
 10
0.0
 20
0.0
 30
0.0
 70
   128
  0
VERTEX
  5
158E
  8
0
 10
30.054626522115541
 20
76.86740264239404
 30
0.0
  0
VERTEX
  5
158F
  8
0
 10
30.37269221661553
 20
75.824771996194045
 30
0.0
  0
VERTEX
  5
1590
  8
0
 10
30.537941295615521
 20
74.260830024494112
 30
0.0
  0
SEQEND
  5
1591
  8
0
  0
ARC
  5
13B2
  8
0
 10
261.63666136179131
 20
150.18769771636889
 30
0.0
 40
15.0
 50
209.92643486661501
 51
150.07356513338499
  0
ARC
  5
13B3
  8
0
 10
261.63666136179131
 20
74.260830024494112
 30
0.0
 40
15.0
 50
209.9264348666135
 51
150.0735651333865
  0
CIRCLE
  5
13B4
  8
0
 10
337.56352905366612
 20
74.260830024494112
 30
0.0
 40
15.0
  0
LINE
  5
13BA
  8
1
 10
241.63666136179131
 20
74.260830024494112
 30
0.0
 11
281.63666136179131
 21
74.260830024494112
 31
0.0
  0
LINE
  5
13BB
  8
1
 10
261.63666136179131
 20
94.260830024494112
 30
0.0
 11
261.63666136179131
 21
54.260830024494112
 31
0.0
  0
LINE
  5
13BF
  8
1
 10
104.6366613617913
 20
65.760830024494112
 30
0.0
 11
126.6366613617913
 21
65.760830024494112
 31
0.0
  0
LINE
  5
13C0
  8
1
 10
115.6366613617913
 20
54.760830024494112
 30
0.0
 11
115.6366613617913
 21
76.760830024494112
 31
0.0
  0
LINE
  5
13C3
  8
1
 10
115.6366613617913
 20
138.18769771636889
 30
0.0
 11
115.6366613617913
 21
162.187697716369
 31
0.0
  0
LINE
  5
13C6
  8
1
 10
3.05462652211554
 20
74.260830024494112
 30
0.0
 11
43.054626522115541
 21
74.260830024494112
 31
0.0
  0
LINE
  5
13C7
  8
1
 10
23.054626522115541
 20
94.260830024494112
 30
0.0
 11
23.054626522115541
 21
30.510830024494059
 31
0.0
  0
LINE
  5
146A
  8
2
 10
109.6366613617913
 20
143.18769771636889
 30
0.0
 11
109.6366613617913
 21
157.18769771636889
 31
0.0
  0
LINE
  5
146B
  8
2
 10
121.6366613617913
 20
143.18769771636889
 30
0.0
 11
121.6366613617913
 21
157.18769771636889
 31
0.0
  0
LINE
  5
14B5
  8
1
 10
241.63666136179131
 20
150.18769771636889
 30
0.0
 11
281.63666136179131
 21
150.18769771636889
 31
0.0
  0
LINE
  5
14B6
  8
1
 10
261.63666136179131
 20
170.18769771636889
 30
0.0
 11
261.63666136179131
 21
130.18769771636889
 31
0.0
  0
LINE
  5
14B7
  8
1
 10
317.56352905366612
 20
74.260830024494112
 30
0.0
 11
357.56352905366612
 21
74.260830024494112
 31
0.0
  0
LINE
  5
14B8
  8
1
 10
337.56352905366612
 20
94.260830024494112
 30
0.0
 11
337.56352905366612
 21
54.260830024494112
 31
0.0
  0
ENDSEC
  0
EOF
