  0
SECTION
  2
HEADER
  9
$ACADVER
  1
AC1009
  9
$INSBASE
 10
0.0
 20
0.0
 30
0.0
  9
$EXTMIN
 10
-0.0171621212297168
 20
-2.9785438387109471
 30
-0.0000000000000058
  9
$EXTMAX
 10
342.25223276431859
 20
175.5000582472951
 30
0.0000000000000104
  9
$LIMMIN
 10
0.0
 20
0.0
  9
$LIMMAX
 10
375.0
 20
270.0
  9
$ORTHOMODE
 70
     1
  9
$REGENMODE
 70
     1
  9
$FILLMODE
 70
     1
  9
$QTEXTMODE
 70
     0
  9
$MIRRTEXT
 70
     0
  9
$DRAGMODE
 70
     2
  9
$LTSCALE
 40
5.0
  9
$OSMODE
 70
    37
  9
$ATTMODE
 70
     1
  9
$TEXTSIZE
 40
0.2
  9
$TRACEWID
 40
0.05
  9
$TEXTSTYLE
  7
STANDARD
  9
$CLAYER
  8
0
  9
$CELTYPE
  6
BYLAYER
  9
$CECOLOR
 62
   256
  9
$DIMSCALE
 40
1.0
  9
$DIMASZ
 40
3.0
  9
$DIMEXO
 40
2.0
  9
$DIMDLI
 40
10.0
  9
$DIMRND
 40
0.0
  9
$DIMDLE
 40
0.0
  9
$DIMEXE
 40
2.0
  9
$DIMTP
 40
0.0
  9
$DIMTM
 40
0.0
  9
$DIMTXT
 40
3.2000000000000002
  9
$DIMCEN
 40
0.09
  9
$DIMTSZ
 40
0.0
  9
$DIMTOL
 70
     0
  9
$DIMLIM
 70
     0
  9
$DIMTIH
 70
     0
  9
$DIMTOH
 70
     0
  9
$DIMSE1
 70
     0
  9
$DIMSE2
 70
     0
  9
$DIMTAD
 70
     1
  9
$DIMZIN
 70
     0
  9
$DIMBLK
  1

  9
$DIMASO
 70
     0
  9
$DIMSHO
 70
     0
  9
$DIMPOST
  1

  9
$DIMAPOST
  1

  9
$DIMALT
 70
     0
  9
$DIMALTD
 70
     2
  9
$DIMALTF
 40
25.399999999999999
  9
$DIMLFAC
 40
1.0
  9
$DIMTOFL
 70
     1
  9
$DIMTVP
 40
1.6000000000000001
  9
$DIMTIX
 70
     0
  9
$DIMSOXD
 70
     0
  9
$DIMSAH
 70
     0
  9
$DIMBLK1
  1

  9
$DIMBLK2
  1

  9
$DIMSTYLE
  2
STANDARD
  9
$DIMCLRD
 70
     0
  9
$DIMCLRE
 70
     0
  9
$DIMCLRT
 70
     0
  9
$DIMTFAC
 40
1.0
  9
$DIMGAP
 40
0.09
  9
$LUNITS
 70
     2
  9
$LUPREC
 70
     4
  9
$SKETCHINC
 40
0.1
  9
$FILLETRAD
 40
0.0
  9
$AUNITS
 70
     0
  9
$AUPREC
 70
     0
  9
$MENU
  1
E:\r13\win\SUPPORT\ACAD
  9
$ELEVATION
 40
0.0
  9
$PELEVATION
 40
0.0
  9
$THICKNESS
 40
0.0
  9
$LIMCHECK
 70
     0
  9
$BLIPMODE
 70
     0
  9
$CHAMFERA
 40
0.0
  9
$CHAMFERB
 40
0.0
  9
$SKPOLY
 70
     0
  9
$TDCREATE
 40
2449840.6171180559
  9
$TDUPDATE
 40
2456871.4188250699
  9
$TDINDWG
 40
0.1480946875
  9
$TDUSRTIMER
 40
0.1480946875
  9
$USRTIMER
 70
     1
  9
$ANGBASE
 50
0.0
  9
$ANGDIR
 70
     0
  9
$PDMODE
 70
     0
  9
$PDSIZE
 40
0.0
  9
$PLINEWID
 40
0.0
  9
$COORDS
 70
     1
  9
$SPLFRAME
 70
     0
  9
$SPLINETYPE
 70
     6
  9
$SPLINESEGS
 70
     8
  9
$ATTDIA
 70
     0
  9
$ATTREQ
 70
     1
  9
$HANDLING
 70
     1
  9
$HANDSEED
  5
159F
  9
$SURFTAB1
 70
     6
  9
$SURFTAB2
 70
     6
  9
$SURFTYPE
 70
     6
  9
$SURFU
 70
     6
  9
$SURFV
 70
     6
  9
$UCSNAME
  2

  9
$UCSORG
 10
0.0
 20
0.0
 30
0.0
  9
$UCSXDIR
 10
1.0
 20
0.0
 30
0.0
  9
$UCSYDIR
 10
0.0
 20
1.0
 30
0.0
  9
$PUCSNAME
  2

  9
$PUCSORG
 10
0.0
 20
0.0
 30
0.0
  9
$PUCSXDIR
 10
1.0
 20
0.0
 30
0.0
  9
$PUCSYDIR
 10
0.0
 20
1.0
 30
0.0
  9
$USERI1
 70
     0
  9
$USERI2
 70
     1
  9
$USERI3
 70
     0
  9
$USERI4
 70
     0
  9
$USERI5
 70
     0
  9
$USERR1
 40
0.0
  9
$USERR2
 40
0.0
  9
$USERR3
 40
0.0
  9
$USERR4
 40
0.0
  9
$USERR5
 40
0.0
  9
$WORLDVIEW
 70
     1
  9
$SHADEDGE
 70
     3
  9
$SHADEDIF
 70
    70
  9
$TILEMODE
 70
     1
  9
$MAXACTVP
 70
    16
  9
$PLIMCHECK
 70
     0
  9
$PEXTMIN
 10
1.0000000000000000E+020
 20
1.0000000000000000E+020
 30
1.0000000000000000E+020
  9
$PEXTMAX
 10
-1.0000000000000000E+020
 20
-1.0000000000000000E+020
 30
-1.0000000000000000E+020
  9
$PLIMMIN
 10
0.0
 20
0.0
  9
$PLIMMAX
 10
12.0
 20
9.0
  9
$UNITMODE
 70
     0
  9
$VISRETAIN
 70
     0
  9
$PLINEGEN
 70
     0
  9
$PSLTSCALE
 70
     0
  0
ENDSEC
  0
SECTION
  2
TABLES
  0
TABLE
  2
VPORT
 70
     1
  0
VPORT
  2
*ACTIVE
 70
     0
 10
0.0
 20
0.0
 11
1.0
 21
1.0
 12
171.11753532154449
 22
86.260757204292076
 13
0.0
 23
0.0
 14
10.0
 24
10.0
 15
10.0
 25
10.0
 16
0.0
 26
0.0
 36
1.0
 17
0.0
 27
0.0
 37
0.0
 40
258.97434150409077
 41
1.3297150610583439
 42
50.0
 43
0.0
 44
0.0
 50
0.0
 51
0.0
 71
     0
 72
   100
 73
     1
 74
     0
 75
     0
 76
     0
 77
     0
 78
     0
  0
ENDTAB
  0
TABLE
  2
LTYPE
 70
     4
  0
LTYPE
  2
CONTINUOUS
 70
     0
  3
Solid Line
 72
    65
 73
     0
 40
0.0
  0
LTYPE
  2
CENTER
 70
     0
  3
____ _ ____ _ ____ _ ____ _ ____ _ ____ _ ____
 72
    65
 73
     4
 40
2.0
 49
1.25
 49
-0.25
 49
0.25
 49
-0.25
  0
LTYPE
  2
PHANTOM2
 70
     0
  3
___ _ _ ___ _ _ ___ _ _ ___ _ _
 72
    65
 73
     6
 40
1.25
 49
0.625
 49
-0.125
 49
0.125
 49
-0.125
 49
0.125
 49
-0.125
  0
LTYPE
  2
HIDDEN
 70
     0
  3
Hidden __ __ __ __ __ __ __ __ __ __ __ __ __ _
 72
    65
 73
     2
 40
0.375
 49
0.25
 49
-0.125
  0
ENDTAB
  0
TABLE
  2
LAYER
 70
     3
  0
LAYER
  2
0
 70
     0
 62
     7
  6
CONTINUOUS
  0
LAYER
  2
1
 70
     0
 62
     1
  6
CENTER
  0
LAYER
  2
2
 70
     0
 62
     2
  6
HIDDEN
  0
ENDTAB
  0
TABLE
  2
STYLE
 70
     2
  0
STYLE
  2
STANDARD
 70
     0
 40
0.0
 41
1.0
 50
0.0
 71
     0
 42
0.2
  3
TXT
  4
BIGFONT
  0
STYLE
  2
STANDARD1
 70
     0
 40
0.0
 41
1.0
 50
0.0
 71
     0
 42
3.0
  3
txt
  4

  0
ENDTAB
  0
TABLE
  2
VIEW
 70
     1
  0
VIEW
  2
ALL
 70
     0
 40
270.0
 10
220.99159700000001
 20
135.0
 41
0.0
 11
0.0
 21
0.0
 31
1.0
 12
0.0
 22
0.0
 32
0.0
 42
0.0
 43
0.0
 44
0.0
 50
0.0
 71
     0
  0
ENDTAB
  0
TABLE
  2
UCS
 70
     0
  0
ENDTAB
  0
TABLE
  2
APPID
 70
     4
  0
APPID
  2
ACAD
 70
     0
  0
APPID
  2
ACAD_MLEADERVER
 70
     0
  0
APPID
  2
ACAD_NAV_VCDISPLAY
 70
     0
  0
APPID
  2
ACAD_EXEMPT_FROM_CAD_STANDARDS
 70
     0
  0
ENDTAB
  0
TABLE
  2
DIMSTYLE
 70
     2
  0
DIMSTYLE
  2
STANDARD
 70
     0
  3

  4

  5

  6

  7

 40
1.0
 41
0.18
 42
0.0625
 43
0.38
 44
0.18
 45
0.0
 46
0.0
 47
0.0
 48
0.0
140
0.18
141
0.09
142
0.0
143
25.399999999999999
144
1.0
145
0.0
146
1.0
147
0.09
 71
     0
 72
     0
 73
     1
 74
     1
 75
     0
 76
     0
 77
     0
 78
     0
170
     0
171
     2
172
     0
173
     0
174
     0
175
     0
176
     0
177
     0
178
     0
  0
DIMSTYLE
  2
ISO-25
 70
     0
  3

  4

  5

  6

  7

 40
1.0
 41
2.5
 42
0.625
 43
3.75
 44
1.25
 45
0.0
 46
0.0
 47
0.0
 48
0.0
140
2.5
141
2.5
142
0.0
143
0.0393700787
144
1.0
145
0.0
146
1.0
147
0.625
 71
     0
 72
     0
 73
     0
 74
     0
 75
     0
 76
     0
 77
     1
 78
     8
170
     0
171
     3
172
     1
173
     0
174
     0
175
     0
176
     0
177
     0
178
     0
  0
ENDTAB
  0
ENDSEC
  0
SECTION
  2
BLOCKS
  0
BLOCK
  8
0
  2
$MODEL_SPACE
 70
     0
 10
0.0
 20
0.0
 30
0.0
  3
$MODEL_SPACE
  1

  0
ENDBLK
  5
E8
  8
0
  0
BLOCK
 67
     1
  8
0
  2
$PAPER_SPACE
 70
     0
 10
0.0
 20
0.0
 30
0.0
  3
$PAPER_SPACE
  1

  0
ENDBLK
  5
E6
 67
     1
  8
0
  0
BLOCK
  8
0
  2
SW_CENTERMARKSYMBOL_0
 70
     0
 10
0.0
 20
0.0
 30
0.0
  3
SW_CENTERMARKSYMBOL_0
  1

  0
LINE
  5
1338
  8
0
  6
CONTINUOUS
 62
     0
 10
0.0
 20
0.0
 30
0.0
 11
0.0
 21
2.0
 31
0.0
  0
LINE
  5
1339
  8
0
  6
CONTINUOUS
 62
     0
 10
0.0
 20
0.0
 30
0.0
 11
-2.0
 21
0.0
 31
0.0
  0
LINE
  5
133A
  8
0
  6
CONTINUOUS
 62
     0
 10
0.0
 20
0.0
 30
0.0
 11
0.0
 21
-2.0
 31
0.0
  0
LINE
  5
133B
  8
0
  6
CONTINUOUS
 62
     0
 10
0.0
 20
0.0
 30
0.0
 11
2.0
 21
0.0
 31
0.0
  0
LINE
  5
133C
  8
0
  6
CONTINUOUS
 62
     0
 10
0.0
 20
4.0
 30
0.0
 11
0.0
 21
7.0
 31
0.0
  0
LINE
  5
133D
  8
0
  6
CONTINUOUS
 62
     0
 10
-4.0
 20
0.0
 30
0.0
 11
-7.0
 21
0.0
 31
0.0
  0
LINE
  5
133E
  8
0
  6
CONTINUOUS
 62
     0
 10
0.0
 20
-4.0
 30
0.0
 11
0.0
 21
-7.0
 31
0.0
  0
LINE
  5
133F
  8
0
  6
CONTINUOUS
 62
     0
 10
4.0
 20
0.0
 30
0.0
 11
7.0
 21
0.0
 31
0.0
  0
ENDBLK
  5
1340
  8
0
  0
ENDSEC
  0
SECTION
  2
ENTITIES
  0
TEXT
  5
12EC
  8
0
 62
     3
 10
0.0
 20
0.0
 30
0.0
 40
10.0
  1
BJ168-10001
  7
STANDARD1
  0
LINE
  5
1383
  8
0
 10
225.59460685881589
 20
76.843100664780081
 30
0.0
 11
102.91692380321589
 21
76.843100664780138
 31
0.0
  0
LINE
  5
1384
  8
0
 10
185.17460685881591
 20
66.843100664780081
 30
0.0
 11
225.59460685881589
 21
66.843100664780081
 31
0.0
  0
LINE
  5
1385
  8
0
 10
225.59460685881589
 20
64.359785891232207
 30
0.0
 11
225.59460685881589
 21
79.326415438328013
 31
0.0
  0
CIRCLE
  5
1386
  8
0
 10
115.59460685881589
 20
65.343100664780081
 30
0.0
 40
5.0000000000000284
  0
ARC
  5
1387
  8
0
 10
115.59460685881589
 20
65.343100664780081
 30
0.0
 40
24.0
 50
299.75775621759988
 51
0.0
  0
ARC
  5
1388
  8
0
 10
117.2946068588159
 20
64.893100664780036
 30
0.0
 40
22.800000000000001
 50
206.8610028361995
 51
296.60873936739949
  0
LINE
  5
138A
  8
0
 10
139.59460685881589
 20
65.343100664780081
 30
0.0
 11
139.59460685881589
 21
76.843100664780081
 31
0.0
  0
LINE
  5
138B
  8
0
 10
102.91692380321589
 20
76.843100664780081
 30
0.0
 11
96.954606858815936
 21
54.591430897180032
 31
0.0
  0
LINE
  5
138C
  8
0
 10
139.59460685881589
 20
71.843100664780081
 30
0.0
 11
185.17460685881591
 21
71.843100664780081
 31
0.0
  0
LINE
  5
138D
  8
0
 10
185.17460685881591
 20
71.843100664780081
 30
0.0
 11
185.17460685881591
 21
66.719638494380035
 31
0.0
  0
ARC
  5
138E
  8
0
 10
186.74113183461591
 20
56.843100664780081
 30
0.0
 40
10.00000000000005
 50
99.012648284600161
 51
104.9999999999999
  0
ARC
  5
138F
  8
0
 10
142.91065903391589
 20
45.098760873880053
 30
0.0
 40
10.00000000000014
 50
104.9999999999999
 51
143.45729584780099
  0
LINE
  5
1390
  8
0
 10
140.3224685828159
 20
54.758019136780042
 30
0.0
 11
184.15294138361591
 21
66.502358927680007
 31
0.0
  0
LINE
  5
1393
  8
0
 10
225.59460685881589
 20
160.48983224067831
 30
0.0
 11
139.59460685881589
 21
160.48983224067831
 31
0.0
  0
LINE
  5
1394
  8
0
 10
139.59460685881589
 20
150.48983224067831
 30
0.0
 11
225.59460685881589
 21
150.48983224067831
 31
0.0
  0
LINE
  5
1395
  8
0
 10
225.59460685881601
 20
162.97314701422621
 30
0.0
 11
225.59460685881601
 21
148.00651746713041
 31
0.0
  0
LINE
  5
1397
  8
0
 10
102.91692380321589
 20
149.48983224067831
 30
0.0
 11
102.91692380321589
 21
161.48983224067831
 31
0.0
  0
LINE
  5
1399
  8
0
 10
96.954606858815936
 20
149.48983224067831
 30
0.0
 11
96.954606858815936
 21
161.48983224067831
 31
0.0
  0
LINE
  5
139B
  8
0
 10
139.59460685881589
 20
149.48983224067831
 30
0.0
 11
96.954606858815936
 21
149.48983224067831
 31
0.0
  0
LINE
  5
139C
  8
0
 10
96.954606858815936
 20
161.48983224067831
 30
0.0
 11
139.59460685881589
 21
161.48983224067831
 31
0.0
  0
LINE
  5
139D
  8
0
 10
139.59460685881589
 20
149.48983224067831
 30
0.0
 11
139.59460685881589
 21
161.48983224067831
 31
0.0
  0
LINE
  5
13A2
  8
0
 10
316.24133843471418
 20
42.093100664780017
 30
0.0
 11
328.24133843471418
 21
42.093100664780017
 31
0.0
  0
LINE
  5
13A4
  8
0
 10
317.24133843471418
 20
51.052978459480073
 30
0.0
 11
317.24133843471418
 21
57.700965040980009
 31
0.0
  0
LINE
  5
13A5
  8
0
 10
327.24133843471418
 20
51.052978459480073
 30
0.0
 11
327.24133843471418
 21
57.700965040980009
 31
0.0
  0
LINE
  5
13A6
  8
0
 10
327.24133843471418
 20
51.052978459480073
 30
0.0
 11
317.24133843471418
 21
51.052978459480073
 31
0.0
  0
LINE
  5
13AA
  8
0
 10
316.24133843471418
 20
42.093100664780017
 30
0.0
 11
316.24133843471418
 21
58.095373579880061
 31
0.0
  0
LINE
  5
13AB
  8
0
 10
328.24133843471418
 20
42.093100664780017
 30
0.0
 11
328.24133843471418
 21
58.095373579880061
 31
0.0
  0
LINE
  5
13AE
  8
0
 10
18.647140800159828
 20
42.093100664780017
 30
0.0
 11
30.647140800159828
 21
42.093100664780017
 31
0.0
  0
ARC
  5
13AF
  8
0
 10
24.647140800159828
 20
71.843100664780081
 30
0.0
 40
15.000000000000011
 50
293.57817847819979
 51
246.42182152180001
  0
LINE
  5
13B0
  8
0
 10
18.647140800159828
 20
76.843100664780081
 30
0.0
 11
18.647140800159828
 21
42.093100664780017
 31
0.0
  0
LINE
  5
13B1
  8
0
 10
30.647140800159828
 20
76.843100664780081
 30
0.0
 11
18.647140800159828
 21
76.843100664780081
 31
0.0
  0
LINE
  5
13B2
  8
0
 10
30.647140800159828
 20
76.843100664780081
 30
0.0
 11
30.647140800159828
 21
42.093100664780017
 31
0.0
  0
LINE
  5
13B3
  8
0
 10
30.647140800159828
 20
54.591430897180032
 30
0.0
 11
18.647140800159828
 21
54.591430897180032
 31
0.0
  0
ARC
  5
13B6
  8
0
 10
24.506674934059831
 20
71.856814156080006
 30
0.0
 40
7.3519383788967154
 50
142.8450772988007
 51
217.1549227011993
  0
ARC
  5
13B7
  8
0
 10
24.64550311605981
 20
71.953804653780026
 30
0.0
 40
7.3841925994480073
 50
41.462527568498992
 51
138.5374724315011
  0
ARC
  5
13B8
  8
0
 10
24.76278570145983
 20
71.850483471180041
 30
0.0
 40
7.3726870868890968
 50
322.95180109610089
 51
37.048198903899049
  0
ARC
  5
13C4
  8
0
 10
238.59460685881601
 20
71.843100664780081
 30
0.0
 40
15.0
 50
209.9264348666135
 51
150.0735651333865
  0
ARC
  5
13C5
  8
0
 10
238.59460685881601
 20
155.48983224067831
 30
0.0
 40
15.0
 50
209.92643486661501
 51
150.0735651333849
  0
CIRCLE
  5
13C9
  8
0
 10
322.24133843471418
 20
71.843100664780081
 30
0.0
 40
15.0
  0
LINE
  5
1417
  8
1
 10
218.59460685881589
 20
71.843100664780081
 30
0.0
 11
258.59460685881589
 21
71.843100664780081
 31
0.0
  0
LINE
  5
1418
  8
1
 10
238.59460685881601
 20
91.843100664780081
 30
0.0
 11
238.59460685881601
 21
51.843100664780081
 31
0.0
  0
LINE
  5
141D
  8
1
 10
105.59460685881589
 20
65.343100664780081
 30
0.0
 11
125.59460685881599
 21
65.343100664780081
 31
0.0
  0
LINE
  5
141E
  8
1
 10
115.59460685881589
 20
55.343100664780081
 30
0.0
 11
115.59460685881589
 21
75.343100664780081
 31
0.0
  0
LINE
  5
141F
  8
1
 10
115.59460685881589
 20
144.48983224067831
 30
0.0
 11
115.59460685881589
 21
166.48983224067831
 31
0.0
  0
LINE
  5
1423
  8
1
 10
4.7627857014598467
 20
71.850483471180041
 30
0.0
 11
44.762785701459848
 21
71.850483471180041
 31
0.0
  0
LINE
  5
1424
  8
1
 10
24.762785701459851
 20
91.850483471180027
 30
0.0
 11
24.762785701459912
 21
37.100483471179992
 31
0.0
  0
LINE
  5
1481
  8
2
 10
120.59460685881599
 20
149.48983224067831
 30
0.0
 11
120.59460685881599
 21
161.48983224067831
 31
0.0
  0
LINE
  5
1482
  8
2
 10
110.59460685881589
 20
149.48983224067831
 30
0.0
 11
110.59460685881589
 21
161.48983224067831
 31
0.0
  0
LINE
  5
150F
  8
1
 10
218.59460685881589
 20
155.48983224067831
 30
0.0
 11
258.59460685881589
 21
155.48983224067831
 31
0.0
  0
LINE
  5
1510
  8
1
 10
238.59460685881601
 20
175.48983224067831
 30
0.0
 11
238.59460685881601
 21
135.48983224067831
 31
0.0
  0
LINE
  5
1511
  8
1
 10
302.24133843471418
 20
71.843100664780081
 30
0.0
 11
342.24133843471418
 21
71.843100664780081
 31
0.0
  0
LINE
  5
1512
  8
1
 10
322.24133843471418
 20
91.843100664780081
 30
0.0
 11
322.24133843471418
 21
51.843100664780081
 31
0.0
  0
ENDSEC
  0
EOF
