  0
SECTION
  2
HEADER
  9
$ACADVER
  1
AC1009
  9
$INSBASE
 10
0.0
 20
0.0
 30
0.0
  9
$EXTMIN
 10
-0.005713052679198
 20
-2.9703766700065439
 30
-0.000000000000013
  9
$EXTMAX
 10
340.7056873795994
 20
168.42226604679061
 30
0.0000000000000176
  9
$LIMMIN
 10
0.0
 20
0.0
  9
$LIMMAX
 10
375.0
 20
270.0
  9
$ORTHOMODE
 70
     1
  9
$REGENMODE
 70
     1
  9
$FILLMODE
 70
     1
  9
$QTEXTMODE
 70
     0
  9
$MIRRTEXT
 70
     0
  9
$DRAGMODE
 70
     2
  9
$LTSCALE
 40
5.0
  9
$OSMODE
 70
    37
  9
$ATTMODE
 70
     1
  9
$TEXTSIZE
 40
0.2
  9
$TRACEWID
 40
0.05
  9
$TEXTSTYLE
  7
STANDARD
  9
$CLAYER
  8
0
  9
$CELTYPE
  6
BYLAYER
  9
$CECOLOR
 62
   256
  9
$DIMSCALE
 40
1.0
  9
$DIMASZ
 40
3.0
  9
$DIMEXO
 40
2.0
  9
$DIMDLI
 40
10.0
  9
$DIMRND
 40
0.0
  9
$DIMDLE
 40
0.0
  9
$DIMEXE
 40
2.0
  9
$DIMTP
 40
0.0
  9
$DIMTM
 40
0.0
  9
$DIMTXT
 40
3.2000000000000002
  9
$DIMCEN
 40
0.09
  9
$DIMTSZ
 40
0.0
  9
$DIMTOL
 70
     0
  9
$DIMLIM
 70
     0
  9
$DIMTIH
 70
     0
  9
$DIMTOH
 70
     0
  9
$DIMSE1
 70
     0
  9
$DIMSE2
 70
     0
  9
$DIMTAD
 70
     1
  9
$DIMZIN
 70
     0
  9
$DIMBLK
  1

  9
$DIMASO
 70
     0
  9
$DIMSHO
 70
     0
  9
$DIMPOST
  1

  9
$DIMAPOST
  1

  9
$DIMALT
 70
     0
  9
$DIMALTD
 70
     2
  9
$DIMALTF
 40
25.399999999999999
  9
$DIMLFAC
 40
1.0
  9
$DIMTOFL
 70
     1
  9
$DIMTVP
 40
1.6000000000000001
  9
$DIMTIX
 70
     0
  9
$DIMSOXD
 70
     0
  9
$DIMSAH
 70
     0
  9
$DIMBLK1
  1

  9
$DIMBLK2
  1

  9
$DIMSTYLE
  2
STANDARD
  9
$DIMCLRD
 70
     0
  9
$DIMCLRE
 70
     0
  9
$DIMCLRT
 70
     0
  9
$DIMTFAC
 40
1.0
  9
$DIMGAP
 40
0.09
  9
$LUNITS
 70
     2
  9
$LUPREC
 70
     4
  9
$SKETCHINC
 40
0.1
  9
$FILLETRAD
 40
0.0
  9
$AUNITS
 70
     0
  9
$AUPREC
 70
     0
  9
$MENU
  1
E:\r13\win\SUPPORT\ACAD
  9
$ELEVATION
 40
0.0
  9
$PELEVATION
 40
0.0
  9
$THICKNESS
 40
0.0
  9
$LIMCHECK
 70
     0
  9
$BLIPMODE
 70
     0
  9
$CHAMFERA
 40
0.0
  9
$CHAMFERB
 40
0.0
  9
$SKPOLY
 70
     0
  9
$TDCREATE
 40
2449840.6171180559
  9
$TDUPDATE
 40
2456871.4178929632
  9
$TDINDWG
 40
0.1475046296
  9
$TDUSRTIMER
 40
0.1475046296
  9
$USRTIMER
 70
     1
  9
$ANGBASE
 50
0.0
  9
$ANGDIR
 70
     0
  9
$PDMODE
 70
     0
  9
$PDSIZE
 40
0.0
  9
$PLINEWID
 40
0.0
  9
$COORDS
 70
     1
  9
$SPLFRAME
 70
     0
  9
$SPLINETYPE
 70
     6
  9
$SPLINESEGS
 70
     8
  9
$ATTDIA
 70
     0
  9
$ATTREQ
 70
     1
  9
$HANDLING
 70
     1
  9
$HANDSEED
  5
1B21
  9
$SURFTAB1
 70
     6
  9
$SURFTAB2
 70
     6
  9
$SURFTYPE
 70
     6
  9
$SURFU
 70
     6
  9
$SURFV
 70
     6
  9
$UCSNAME
  2

  9
$UCSORG
 10
0.0
 20
0.0
 30
0.0
  9
$UCSXDIR
 10
1.0
 20
0.0
 30
0.0
  9
$UCSYDIR
 10
0.0
 20
1.0
 30
0.0
  9
$PUCSNAME
  2

  9
$PUCSORG
 10
0.0
 20
0.0
 30
0.0
  9
$PUCSXDIR
 10
1.0
 20
0.0
 30
0.0
  9
$PUCSYDIR
 10
0.0
 20
1.0
 30
0.0
  9
$USERI1
 70
     0
  9
$USERI2
 70
     1
  9
$USERI3
 70
     0
  9
$USERI4
 70
     0
  9
$USERI5
 70
     0
  9
$USERR1
 40
0.0
  9
$USERR2
 40
0.0
  9
$USERR3
 40
0.0
  9
$USERR4
 40
0.0
  9
$USERR5
 40
0.0
  9
$WORLDVIEW
 70
     1
  9
$SHADEDGE
 70
     3
  9
$SHADEDIF
 70
    70
  9
$TILEMODE
 70
     1
  9
$MAXACTVP
 70
    16
  9
$PLIMCHECK
 70
     0
  9
$PEXTMIN
 10
1.0000000000000000E+020
 20
1.0000000000000000E+020
 30
1.0000000000000000E+020
  9
$PEXTMAX
 10
-1.0000000000000000E+020
 20
-1.0000000000000000E+020
 30
-1.0000000000000000E+020
  9
$PLIMMIN
 10
0.0
 20
0.0
  9
$PLIMMAX
 10
12.0
 20
9.0
  9
$UNITMODE
 70
     0
  9
$VISRETAIN
 70
     0
  9
$PLINEGEN
 70
     0
  9
$PSLTSCALE
 70
     0
  0
ENDSEC
  0
SECTION
  2
TABLES
  0
TABLE
  2
VPORT
 70
     1
  0
VPORT
  2
*ACTIVE
 70
     0
 10
0.0
 20
0.0
 11
1.0
 21
1.0
 12
170.3499871634601
 22
82.725944688392005
 13
0.0
 23
0.0
 14
10.0
 24
10.0
 15
10.0
 25
10.0
 16
0.0
 26
0.0
 36
1.0
 17
0.0
 27
0.0
 37
0.0
 40
257.79550228085992
 41
1.3297150610583439
 42
50.0
 43
0.0
 44
0.0
 50
0.0
 51
0.0
 71
     0
 72
   100
 73
     1
 74
     0
 75
     0
 76
     0
 77
     0
 78
     0
  0
ENDTAB
  0
TABLE
  2
LTYPE
 70
     4
  0
LTYPE
  2
CONTINUOUS
 70
     0
  3
Solid Line
 72
    65
 73
     0
 40
0.0
  0
LTYPE
  2
CENTER
 70
     0
  3
____ _ ____ _ ____ _ ____ _ ____ _ ____ _ ____
 72
    65
 73
     4
 40
2.0
 49
1.25
 49
-0.25
 49
0.25
 49
-0.25
  0
LTYPE
  2
HIDDEN
 70
     0
  3
Hidden __ __ __ __ __ __ __ __ __ __ __ __ __ _
 72
    65
 73
     2
 40
0.375
 49
0.25
 49
-0.125
  0
LTYPE
  2
PHANTOM2
 70
     0
  3
___ _ _ ___ _ _ ___ _ _ ___ _ _
 72
    65
 73
     6
 40
1.25
 49
0.625
 49
-0.125
 49
0.125
 49
-0.125
 49
0.125
 49
-0.125
  0
ENDTAB
  0
TABLE
  2
LAYER
 70
     3
  0
LAYER
  2
0
 70
     0
 62
     7
  6
CONTINUOUS
  0
LAYER
  2
1
 70
     0
 62
     1
  6
CENTER
  0
LAYER
  2
2
 70
     0
 62
     2
  6
HIDDEN
  0
ENDTAB
  0
TABLE
  2
STYLE
 70
     2
  0
STYLE
  2
STANDARD
 70
     0
 40
0.0
 41
1.0
 50
0.0
 71
     0
 42
0.2
  3
TXT
  4
BIGFONT
  0
STYLE
  2
STANDARD1
 70
     0
 40
0.0
 41
1.0
 50
0.0
 71
     0
 42
3.0
  3
txt
  4

  0
ENDTAB
  0
TABLE
  2
VIEW
 70
     1
  0
VIEW
  2
ALL
 70
     0
 40
270.0
 10
220.99159700000001
 20
135.0
 41
0.0
 11
0.0
 21
0.0
 31
1.0
 12
0.0
 22
0.0
 32
0.0
 42
0.0
 43
0.0
 44
0.0
 50
0.0
 71
     0
  0
ENDTAB
  0
TABLE
  2
UCS
 70
     0
  0
ENDTAB
  0
TABLE
  2
APPID
 70
     4
  0
APPID
  2
ACAD
 70
     0
  0
APPID
  2
ACAD_MLEADERVER
 70
     0
  0
APPID
  2
ACAD_NAV_VCDISPLAY
 70
     0
  0
APPID
  2
ACAD_EXEMPT_FROM_CAD_STANDARDS
 70
     0
  0
ENDTAB
  0
TABLE
  2
DIMSTYLE
 70
     2
  0
DIMSTYLE
  2
STANDARD
 70
     0
  3

  4

  5

  6

  7

 40
1.0
 41
0.18
 42
0.0625
 43
0.38
 44
0.18
 45
0.0
 46
0.0
 47
0.0
 48
0.0
140
0.18
141
0.09
142
0.0
143
25.399999999999999
144
1.0
145
0.0
146
1.0
147
0.09
 71
     0
 72
     0
 73
     1
 74
     1
 75
     0
 76
     0
 77
     0
 78
     0
170
     0
171
     2
172
     0
173
     0
174
     0
175
     0
176
     0
177
     0
178
     0
  0
DIMSTYLE
  2
ISO-25
 70
     0
  3

  4

  5

  6

  7

 40
1.0
 41
2.5
 42
0.625
 43
3.75
 44
1.25
 45
0.0
 46
0.0
 47
0.0
 48
0.0
140
2.5
141
2.5
142
0.0
143
0.0393700787
144
1.0
145
0.0
146
1.0
147
0.625
 71
     0
 72
     0
 73
     0
 74
     0
 75
     0
 76
     0
 77
     1
 78
     8
170
     0
171
     3
172
     1
173
     0
174
     0
175
     0
176
     0
177
     0
178
     0
  0
ENDTAB
  0
ENDSEC
  0
SECTION
  2
BLOCKS
  0
BLOCK
  8
0
  2
$MODEL_SPACE
 70
     0
 10
0.0
 20
0.0
 30
0.0
  3
$MODEL_SPACE
  1

  0
ENDBLK
  5
E8
  8
0
  0
BLOCK
 67
     1
  8
0
  2
$PAPER_SPACE
 70
     0
 10
0.0
 20
0.0
 30
0.0
  3
$PAPER_SPACE
  1

  0
ENDBLK
  5
E6
 67
     1
  8
0
  0
BLOCK
  8
0
  2
SW_CENTERMARKSYMBOL_0
 70
     0
 10
0.0
 20
0.0
 30
0.0
  3
SW_CENTERMARKSYMBOL_0
  1

  0
LINE
  5
1591
  8
0
  6
CONTINUOUS
 62
     0
 10
0.0
 20
0.0
 30
0.0
 11
0.0
 21
2.0
 31
0.0
  0
LINE
  5
1592
  8
0
  6
CONTINUOUS
 62
     0
 10
0.0
 20
0.0
 30
0.0
 11
-2.0
 21
0.0
 31
0.0
  0
LINE
  5
1593
  8
0
  6
CONTINUOUS
 62
     0
 10
0.0
 20
0.0
 30
0.0
 11
0.0
 21
-2.0
 31
0.0
  0
LINE
  5
1594
  8
0
  6
CONTINUOUS
 62
     0
 10
0.0
 20
0.0
 30
0.0
 11
2.0
 21
0.0
 31
0.0
  0
LINE
  5
1595
  8
0
  6
CONTINUOUS
 62
     0
 10
0.0
 20
4.0
 30
0.0
 11
0.0
 21
7.0
 31
0.0
  0
LINE
  5
1596
  8
0
  6
CONTINUOUS
 62
     0
 10
-4.0
 20
0.0
 30
0.0
 11
-7.0
 21
0.0
 31
0.0
  0
LINE
  5
1597
  8
0
  6
CONTINUOUS
 62
     0
 10
0.0
 20
-4.0
 30
0.0
 11
0.0
 21
-7.0
 31
0.0
  0
LINE
  5
1598
  8
0
  6
CONTINUOUS
 62
     0
 10
4.0
 20
0.0
 30
0.0
 11
7.0
 21
0.0
 31
0.0
  0
ENDBLK
  5
1599
  8
0
  0
ENDSEC
  0
SECTION
  2
ENTITIES
  0
TEXT
  5
1545
  8
0
 62
     3
 10
0.0
 20
0.0
 30
0.0
 40
10.0
  1
BJ167-10001
  7
STANDARD1
  0
LINE
  5
162C
  8
0
 10
224.04633652633041
 20
69.763953072375557
 30
0.0
 11
101.3686534708303
 21
69.763953072375585
 31
0.0
  0
LINE
  5
162D
  8
0
 10
183.62633652633039
 20
59.763953072375557
 30
0.0
 11
224.04633652633041
 21
59.763953072375557
 31
0.0
  0
LINE
  5
162F
  8
0
 10
138.04633652633041
 20
47.453795703575558
 30
0.0
 11
138.04633652633041
 21
69.763953072375557
 31
0.0
  0
LINE
  5
1630
  8
0
 10
101.3686534708303
 20
69.763953072375557
 30
0.0
 11
95.406336526330364
 21
47.512283304775558
 31
0.0
  0
ARC
  5
1632
  8
0
 10
114.04633652633041
 20
58.263953072375557
 30
0.0
 40
23.999999999999819
 50
299.75775621759942
 51
323.45729584779917
  0
ARC
  5
1633
  8
0
 10
115.7463365263303
 20
57.813953072375568
 30
0.0
 40
22.800000000000001
 50
206.86100283619939
 51
296.60873936739961
  0
CIRCLE
  5
1634
  8
0
 10
114.04633652633041
 20
58.263953072375557
 30
0.0
 40
5.0
  0
ARC
  5
1635
  8
0
 10
141.3623887014304
 20
38.01961328157558
 30
0.0
 40
10.00000000000008
 50
109.3662346485993
 51
143.4572958477992
  0
LINE
  5
1637
  8
0
 10
143.04633652633029
 20
69.763953072375557
 30
0.0
 11
143.04633652633041
 21
48.823587545375567
 31
0.0
  0
LINE
  5
1638
  8
0
 10
143.04633652633041
 20
48.823587545375567
 30
0.0
 11
138.7741982504304
 21
47.678871544375617
 31
0.0
  0
POLYLINE
  5
163A
  8
0
 66
     1
 10
0.0
 20
0.0
 30
0.0
 70
   128
  0
VERTEX
  5
190D
  8
0
 10
138.7741982504304
 20
47.678871544375617
 30
0.0
  0
VERTEX
  5
190E
  8
0
 10
138.16593899713041
 20
47.494987115175597
 30
0.0
  0
VERTEX
  5
190F
  8
0
 10
138.04633652633041
 20
47.453795703575558
 30
0.0
  0
SEQEND
  5
1910
  8
0
  0
LINE
  5
163B
  8
0
 10
143.04633652633041
 20
64.763953072375557
 30
0.0
 11
183.62633652633039
 21
64.763953072375557
 31
0.0
  0
LINE
  5
163C
  8
0
 10
183.62633652633039
 20
64.763953072375557
 30
0.0
 11
183.62633652633039
 21
59.696965774275547
 31
0.0
  0
LINE
  5
163D
  8
0
 10
143.04633652633041
 20
48.823587545375567
 30
0.0
 11
183.62633652633039
 21
59.696965774275547
 31
0.0
  0
LINE
  5
1640
  8
0
 10
224.04633652633041
 20
153.4106846482735
 30
0.0
 11
143.04633652633029
 21
153.4106846482735
 31
0.0
  0
LINE
  5
1641
  8
0
 10
143.04633652633029
 20
143.4106846482735
 30
0.0
 11
224.04633652633041
 21
143.4106846482735
 31
0.0
  0
LINE
  5
1643
  8
0
 10
121.8353207076303
 20
154.4106846482735
 30
0.0
 11
95.406336526330335
 21
154.4106846482735
 31
0.0
  0
LINE
  5
1644
  8
0
 10
101.3686534708303
 20
154.4106846482735
 30
0.0
 11
101.3686534708303
 21
158.4106846482735
 31
0.0
  0
LINE
  5
1645
  8
0
 10
95.406336526330335
 20
158.4106846482735
 30
0.0
 11
138.04633652633029
 21
158.4106846482735
 31
0.0
  0
ARC
  5
1646
  8
0
 10
143.04633652633029
 20
158.4106846482735
 30
0.0
 40
5.0000000000000284
 50
180.0
 51
270.0
  0
LINE
  5
1648
  8
0
 10
143.04633652633041
 20
153.4106846482735
 30
0.0
 11
143.04633652633029
 21
143.4106846482735
 31
0.0
  0
ARC
  5
1649
  8
0
 10
143.04633652633029
 20
138.4106846482735
 30
0.0
 40
5.0
 50
90.0
 51
180.0
  0
LINE
  5
164A
  8
0
 10
138.04633652633029
 20
138.4106846482735
 30
0.0
 11
95.406336526330335
 21
138.4106846482735
 31
0.0
  0
LINE
  5
164B
  8
0
 10
101.3686534708303
 20
138.4106846482735
 30
0.0
 11
101.3686534708303
 21
142.4106846482735
 31
0.0
  0
LINE
  5
164C
  8
0
 10
95.406336526330335
 20
142.4106846482735
 30
0.0
 11
121.8353207076303
 21
142.4106846482735
 31
0.0
  0
POLYLINE
  5
164D
  8
0
 10
121.83532070763025
 20
142.41068464825651
 30
-0.0000000000000054
 66
     1
 70
     8
  0
VERTEX
  8
0
  5
1919
 10
121.835
 20
142.411
 30
-5.40000e-015
  70
    32
  0
VERTEX
  8
0
  5
191A
 10
121.854
 20
142.411
 30
-5.39959e-015
  70
    32
  0
VERTEX
  8
0
  5
191B
 10
121.873
 20
142.411
 30
-5.39837e-015
  70
    32
  0
VERTEX
  8
0
  5
191C
 10
121.892
 20
142.412
 30
-5.39634e-015
  70
    32
  0
VERTEX
  8
0
  5
191D
 10
121.912
 20
142.412
 30
-5.39350e-015
  70
    32
  0
VERTEX
  8
0
  5
191E
 10
121.931
 20
142.414
 30
-5.38984e-015
  70
    32
  0
VERTEX
  8
0
  5
191F
 10
121.950
 20
142.415
 30
-5.38537e-015
  70
    32
  0
VERTEX
  8
0
  5
1920
 10
121.969
 20
142.416
 30
-5.38009e-015
  70
    32
  0
VERTEX
  8
0
  5
1921
 10
121.988
 20
142.418
 30
-5.37400e-015
  70
    32
  0
VERTEX
  8
0
  5
1922
 10
122.006
 20
142.420
 30
-5.36710e-015
  70
    32
  0
VERTEX
  8
0
  5
1923
 10
122.025
 20
142.422
 30
-5.35939e-015
  70
    32
  0
VERTEX
  8
0
  5
1924
 10
122.044
 20
142.424
 30
-5.35087e-015
  70
    32
  0
VERTEX
  8
0
  5
1925
 10
122.063
 20
142.427
 30
-5.34155e-015
  70
    32
  0
VERTEX
  8
0
  5
1926
 10
122.082
 20
142.430
 30
-5.33143e-015
  70
    32
  0
VERTEX
  8
0
  5
1927
 10
122.101
 20
142.433
 30
-5.32050e-015
  70
    32
  0
VERTEX
  8
0
  5
1928
 10
122.120
 20
142.436
 30
-5.30877e-015
  70
    32
  0
VERTEX
  8
0
  5
1929
 10
122.138
 20
142.440
 30
-5.29624e-015
  70
    32
  0
VERTEX
  8
0
  5
192A
 10
122.157
 20
142.443
 30
-5.28291e-015
  70
    32
  0
VERTEX
  8
0
  5
192B
 10
122.176
 20
142.447
 30
-5.26879e-015
  70
    32
  0
VERTEX
  8
0
  5
192C
 10
122.194
 20
142.451
 30
-5.25388e-015
  70
    32
  0
VERTEX
  8
0
  5
192D
 10
122.213
 20
142.456
 30
-5.23817e-015
  70
    32
  0
VERTEX
  8
0
  5
192E
 10
122.231
 20
142.460
 30
-5.22167e-015
  70
    32
  0
VERTEX
  8
0
  5
192F
 10
122.250
 20
142.465
 30
-5.20439e-015
  70
    32
  0
VERTEX
  8
0
  5
1930
 10
122.268
 20
142.470
 30
-5.18632e-015
  70
    32
  0
VERTEX
  8
0
  5
1931
 10
122.286
 20
142.475
 30
-5.16748e-015
  70
    32
  0
VERTEX
  8
0
  5
1932
 10
122.304
 20
142.481
 30
-5.14785e-015
  70
    32
  0
VERTEX
  8
0
  5
1933
 10
122.322
 20
142.486
 30
-5.12745e-015
  70
    32
  0
VERTEX
  8
0
  5
1934
 10
122.340
 20
142.492
 30
-5.10628e-015
  70
    32
  0
VERTEX
  8
0
  5
1935
 10
122.358
 20
142.498
 30
-5.08434e-015
  70
    32
  0
VERTEX
  8
0
  5
1936
 10
122.376
 20
142.505
 30
-5.06163e-015
  70
    32
  0
VERTEX
  8
0
  5
1937
 10
122.394
 20
142.511
 30
-5.03816e-015
  70
    32
  0
VERTEX
  8
0
  5
1938
 10
122.412
 20
142.518
 30
-5.01393e-015
  70
    32
  0
VERTEX
  8
0
  5
1939
 10
122.430
 20
142.525
 30
-4.98895e-015
  70
    32
  0
VERTEX
  8
0
  5
193A
 10
122.447
 20
142.532
 30
-4.96321e-015
  70
    32
  0
VERTEX
  8
0
  5
193B
 10
122.465
 20
142.539
 30
-4.93673e-015
  70
    32
  0
VERTEX
  8
0
  5
193C
 10
122.482
 20
142.547
 30
-4.90951e-015
  70
    32
  0
VERTEX
  8
0
  5
193D
 10
122.499
 20
142.555
 30
-4.88154e-015
  70
    32
  0
VERTEX
  8
0
  5
193E
 10
122.516
 20
142.563
 30
-4.85284e-015
  70
    32
  0
VERTEX
  8
0
  5
193F
 10
122.534
 20
142.571
 30
-4.82341e-015
  70
    32
  0
VERTEX
  8
0
  5
1940
 10
122.550
 20
142.579
 30
-4.79325e-015
  70
    32
  0
VERTEX
  8
0
  5
1941
 10
122.567
 20
142.588
 30
-4.76237e-015
  70
    32
  0
VERTEX
  8
0
  5
1942
 10
122.584
 20
142.597
 30
-4.73078e-015
  70
    32
  0
VERTEX
  8
0
  5
1943
 10
122.601
 20
142.606
 30
-4.69847e-015
  70
    32
  0
VERTEX
  8
0
  5
1944
 10
122.617
 20
142.615
 30
-4.66545e-015
  70
    32
  0
VERTEX
  8
0
  5
1945
 10
122.634
 20
142.624
 30
-4.63173e-015
  70
    32
  0
VERTEX
  8
0
  5
1946
 10
122.650
 20
142.634
 30
-4.59732e-015
  70
    32
  0
VERTEX
  8
0
  5
1947
 10
122.666
 20
142.643
 30
-4.56221e-015
  70
    32
  0
VERTEX
  8
0
  5
1948
 10
122.682
 20
142.653
 30
-4.52641e-015
  70
    32
  0
VERTEX
  8
0
  5
1949
 10
122.698
 20
142.663
 30
-4.48994e-015
  70
    32
  0
VERTEX
  8
0
  5
194A
 10
122.714
 20
142.674
 30
-4.45278e-015
  70
    32
  0
VERTEX
  8
0
  5
194B
 10
122.730
 20
142.684
 30
-4.41496e-015
  70
    32
  0
VERTEX
  8
0
  5
194C
 10
122.745
 20
142.695
 30
-4.37647e-015
  70
    32
  0
VERTEX
  8
0
  5
194D
 10
122.760
 20
142.706
 30
-4.33732e-015
  70
    32
  0
VERTEX
  8
0
  5
194E
 10
122.776
 20
142.717
 30
-4.29752e-015
  70
    32
  0
VERTEX
  8
0
  5
194F
 10
122.791
 20
142.728
 30
-4.25707e-015
  70
    32
  0
VERTEX
  8
0
  5
1950
 10
122.806
 20
142.740
 30
-4.21598e-015
  70
    32
  0
VERTEX
  8
0
  5
1951
 10
122.820
 20
142.751
 30
-4.17426e-015
  70
    32
  0
VERTEX
  8
0
  5
1952
 10
122.835
 20
142.763
 30
-4.13190e-015
  70
    32
  0
VERTEX
  8
0
  5
1953
 10
122.850
 20
142.775
 30
-4.08893e-015
  70
    32
  0
VERTEX
  8
0
  5
1954
 10
122.864
 20
142.787
 30
-4.04534e-015
  70
    32
  0
VERTEX
  8
0
  5
1955
 10
122.878
 20
142.799
 30
-4.00114e-015
  70
    32
  0
VERTEX
  8
0
  5
1956
 10
122.892
 20
142.812
 30
-3.95633e-015
  70
    32
  0
VERTEX
  8
0
  5
1957
 10
122.906
 20
142.824
 30
-3.91093e-015
  70
    32
  0
VERTEX
  8
0
  5
1958
 10
122.920
 20
142.837
 30
-3.86495e-015
  70
    32
  0
VERTEX
  8
0
  5
1959
 10
122.933
 20
142.850
 30
-3.81838e-015
  70
    32
  0
VERTEX
  8
0
  5
195A
 10
122.947
 20
142.863
 30
-3.77123e-015
  70
    32
  0
VERTEX
  8
0
  5
195B
 10
122.960
 20
142.876
 30
-3.72352e-015
  70
    32
  0
VERTEX
  8
0
  5
195C
 10
122.973
 20
142.890
 30
-3.67525e-015
  70
    32
  0
VERTEX
  8
0
  5
195D
 10
122.986
 20
142.903
 30
-3.62642e-015
  70
    32
  0
VERTEX
  8
0
  5
195E
 10
122.999
 20
142.917
 30
-3.57705e-015
  70
    32
  0
VERTEX
  8
0
  5
195F
 10
123.011
 20
142.931
 30
-3.52713e-015
  70
    32
  0
VERTEX
  8
0
  5
1960
 10
123.024
 20
142.945
 30
-3.47669e-015
  70
    32
  0
VERTEX
  8
0
  5
1961
 10
123.036
 20
142.959
 30
-3.42572e-015
  70
    32
  0
VERTEX
  8
0
  5
1962
 10
123.048
 20
142.973
 30
-3.37424e-015
  70
    32
  0
VERTEX
  8
0
  5
1963
 10
123.060
 20
142.988
 30
-3.32225e-015
  70
    32
  0
VERTEX
  8
0
  5
1964
 10
123.071
 20
143.002
 30
-3.26976e-015
  70
    32
  0
VERTEX
  8
0
  5
1965
 10
123.083
 20
143.017
 30
-3.21678e-015
  70
    32
  0
VERTEX
  8
0
  5
1966
 10
123.094
 20
143.032
 30
-3.16331e-015
  70
    32
  0
VERTEX
  8
0
  5
1967
 10
123.105
 20
143.047
 30
-3.10936e-015
  70
    32
  0
VERTEX
  8
0
  5
1968
 10
123.116
 20
143.062
 30
-3.05495e-015
  70
    32
  0
VERTEX
  8
0
  5
1969
 10
123.127
 20
143.077
 30
-3.00008e-015
  70
    32
  0
VERTEX
  8
0
  5
196A
 10
123.137
 20
143.093
 30
-2.94475e-015
  70
    32
  0
VERTEX
  8
0
  5
196B
 10
123.147
 20
143.108
 30
-2.88899e-015
  70
    32
  0
VERTEX
  8
0
  5
196C
 10
123.157
 20
143.124
 30
-2.83278e-015
  70
    32
  0
VERTEX
  8
0
  5
196D
 10
123.167
 20
143.140
 30
-2.77615e-015
  70
    32
  0
VERTEX
  8
0
  5
196E
 10
123.177
 20
143.155
 30
-2.71911e-015
  70
    32
  0
VERTEX
  8
0
  5
196F
 10
123.186
 20
143.171
 30
-2.66165e-015
  70
    32
  0
VERTEX
  8
0
  5
1970
 10
123.196
 20
143.187
 30
-2.60379e-015
  70
    32
  0
VERTEX
  8
0
  5
1971
 10
123.205
 20
143.204
 30
-2.54554e-015
  70
    32
  0
VERTEX
  8
0
  5
1972
 10
123.214
 20
143.220
 30
-2.48691e-015
  70
    32
  0
VERTEX
  8
0
  5
1973
 10
123.222
 20
143.236
 30
-2.42790e-015
  70
    32
  0
VERTEX
  8
0
  5
1974
 10
123.231
 20
143.253
 30
-2.36853e-015
  70
    32
  0
VERTEX
  8
0
  5
1975
 10
123.239
 20
143.269
 30
-2.30880e-015
  70
    32
  0
VERTEX
  8
0
  5
1976
 10
123.247
 20
143.286
 30
-2.24872e-015
  70
    32
  0
VERTEX
  8
0
  5
1977
 10
123.255
 20
143.303
 30
-2.18830e-015
  70
    32
  0
VERTEX
  8
0
  5
1978
 10
123.263
 20
143.320
 30
-2.12756e-015
  70
    32
  0
VERTEX
  8
0
  5
1979
 10
123.270
 20
143.337
 30
-2.06649e-015
  70
    32
  0
VERTEX
  8
0
  5
197A
 10
123.277
 20
143.354
 30
-2.00511e-015
  70
    32
  0
VERTEX
  8
0
  5
197B
 10
123.284
 20
143.371
 30
-1.94343e-015
  70
    32
  0
VERTEX
  8
0
  5
197C
 10
123.291
 20
143.388
 30
-1.88146e-015
  70
    32
  0
VERTEX
  8
0
  5
197D
 10
123.297
 20
143.405
 30
-1.81921e-015
  70
    32
  0
VERTEX
  8
0
  5
197E
 10
123.304
 20
143.423
 30
-1.75668e-015
  70
    32
  0
VERTEX
  8
0
  5
197F
 10
123.310
 20
143.440
 30
-1.69388e-015
  70
    32
  0
VERTEX
  8
0
  5
1980
 10
123.316
 20
143.458
 30
-1.63083e-015
  70
    32
  0
VERTEX
  8
0
  5
1981
 10
123.321
 20
143.475
 30
-1.56754e-015
  70
    32
  0
VERTEX
  8
0
  5
1982
 10
123.327
 20
143.493
 30
-1.50401e-015
  70
    32
  0
VERTEX
  8
0
  5
1983
 10
123.332
 20
143.511
 30
-1.44025e-015
  70
    32
  0
VERTEX
  8
0
  5
1984
 10
123.337
 20
143.528
 30
-1.37627e-015
  70
    32
  0
VERTEX
  8
0
  5
1985
 10
123.342
 20
143.546
 30
-1.31209e-015
  70
    32
  0
VERTEX
  8
0
  5
1986
 10
123.346
 20
143.564
 30
-1.24771e-015
  70
    32
  0
VERTEX
  8
0
  5
1987
 10
123.351
 20
143.582
 30
-1.18315e-015
  70
    32
  0
VERTEX
  8
0
  5
1988
 10
123.355
 20
143.600
 30
-1.11840e-015
  70
    32
  0
VERTEX
  8
0
  5
1989
 10
123.358
 20
143.618
 30
-1.05349e-015
  70
    32
  0
VERTEX
  8
0
  5
198A
 10
123.362
 20
143.636
 30
-9.88415e-016
  70
    32
  0
VERTEX
  8
0
  5
198B
 10
123.365
 20
143.654
 30
-9.23194e-016
  70
    32
  0
VERTEX
  8
0
  5
198C
 10
123.369
 20
143.672
 30
-8.57834e-016
  70
    32
  0
VERTEX
  8
0
  5
198D
 10
123.371
 20
143.691
 30
-7.92345e-016
  70
    32
  0
VERTEX
  8
0
  5
198E
 10
123.374
 20
143.709
 30
-7.26736e-016
  70
    32
  0
VERTEX
  8
0
  5
198F
 10
123.377
 20
143.727
 30
-6.61018e-016
  70
    32
  0
VERTEX
  8
0
  5
1990
 10
123.379
 20
143.745
 30
-5.95200e-016
  70
    32
  0
VERTEX
  8
0
  5
1991
 10
123.381
 20
143.764
 30
-5.29293e-016
  70
    32
  0
VERTEX
  8
0
  5
1992
 10
123.383
 20
143.782
 30
-4.63305e-016
  70
    32
  0
VERTEX
  8
0
  5
1993
 10
123.384
 20
143.800
 30
-3.97249e-016
  70
    32
  0
VERTEX
  8
0
  5
1994
 10
123.385
 20
143.819
 30
-3.31132e-016
  70
    32
  0
VERTEX
  8
0
  5
1995
 10
123.386
 20
143.837
 30
-2.64965e-016
  70
    32
  0
VERTEX
  8
0
  5
1996
 10
123.387
 20
143.855
 30
-1.98759e-016
  70
    32
  0
VERTEX
  8
0
  5
1997
 10
123.388
 20
143.874
 30
-1.32523e-016
  70
    32
  0
VERTEX
  8
0
  5
1998
 10
123.388
 20
143.892
 30
-6.62663e-017
  70
    32
  0
VERTEX
  8
0
  5
1999
 10
123.388
 20
143.911
 30
1.07252e-028
  70
    32
  0
SEQEND
  8
0
  5
199A
  0
LINE
  5
164E
  8
0
 10
123.3882349783303
 20
143.9106846482735
 30
0.0
 11
123.3882349783303
 21
152.9106846482735
 31
0.0
  0
POLYLINE
  5
164F
  8
0
 10
123.38823497824544
 20
152.91068464827353
 30
0.0
 66
     1
 70
     8
  0
VERTEX
  8
0
  5
199B
 10
123.388
 20
152.911
 30
9.52620e-029
  70
    32
  0
VERTEX
  8
0
  5
199C
 10
123.388
 20
152.929
 30
6.62663e-017
  70
    32
  0
VERTEX
  8
0
  5
199D
 10
123.388
 20
152.947
 30
1.32523e-016
  70
    32
  0
VERTEX
  8
0
  5
199E
 10
123.387
 20
152.966
 30
1.98759e-016
  70
    32
  0
VERTEX
  8
0
  5
199F
 10
123.386
 20
152.984
 30
2.64965e-016
  70
    32
  0
VERTEX
  8
0
  5
19A0
 10
123.385
 20
153.003
 30
3.31132e-016
  70
    32
  0
VERTEX
  8
0
  5
19A1
 10
123.384
 20
153.021
 30
3.97249e-016
  70
    32
  0
VERTEX
  8
0
  5
19A2
 10
123.383
 20
153.039
 30
4.63305e-016
  70
    32
  0
VERTEX
  8
0
  5
19A3
 10
123.381
 20
153.058
 30
5.29293e-016
  70
    32
  0
VERTEX
  8
0
  5
19A4
 10
123.379
 20
153.076
 30
5.95200e-016
  70
    32
  0
VERTEX
  8
0
  5
19A5
 10
123.377
 20
153.094
 30
6.61018e-016
  70
    32
  0
VERTEX
  8
0
  5
19A6
 10
123.374
 20
153.113
 30
7.26736e-016
  70
    32
  0
VERTEX
  8
0
  5
19A7
 10
123.371
 20
153.131
 30
7.92345e-016
  70
    32
  0
VERTEX
  8
0
  5
19A8
 10
123.369
 20
153.149
 30
8.57834e-016
  70
    32
  0
VERTEX
  8
0
  5
19A9
 10
123.365
 20
153.167
 30
9.23194e-016
  70
    32
  0
VERTEX
  8
0
  5
19AA
 10
123.362
 20
153.185
 30
9.88415e-016
  70
    32
  0
VERTEX
  8
0
  5
19AB
 10
123.358
 20
153.203
 30
1.05349e-015
  70
    32
  0
VERTEX
  8
0
  5
19AC
 10
123.355
 20
153.221
 30
1.11840e-015
  70
    32
  0
VERTEX
  8
0
  5
19AD
 10
123.351
 20
153.239
 30
1.18315e-015
  70
    32
  0
VERTEX
  8
0
  5
19AE
 10
123.346
 20
153.257
 30
1.24771e-015
  70
    32
  0
VERTEX
  8
0
  5
19AF
 10
123.342
 20
153.275
 30
1.31209e-015
  70
    32
  0
VERTEX
  8
0
  5
19B0
 10
123.337
 20
153.293
 30
1.37627e-015
  70
    32
  0
VERTEX
  8
0
  5
19B1
 10
123.332
 20
153.311
 30
1.44025e-015
  70
    32
  0
VERTEX
  8
0
  5
19B2
 10
123.327
 20
153.328
 30
1.50401e-015
  70
    32
  0
VERTEX
  8
0
  5
19B3
 10
123.321
 20
153.346
 30
1.56754e-015
  70
    32
  0
VERTEX
  8
0
  5
19B4
 10
123.316
 20
153.364
 30
1.63083e-015
  70
    32
  0
VERTEX
  8
0
  5
19B5
 10
123.310
 20
153.381
 30
1.69388e-015
  70
    32
  0
VERTEX
  8
0
  5
19B6
 10
123.304
 20
153.399
 30
1.75668e-015
  70
    32
  0
VERTEX
  8
0
  5
19B7
 10
123.297
 20
153.416
 30
1.81921e-015
  70
    32
  0
VERTEX
  8
0
  5
19B8
 10
123.291
 20
153.433
 30
1.88146e-015
  70
    32
  0
VERTEX
  8
0
  5
19B9
 10
123.284
 20
153.451
 30
1.94343e-015
  70
    32
  0
VERTEX
  8
0
  5
19BA
 10
123.277
 20
153.468
 30
2.00511e-015
  70
    32
  0
VERTEX
  8
0
  5
19BB
 10
123.270
 20
153.485
 30
2.06649e-015
  70
    32
  0
VERTEX
  8
0
  5
19BC
 10
123.263
 20
153.502
 30
2.12756e-015
  70
    32
  0
VERTEX
  8
0
  5
19BD
 10
123.255
 20
153.519
 30
2.18830e-015
  70
    32
  0
VERTEX
  8
0
  5
19BE
 10
123.247
 20
153.535
 30
2.24872e-015
  70
    32
  0
VERTEX
  8
0
  5
19BF
 10
123.239
 20
153.552
 30
2.30880e-015
  70
    32
  0
VERTEX
  8
0
  5
19C0
 10
123.231
 20
153.569
 30
2.36853e-015
  70
    32
  0
VERTEX
  8
0
  5
19C1
 10
123.222
 20
153.585
 30
2.42790e-015
  70
    32
  0
VERTEX
  8
0
  5
19C2
 10
123.214
 20
153.601
 30
2.48691e-015
  70
    32
  0
VERTEX
  8
0
  5
19C3
 10
123.205
 20
153.618
 30
2.54554e-015
  70
    32
  0
VERTEX
  8
0
  5
19C4
 10
123.196
 20
153.634
 30
2.60379e-015
  70
    32
  0
VERTEX
  8
0
  5
19C5
 10
123.186
 20
153.650
 30
2.66165e-015
  70
    32
  0
VERTEX
  8
0
  5
19C6
 10
123.177
 20
153.666
 30
2.71911e-015
  70
    32
  0
VERTEX
  8
0
  5
19C7
 10
123.167
 20
153.682
 30
2.77615e-015
  70
    32
  0
VERTEX
  8
0
  5
19C8
 10
123.157
 20
153.698
 30
2.83278e-015
  70
    32
  0
VERTEX
  8
0
  5
19C9
 10
123.147
 20
153.713
 30
2.88899e-015
  70
    32
  0
VERTEX
  8
0
  5
19CA
 10
123.137
 20
153.729
 30
2.94475e-015
  70
    32
  0
VERTEX
  8
0
  5
19CB
 10
123.127
 20
153.744
 30
3.00008e-015
  70
    32
  0
VERTEX
  8
0
  5
19CC
 10
123.116
 20
153.759
 30
3.05495e-015
  70
    32
  0
VERTEX
  8
0
  5
19CD
 10
123.105
 20
153.774
 30
3.10936e-015
  70
    32
  0
VERTEX
  8
0
  5
19CE
 10
123.094
 20
153.789
 30
3.16331e-015
  70
    32
  0
VERTEX
  8
0
  5
19CF
 10
123.083
 20
153.804
 30
3.21678e-015
  70
    32
  0
VERTEX
  8
0
  5
19D0
 10
123.071
 20
153.819
 30
3.26976e-015
  70
    32
  0
VERTEX
  8
0
  5
19D1
 10
123.060
 20
153.834
 30
3.32225e-015
  70
    32
  0
VERTEX
  8
0
  5
19D2
 10
123.048
 20
153.848
 30
3.37424e-015
  70
    32
  0
VERTEX
  8
0
  5
19D3
 10
123.036
 20
153.862
 30
3.42572e-015
  70
    32
  0
VERTEX
  8
0
  5
19D4
 10
123.024
 20
153.876
 30
3.47669e-015
  70
    32
  0
VERTEX
  8
0
  5
19D5
 10
123.011
 20
153.890
 30
3.52713e-015
  70
    32
  0
VERTEX
  8
0
  5
19D6
 10
122.999
 20
153.904
 30
3.57705e-015
  70
    32
  0
VERTEX
  8
0
  5
19D7
 10
122.986
 20
153.918
 30
3.62642e-015
  70
    32
  0
VERTEX
  8
0
  5
19D8
 10
122.973
 20
153.932
 30
3.67525e-015
  70
    32
  0
VERTEX
  8
0
  5
19D9
 10
122.960
 20
153.945
 30
3.72352e-015
  70
    32
  0
VERTEX
  8
0
  5
19DA
 10
122.947
 20
153.958
 30
3.77123e-015
  70
    32
  0
VERTEX
  8
0
  5
19DB
 10
122.933
 20
153.971
 30
3.81838e-015
  70
    32
  0
VERTEX
  8
0
  5
19DC
 10
122.920
 20
153.984
 30
3.86495e-015
  70
    32
  0
VERTEX
  8
0
  5
19DD
 10
122.906
 20
153.997
 30
3.91093e-015
  70
    32
  0
VERTEX
  8
0
  5
19DE
 10
122.892
 20
154.010
 30
3.95633e-015
  70
    32
  0
VERTEX
  8
0
  5
19DF
 10
122.878
 20
154.022
 30
4.00114e-015
  70
    32
  0
VERTEX
  8
0
  5
19E0
 10
122.864
 20
154.034
 30
4.04534e-015
  70
    32
  0
VERTEX
  8
0
  5
19E1
 10
122.850
 20
154.046
 30
4.08893e-015
  70
    32
  0
VERTEX
  8
0
  5
19E2
 10
122.835
 20
154.058
 30
4.13190e-015
  70
    32
  0
VERTEX
  8
0
  5
19E3
 10
122.820
 20
154.070
 30
4.17426e-015
  70
    32
  0
VERTEX
  8
0
  5
19E4
 10
122.806
 20
154.082
 30
4.21598e-015
  70
    32
  0
VERTEX
  8
0
  5
19E5
 10
122.791
 20
154.093
 30
4.25707e-015
  70
    32
  0
VERTEX
  8
0
  5
19E6
 10
122.776
 20
154.104
 30
4.29752e-015
  70
    32
  0
VERTEX
  8
0
  5
19E7
 10
122.760
 20
154.115
 30
4.33732e-015
  70
    32
  0
VERTEX
  8
0
  5
19E8
 10
122.745
 20
154.126
 30
4.37647e-015
  70
    32
  0
VERTEX
  8
0
  5
19E9
 10
122.730
 20
154.137
 30
4.41496e-015
  70
    32
  0
VERTEX
  8
0
  5
19EA
 10
122.714
 20
154.148
 30
4.45278e-015
  70
    32
  0
VERTEX
  8
0
  5
19EB
 10
122.698
 20
154.158
 30
4.48994e-015
  70
    32
  0
VERTEX
  8
0
  5
19EC
 10
122.682
 20
154.168
 30
4.52641e-015
  70
    32
  0
VERTEX
  8
0
  5
19ED
 10
122.666
 20
154.178
 30
4.56221e-015
  70
    32
  0
VERTEX
  8
0
  5
19EE
 10
122.650
 20
154.188
 30
4.59732e-015
  70
    32
  0
VERTEX
  8
0
  5
19EF
 10
122.634
 20
154.197
 30
4.63173e-015
  70
    32
  0
VERTEX
  8
0
  5
19F0
 10
122.617
 20
154.207
 30
4.66545e-015
  70
    32
  0
VERTEX
  8
0
  5
19F1
 10
122.601
 20
154.216
 30
4.69847e-015
  70
    32
  0
VERTEX
  8
0
  5
19F2
 10
122.584
 20
154.225
 30
4.73078e-015
  70
    32
  0
VERTEX
  8
0
  5
19F3
 10
122.567
 20
154.234
 30
4.76237e-015
  70
    32
  0
VERTEX
  8
0
  5
19F4
 10
122.550
 20
154.242
 30
4.79325e-015
  70
    32
  0
VERTEX
  8
0
  5
19F5
 10
122.534
 20
154.251
 30
4.82341e-015
  70
    32
  0
VERTEX
  8
0
  5
19F6
 10
122.516
 20
154.259
 30
4.85284e-015
  70
    32
  0
VERTEX
  8
0
  5
19F7
 10
122.499
 20
154.267
 30
4.88154e-015
  70
    32
  0
VERTEX
  8
0
  5
19F8
 10
122.482
 20
154.274
 30
4.90951e-015
  70
    32
  0
VERTEX
  8
0
  5
19F9
 10
122.465
 20
154.282
 30
4.93673e-015
  70
    32
  0
VERTEX
  8
0
  5
19FA
 10
122.447
 20
154.289
 30
4.96321e-015
  70
    32
  0
VERTEX
  8
0
  5
19FB
 10
122.430
 20
154.297
 30
4.98895e-015
  70
    32
  0
VERTEX
  8
0
  5
19FC
 10
122.412
 20
154.303
 30
5.01393e-015
  70
    32
  0
VERTEX
  8
0
  5
19FD
 10
122.394
 20
154.310
 30
5.03816e-015
  70
    32
  0
VERTEX
  8
0
  5
19FE
 10
122.376
 20
154.317
 30
5.06163e-015
  70
    32
  0
VERTEX
  8
0
  5
19FF
 10
122.358
 20
154.323
 30
5.08434e-015
  70
    32
  0
VERTEX
  8
0
  5
1A00
 10
122.340
 20
154.329
 30
5.10628e-015
  70
    32
  0
VERTEX
  8
0
  5
1A01
 10
122.322
 20
154.335
 30
5.12745e-015
  70
    32
  0
VERTEX
  8
0
  5
1A02
 10
122.304
 20
154.341
 30
5.14785e-015
  70
    32
  0
VERTEX
  8
0
  5
1A03
 10
122.286
 20
154.346
 30
5.16748e-015
  70
    32
  0
VERTEX
  8
0
  5
1A04
 10
122.268
 20
154.351
 30
5.18632e-015
  70
    32
  0
VERTEX
  8
0
  5
1A05
 10
122.250
 20
154.356
 30
5.20439e-015
  70
    32
  0
VERTEX
  8
0
  5
1A06
 10
122.231
 20
154.361
 30
5.22167e-015
  70
    32
  0
VERTEX
  8
0
  5
1A07
 10
122.213
 20
154.366
 30
5.23817e-015
  70
    32
  0
VERTEX
  8
0
  5
1A08
 10
122.194
 20
154.370
 30
5.25388e-015
  70
    32
  0
VERTEX
  8
0
  5
1A09
 10
122.176
 20
154.374
 30
5.26879e-015
  70
    32
  0
VERTEX
  8
0
  5
1A0A
 10
122.157
 20
154.378
 30
5.28291e-015
  70
    32
  0
VERTEX
  8
0
  5
1A0B
 10
122.138
 20
154.382
 30
5.29624e-015
  70
    32
  0
VERTEX
  8
0
  5
1A0C
 10
122.120
 20
154.385
 30
5.30877e-015
  70
    32
  0
VERTEX
  8
0
  5
1A0D
 10
122.101
 20
154.389
 30
5.32050e-015
  70
    32
  0
VERTEX
  8
0
  5
1A0E
 10
122.082
 20
154.392
 30
5.33143e-015
  70
    32
  0
VERTEX
  8
0
  5
1A0F
 10
122.063
 20
154.394
 30
5.34155e-015
  70
    32
  0
VERTEX
  8
0
  5
1A10
 10
122.044
 20
154.397
 30
5.35087e-015
  70
    32
  0
VERTEX
  8
0
  5
1A11
 10
122.025
 20
154.399
 30
5.35939e-015
  70
    32
  0
VERTEX
  8
0
  5
1A12
 10
122.006
 20
154.402
 30
5.36710e-015
  70
    32
  0
VERTEX
  8
0
  5
1A13
 10
121.988
 20
154.403
 30
5.37400e-015
  70
    32
  0
VERTEX
  8
0
  5
1A14
 10
121.969
 20
154.405
 30
5.38009e-015
  70
    32
  0
VERTEX
  8
0
  5
1A15
 10
121.950
 20
154.407
 30
5.38537e-015
  70
    32
  0
VERTEX
  8
0
  5
1A16
 10
121.931
 20
154.408
 30
5.38984e-015
  70
    32
  0
VERTEX
  8
0
  5
1A17
 10
121.912
 20
154.409
 30
5.39350e-015
  70
    32
  0
VERTEX
  8
0
  5
1A18
 10
121.892
 20
154.410
 30
5.39634e-015
  70
    32
  0
VERTEX
  8
0
  5
1A19
 10
121.873
 20
154.410
 30
5.39837e-015
  70
    32
  0
VERTEX
  8
0
  5
1A1A
 10
121.854
 20
154.411
 30
5.39959e-015
  70
    32
  0
VERTEX
  8
0
  5
1A1B
 10
121.835
 20
154.411
 30
5.40000e-015
  70
    32
  0
SEQEND
  8
0
  5
1A1C
  0
LINE
  5
1651
  8
0
 10
95.406336526330335
 20
158.4106846482735
 30
0.0
 11
95.406336526330335
 21
154.4106846482735
 31
0.0
  0
LINE
  5
1657
  8
0
 10
95.406336526330335
 20
142.4106846482735
 30
0.0
 11
95.406336526330335
 21
138.4106846482735
 31
0.0
  0
ARC
  5
1664
  8
2
 10
129.59726161133031
 20
152.99932931967351
 30
0.0
 40
1.4224025356157139
 50
356.42698967720082
 51
82.854475718699774
  0
ARC
  5
1666
  8
2
 10
129.6432312979303
 20
143.7839554656735
 30
0.0
 40
1.3795013578701061
 50
275.44757250409941
 51
5.2709621001001903
  0
LINE
  5
1667
  8
2
 10
131.01689927483031
 20
143.9106846482735
 30
0.0
 11
131.01689927483031
 21
152.9106846482735
 31
0.0
  0
LINE
  5
1669
  8
2
 10
129.77419411143029
 20
154.4106846482735
 30
0.0
 11
121.8353207076303
 21
154.4106846482735
 31
0.0
  0
LINE
  5
166A
  8
2
 10
121.8353207076303
 20
142.4106846482735
 30
0.0
 11
129.77419411143029
 21
142.4106846482735
 31
0.0
  0
LINE
  5
167F
  8
0
 10
326.69306810222838
 20
35.013953072375578
 30
0.0
 11
330.69306810222838
 21
35.013953072375578
 31
0.0
  0
LINE
  5
1680
  8
0
 10
310.69306810222838
 20
35.013953072375578
 30
0.0
 11
314.69306810222849
 21
35.013953072375578
 31
0.0
  0
POLYLINE
  5
1681
  8
0
 10
313.29092001321294
 20
47.6788715445213
 30
0.0
 66
     1
 70
     8
  0
VERTEX
  8
0
  5
1A1D
 10
313.291
 20
47.6789
 30
0.000000
  70
    32
  0
VERTEX
  8
0
  5
1A1E
 10
313.325
 20
47.6845
 30
0.000000
  70
    32
  0
VERTEX
  8
0
  5
1A1F
 10
313.359
 20
47.6902
 30
0.000000
  70
    32
  0
VERTEX
  8
0
  5
1A20
 10
313.393
 20
47.6959
 30
0.000000
  70
    32
  0
VERTEX
  8
0
  5
1A21
 10
313.426
 20
47.7017
 30
0.000000
  70
    32
  0
VERTEX
  8
0
  5
1A22
 10
313.460
 20
47.7076
 30
0.000000
  70
    32
  0
VERTEX
  8
0
  5
1A23
 10
313.493
 20
47.7136
 30
0.000000
  70
    32
  0
VERTEX
  8
0
  5
1A24
 10
313.526
 20
47.7196
 30
0.000000
  70
    32
  0
VERTEX
  8
0
  5
1A25
 10
313.559
 20
47.7258
 30
0.000000
  70
    32
  0
VERTEX
  8
0
  5
1A26
 10
313.592
 20
47.7319
 30
0.000000
  70
    32
  0
VERTEX
  8
0
  5
1A27
 10
313.624
 20
47.7382
 30
0.000000
  70
    32
  0
VERTEX
  8
0
  5
1A28
 10
313.656
 20
47.7445
 30
0.000000
  70
    32
  0
VERTEX
  8
0
  5
1A29
 10
313.689
 20
47.7509
 30
0.000000
  70
    32
  0
VERTEX
  8
0
  5
1A2A
 10
313.721
 20
47.7574
 30
0.000000
  70
    32
  0
VERTEX
  8
0
  5
1A2B
 10
313.752
 20
47.7639
 30
0.000000
  70
    32
  0
VERTEX
  8
0
  5
1A2C
 10
313.784
 20
47.7705
 30
0.000000
  70
    32
  0
VERTEX
  8
0
  5
1A2D
 10
313.815
 20
47.7771
 30
0.000000
  70
    32
  0
VERTEX
  8
0
  5
1A2E
 10
313.846
 20
47.7839
 30
0.000000
  70
    32
  0
VERTEX
  8
0
  5
1A2F
 10
313.877
 20
47.7907
 30
0.000000
  70
    32
  0
VERTEX
  8
0
  5
1A30
 10
313.908
 20
47.7975
 30
0.000000
  70
    32
  0
VERTEX
  8
0
  5
1A31
 10
313.939
 20
47.8045
 30
0.000000
  70
    32
  0
VERTEX
  8
0
  5
1A32
 10
313.969
 20
47.8114
 30
0.000000
  70
    32
  0
VERTEX
  8
0
  5
1A33
 10
313.999
 20
47.8185
 30
0.000000
  70
    32
  0
VERTEX
  8
0
  5
1A34
 10
314.029
 20
47.8256
 30
0.000000
  70
    32
  0
VERTEX
  8
0
  5
1A35
 10
314.059
 20
47.8328
 30
0.000000
  70
    32
  0
VERTEX
  8
0
  5
1A36
 10
314.088
 20
47.8401
 30
0.000000
  70
    32
  0
VERTEX
  8
0
  5
1A37
 10
314.117
 20
47.8474
 30
0.000000
  70
    32
  0
VERTEX
  8
0
  5
1A38
 10
314.147
 20
47.8547
 30
0.000000
  70
    32
  0
VERTEX
  8
0
  5
1A39
 10
314.175
 20
47.8622
 30
0.000000
  70
    32
  0
VERTEX
  8
0
  5
1A3A
 10
314.204
 20
47.8697
 30
0.000000
  70
    32
  0
VERTEX
  8
0
  5
1A3B
 10
314.232
 20
47.8772
 30
0.000000
  70
    32
  0
VERTEX
  8
0
  5
1A3C
 10
314.260
 20
47.8849
 30
0.000000
  70
    32
  0
VERTEX
  8
0
  5
1A3D
 10
314.288
 20
47.8925
 30
0.000000
  70
    32
  0
VERTEX
  8
0
  5
1A3E
 10
314.316
 20
47.9003
 30
0.000000
  70
    32
  0
VERTEX
  8
0
  5
1A3F
 10
314.344
 20
47.9081
 30
0.000000
  70
    32
  0
VERTEX
  8
0
  5
1A40
 10
314.371
 20
47.9159
 30
0.000000
  70
    32
  0
VERTEX
  8
0
  5
1A41
 10
314.398
 20
47.9239
 30
0.000000
  70
    32
  0
VERTEX
  8
0
  5
1A42
 10
314.425
 20
47.9318
 30
0.000000
  70
    32
  0
VERTEX
  8
0
  5
1A43
 10
314.451
 20
47.9399
 30
0.000000
  70
    32
  0
VERTEX
  8
0
  5
1A44
 10
314.477
 20
47.9479
 30
0.000000
  70
    32
  0
VERTEX
  8
0
  5
1A45
 10
314.503
 20
47.9561
 30
0.000000
  70
    32
  0
VERTEX
  8
0
  5
1A46
 10
314.529
 20
47.9643
 30
0.000000
  70
    32
  0
VERTEX
  8
0
  5
1A47
 10
314.555
 20
47.9725
 30
0.000000
  70
    32
  0
VERTEX
  8
0
  5
1A48
 10
314.580
 20
47.9809
 30
0.000000
  70
    32
  0
VERTEX
  8
0
  5
1A49
 10
314.605
 20
47.9892
 30
0.000000
  70
    32
  0
VERTEX
  8
0
  5
1A4A
 10
314.630
 20
47.9976
 30
0.000000
  70
    32
  0
VERTEX
  8
0
  5
1A4B
 10
314.654
 20
48.0061
 30
0.000000
  70
    32
  0
VERTEX
  8
0
  5
1A4C
 10
314.679
 20
48.0146
 30
0.000000
  70
    32
  0
VERTEX
  8
0
  5
1A4D
 10
314.703
 20
48.0232
 30
0.000000
  70
    32
  0
VERTEX
  8
0
  5
1A4E
 10
314.726
 20
48.0318
 30
0.000000
  70
    32
  0
VERTEX
  8
0
  5
1A4F
 10
314.750
 20
48.0405
 30
0.000000
  70
    32
  0
VERTEX
  8
0
  5
1A50
 10
314.773
 20
48.0492
 30
0.000000
  70
    32
  0
VERTEX
  8
0
  5
1A51
 10
314.796
 20
48.0580
 30
0.000000
  70
    32
  0
VERTEX
  8
0
  5
1A52
 10
314.819
 20
48.0668
 30
0.000000
  70
    32
  0
VERTEX
  8
0
  5
1A53
 10
314.841
 20
48.0757
 30
0.000000
  70
    32
  0
VERTEX
  8
0
  5
1A54
 10
314.864
 20
48.0846
 30
0.000000
  70
    32
  0
VERTEX
  8
0
  5
1A55
 10
314.886
 20
48.0936
 30
0.000000
  70
    32
  0
VERTEX
  8
0
  5
1A56
 10
314.907
 20
48.1026
 30
0.000000
  70
    32
  0
VERTEX
  8
0
  5
1A57
 10
314.929
 20
48.1117
 30
0.000000
  70
    32
  0
VERTEX
  8
0
  5
1A58
 10
314.950
 20
48.1208
 30
0.000000
  70
    32
  0
VERTEX
  8
0
  5
1A59
 10
314.971
 20
48.1299
 30
0.000000
  70
    32
  0
VERTEX
  8
0
  5
1A5A
 10
314.991
 20
48.1391
 30
0.000000
  70
    32
  0
VERTEX
  8
0
  5
1A5B
 10
315.012
 20
48.1483
 30
0.000000
  70
    32
  0
VERTEX
  8
0
  5
1A5C
 10
315.032
 20
48.1576
 30
0.000000
  70
    32
  0
VERTEX
  8
0
  5
1A5D
 10
315.051
 20
48.1670
 30
0.000000
  70
    32
  0
VERTEX
  8
0
  5
1A5E
 10
315.071
 20
48.1763
 30
0.000000
  70
    32
  0
VERTEX
  8
0
  5
1A5F
 10
315.090
 20
48.1857
 30
0.000000
  70
    32
  0
VERTEX
  8
0
  5
1A60
 10
315.109
 20
48.1952
 30
0.000000
  70
    32
  0
VERTEX
  8
0
  5
1A61
 10
315.128
 20
48.2047
 30
0.000000
  70
    32
  0
VERTEX
  8
0
  5
1A62
 10
315.146
 20
48.2142
 30
0.000000
  70
    32
  0
VERTEX
  8
0
  5
1A63
 10
315.164
 20
48.2238
 30
0.000000
  70
    32
  0
VERTEX
  8
0
  5
1A64
 10
315.182
 20
48.2334
 30
0.000000
  70
    32
  0
VERTEX
  8
0
  5
1A65
 10
315.199
 20
48.2430
 30
0.000000
  70
    32
  0
VERTEX
  8
0
  5
1A66
 10
315.216
 20
48.2527
 30
0.000000
  70
    32
  0
VERTEX
  8
0
  5
1A67
 10
315.233
 20
48.2624
 30
0.000000
  70
    32
  0
VERTEX
  8
0
  5
1A68
 10
315.250
 20
48.2722
 30
0.000000
  70
    32
  0
VERTEX
  8
0
  5
1A69
 10
315.266
 20
48.2820
 30
0.000000
  70
    32
  0
VERTEX
  8
0
  5
1A6A
 10
315.282
 20
48.2918
 30
0.000000
  70
    32
  0
VERTEX
  8
0
  5
1A6B
 10
315.298
 20
48.3016
 30
0.000000
  70
    32
  0
VERTEX
  8
0
  5
1A6C
 10
315.313
 20
48.3115
 30
0.000000
  70
    32
  0
VERTEX
  8
0
  5
1A6D
 10
315.329
 20
48.3215
 30
0.000000
  70
    32
  0
VERTEX
  8
0
  5
1A6E
 10
315.343
 20
48.3314
 30
0.000000
  70
    32
  0
VERTEX
  8
0
  5
1A6F
 10
315.358
 20
48.3414
 30
0.000000
  70
    32
  0
VERTEX
  8
0
  5
1A70
 10
315.372
 20
48.3514
 30
0.000000
  70
    32
  0
VERTEX
  8
0
  5
1A71
 10
315.386
 20
48.3615
 30
0.000000
  70
    32
  0
VERTEX
  8
0
  5
1A72
 10
315.400
 20
48.3716
 30
0.000000
  70
    32
  0
VERTEX
  8
0
  5
1A73
 10
315.413
 20
48.3817
 30
0.000000
  70
    32
  0
VERTEX
  8
0
  5
1A74
 10
315.426
 20
48.3918
 30
0.000000
  70
    32
  0
VERTEX
  8
0
  5
1A75
 10
315.439
 20
48.4020
 30
0.000000
  70
    32
  0
VERTEX
  8
0
  5
1A76
 10
315.451
 20
48.4122
 30
0.000000
  70
    32
  0
VERTEX
  8
0
  5
1A77
 10
315.464
 20
48.4224
 30
0.000000
  70
    32
  0
VERTEX
  8
0
  5
1A78
 10
315.475
 20
48.4326
 30
0.000000
  70
    32
  0
VERTEX
  8
0
  5
1A79
 10
315.487
 20
48.4429
 30
0.000000
  70
    32
  0
VERTEX
  8
0
  5
1A7A
 10
315.498
 20
48.4532
 30
0.000000
  70
    32
  0
VERTEX
  8
0
  5
1A7B
 10
315.509
 20
48.4635
 30
0.000000
  70
    32
  0
VERTEX
  8
0
  5
1A7C
 10
315.520
 20
48.4738
 30
0.000000
  70
    32
  0
VERTEX
  8
0
  5
1A7D
 10
315.530
 20
48.4842
 30
0.000000
  70
    32
  0
VERTEX
  8
0
  5
1A7E
 10
315.540
 20
48.4946
 30
0.000000
  70
    32
  0
VERTEX
  8
0
  5
1A7F
 10
315.550
 20
48.5050
 30
0.000000
  70
    32
  0
VERTEX
  8
0
  5
1A80
 10
315.559
 20
48.5154
 30
0.000000
  70
    32
  0
VERTEX
  8
0
  5
1A81
 10
315.568
 20
48.5259
 30
0.000000
  70
    32
  0
VERTEX
  8
0
  5
1A82
 10
315.577
 20
48.5363
 30
0.000000
  70
    32
  0
VERTEX
  8
0
  5
1A83
 10
315.585
 20
48.5468
 30
0.000000
  70
    32
  0
VERTEX
  8
0
  5
1A84
 10
315.593
 20
48.5573
 30
0.000000
  70
    32
  0
VERTEX
  8
0
  5
1A85
 10
315.601
 20
48.5678
 30
0.000000
  70
    32
  0
VERTEX
  8
0
  5
1A86
 10
315.609
 20
48.5784
 30
0.000000
  70
    32
  0
VERTEX
  8
0
  5
1A87
 10
315.616
 20
48.5889
 30
0.000000
  70
    32
  0
VERTEX
  8
0
  5
1A88
 10
315.623
 20
48.5995
 30
0.000000
  70
    32
  0
VERTEX
  8
0
  5
1A89
 10
315.629
 20
48.6100
 30
0.000000
  70
    32
  0
VERTEX
  8
0
  5
1A8A
 10
315.635
 20
48.6206
 30
0.000000
  70
    32
  0
VERTEX
  8
0
  5
1A8B
 10
315.641
 20
48.6312
 30
0.000000
  70
    32
  0
VERTEX
  8
0
  5
1A8C
 10
315.647
 20
48.6419
 30
0.000000
  70
    32
  0
VERTEX
  8
0
  5
1A8D
 10
315.652
 20
48.6525
 30
0.000000
  70
    32
  0
VERTEX
  8
0
  5
1A8E
 10
315.657
 20
48.6631
 30
0.000000
  70
    32
  0
VERTEX
  8
0
  5
1A8F
 10
315.662
 20
48.6738
 30
0.000000
  70
    32
  0
VERTEX
  8
0
  5
1A90
 10
315.666
 20
48.6844
 30
0.000000
  70
    32
  0
VERTEX
  8
0
  5
1A91
 10
315.670
 20
48.6951
 30
0.000000
  70
    32
  0
VERTEX
  8
0
  5
1A92
 10
315.674
 20
48.7058
 30
0.000000
  70
    32
  0
VERTEX
  8
0
  5
1A93
 10
315.677
 20
48.7165
 30
0.000000
  70
    32
  0
VERTEX
  8
0
  5
1A94
 10
315.680
 20
48.7272
 30
0.000000
  70
    32
  0
VERTEX
  8
0
  5
1A95
 10
315.683
 20
48.7379
 30
0.000000
  70
    32
  0
VERTEX
  8
0
  5
1A96
 10
315.685
 20
48.7486
 30
0.000000
  70
    32
  0
VERTEX
  8
0
  5
1A97
 10
315.687
 20
48.7593
 30
0.000000
  70
    32
  0
VERTEX
  8
0
  5
1A98
 10
315.689
 20
48.7700
 30
0.000000
  70
    32
  0
VERTEX
  8
0
  5
1A99
 10
315.691
 20
48.7807
 30
0.000000
  70
    32
  0
VERTEX
  8
0
  5
1A9A
 10
315.692
 20
48.7914
 30
0.000000
  70
    32
  0
VERTEX
  8
0
  5
1A9B
 10
315.692
 20
48.8021
 30
0.000000
  70
    32
  0
VERTEX
  8
0
  5
1A9C
 10
315.693
 20
48.8129
 30
0.000000
  70
    32
  0
VERTEX
  8
0
  5
1A9D
 10
315.693
 20
48.8236
 30
0.000000
  70
    32
  0
SEQEND
  8
0
  5
1A9E
  0
LINE
  5
1682
  8
0
 10
315.69306810222838
 20
48.823587545375602
 30
0.0
 11
315.69306810222838
 21
50.621817448675621
 31
0.0
  0
LINE
  5
1683
  8
0
 10
325.69306810222838
 20
48.823587545375602
 30
0.0
 11
325.69306810222838
 21
50.621817448675621
 31
0.0
  0
POLYLINE
  5
1684
  8
0
 10
325.69306810222844
 20
48.823587545375602
 30
0.0
 66
     1
 70
     8
  0
VERTEX
  8
0
  5
1A9F
 10
325.693
 20
48.8236
 30
0.000000
  70
    32
  0
VERTEX
  8
0
  5
1AA0
 10
325.693
 20
48.8129
 30
0.000000
  70
    32
  0
VERTEX
  8
0
  5
1AA1
 10
325.694
 20
48.8021
 30
0.000000
  70
    32
  0
VERTEX
  8
0
  5
1AA2
 10
325.695
 20
48.7914
 30
0.000000
  70
    32
  0
VERTEX
  8
0
  5
1AA3
 10
325.696
 20
48.7807
 30
0.000000
  70
    32
  0
VERTEX
  8
0
  5
1AA4
 10
325.697
 20
48.7700
 30
0.000000
  70
    32
  0
VERTEX
  8
0
  5
1AA5
 10
325.699
 20
48.7593
 30
0.000000
  70
    32
  0
VERTEX
  8
0
  5
1AA6
 10
325.701
 20
48.7486
 30
0.000000
  70
    32
  0
VERTEX
  8
0
  5
1AA7
 10
325.703
 20
48.7379
 30
0.000000
  70
    32
  0
VERTEX
  8
0
  5
1AA8
 10
325.706
 20
48.7272
 30
0.000000
  70
    32
  0
VERTEX
  8
0
  5
1AA9
 10
325.709
 20
48.7165
 30
0.000000
  70
    32
  0
VERTEX
  8
0
  5
1AAA
 10
325.712
 20
48.7058
 30
0.000000
  70
    32
  0
VERTEX
  8
0
  5
1AAB
 10
325.716
 20
48.6951
 30
0.000000
  70
    32
  0
VERTEX
  8
0
  5
1AAC
 10
325.720
 20
48.6844
 30
0.000000
  70
    32
  0
VERTEX
  8
0
  5
1AAD
 10
325.724
 20
48.6738
 30
0.000000
  70
    32
  0
VERTEX
  8
0
  5
1AAE
 10
325.729
 20
48.6631
 30
0.000000
  70
    32
  0
VERTEX
  8
0
  5
1AAF
 10
325.734
 20
48.6525
 30
0.000000
  70
    32
  0
VERTEX
  8
0
  5
1AB0
 10
325.739
 20
48.6419
 30
0.000000
  70
    32
  0
VERTEX
  8
0
  5
1AB1
 10
325.745
 20
48.6312
 30
0.000000
  70
    32
  0
VERTEX
  8
0
  5
1AB2
 10
325.751
 20
48.6206
 30
0.000000
  70
    32
  0
VERTEX
  8
0
  5
1AB3
 10
325.757
 20
48.6100
 30
0.000000
  70
    32
  0
VERTEX
  8
0
  5
1AB4
 10
325.764
 20
48.5995
 30
0.000000
  70
    32
  0
VERTEX
  8
0
  5
1AB5
 10
325.770
 20
48.5889
 30
0.000000
  70
    32
  0
VERTEX
  8
0
  5
1AB6
 10
325.778
 20
48.5784
 30
0.000000
  70
    32
  0
VERTEX
  8
0
  5
1AB7
 10
325.785
 20
48.5678
 30
0.000000
  70
    32
  0
VERTEX
  8
0
  5
1AB8
 10
325.793
 20
48.5573
 30
0.000000
  70
    32
  0
VERTEX
  8
0
  5
1AB9
 10
325.801
 20
48.5468
 30
0.000000
  70
    32
  0
VERTEX
  8
0
  5
1ABA
 10
325.809
 20
48.5363
 30
0.000000
  70
    32
  0
VERTEX
  8
0
  5
1ABB
 10
325.818
 20
48.5259
 30
0.000000
  70
    32
  0
VERTEX
  8
0
  5
1ABC
 10
325.827
 20
48.5154
 30
0.000000
  70
    32
  0
VERTEX
  8
0
  5
1ABD
 10
325.837
 20
48.5050
 30
0.000000
  70
    32
  0
VERTEX
  8
0
  5
1ABE
 10
325.846
 20
48.4946
 30
0.000000
  70
    32
  0
VERTEX
  8
0
  5
1ABF
 10
325.856
 20
48.4842
 30
0.000000
  70
    32
  0
VERTEX
  8
0
  5
1AC0
 10
325.866
 20
48.4738
 30
0.000000
  70
    32
  0
VERTEX
  8
0
  5
1AC1
 10
325.877
 20
48.4635
 30
0.000000
  70
    32
  0
VERTEX
  8
0
  5
1AC2
 10
325.888
 20
48.4532
 30
0.000000
  70
    32
  0
VERTEX
  8
0
  5
1AC3
 10
325.899
 20
48.4429
 30
0.000000
  70
    32
  0
VERTEX
  8
0
  5
1AC4
 10
325.911
 20
48.4326
 30
0.000000
  70
    32
  0
VERTEX
  8
0
  5
1AC5
 10
325.923
 20
48.4224
 30
0.000000
  70
    32
  0
VERTEX
  8
0
  5
1AC6
 10
325.935
 20
48.4122
 30
0.000000
  70
    32
  0
VERTEX
  8
0
  5
1AC7
 10
325.947
 20
48.4020
 30
0.000000
  70
    32
  0
VERTEX
  8
0
  5
1AC8
 10
325.960
 20
48.3918
 30
0.000000
  70
    32
  0
VERTEX
  8
0
  5
1AC9
 10
325.973
 20
48.3817
 30
0.000000
  70
    32
  0
VERTEX
  8
0
  5
1ACA
 10
325.986
 20
48.3716
 30
0.000000
  70
    32
  0
VERTEX
  8
0
  5
1ACB
 10
326.000
 20
48.3615
 30
0.000000
  70
    32
  0
VERTEX
  8
0
  5
1ACC
 10
326.014
 20
48.3514
 30
0.000000
  70
    32
  0
VERTEX
  8
0
  5
1ACD
 10
326.028
 20
48.3414
 30
0.000000
  70
    32
  0
VERTEX
  8
0
  5
1ACE
 10
326.043
 20
48.3314
 30
0.000000
  70
    32
  0
VERTEX
  8
0
  5
1ACF
 10
326.058
 20
48.3215
 30
0.000000
  70
    32
  0
VERTEX
  8
0
  5
1AD0
 10
326.073
 20
48.3115
 30
0.000000
  70
    32
  0
VERTEX
  8
0
  5
1AD1
 10
326.088
 20
48.3016
 30
0.000000
  70
    32
  0
VERTEX
  8
0
  5
1AD2
 10
326.104
 20
48.2918
 30
0.000000
  70
    32
  0
VERTEX
  8
0
  5
1AD3
 10
326.120
 20
48.2820
 30
0.000000
  70
    32
  0
VERTEX
  8
0
  5
1AD4
 10
326.136
 20
48.2722
 30
0.000000
  70
    32
  0
VERTEX
  8
0
  5
1AD5
 10
326.153
 20
48.2624
 30
0.000000
  70
    32
  0
VERTEX
  8
0
  5
1AD6
 10
326.170
 20
48.2527
 30
0.000000
  70
    32
  0
VERTEX
  8
0
  5
1AD7
 10
326.187
 20
48.2430
 30
0.000000
  70
    32
  0
VERTEX
  8
0
  5
1AD8
 10
326.204
 20
48.2334
 30
0.000000
  70
    32
  0
VERTEX
  8
0
  5
1AD9
 10
326.222
 20
48.2238
 30
0.000000
  70
    32
  0
VERTEX
  8
0
  5
1ADA
 10
326.240
 20
48.2142
 30
0.000000
  70
    32
  0
VERTEX
  8
0
  5
1ADB
 10
326.259
 20
48.2047
 30
0.000000
  70
    32
  0
VERTEX
  8
0
  5
1ADC
 10
326.277
 20
48.1952
 30
0.000000
  70
    32
  0
VERTEX
  8
0
  5
1ADD
 10
326.296
 20
48.1857
 30
0.000000
  70
    32
  0
VERTEX
  8
0
  5
1ADE
 10
326.315
 20
48.1763
 30
0.000000
  70
    32
  0
VERTEX
  8
0
  5
1ADF
 10
326.335
 20
48.1670
 30
0.000000
  70
    32
  0
VERTEX
  8
0
  5
1AE0
 10
326.355
 20
48.1576
 30
0.000000
  70
    32
  0
VERTEX
  8
0
  5
1AE1
 10
326.375
 20
48.1483
 30
0.000000
  70
    32
  0
VERTEX
  8
0
  5
1AE2
 10
326.395
 20
48.1391
 30
0.000000
  70
    32
  0
VERTEX
  8
0
  5
1AE3
 10
326.415
 20
48.1299
 30
0.000000
  70
    32
  0
VERTEX
  8
0
  5
1AE4
 10
326.436
 20
48.1208
 30
0.000000
  70
    32
  0
VERTEX
  8
0
  5
1AE5
 10
326.457
 20
48.1117
 30
0.000000
  70
    32
  0
VERTEX
  8
0
  5
1AE6
 10
326.479
 20
48.1026
 30
0.000000
  70
    32
  0
VERTEX
  8
0
  5
1AE7
 10
326.501
 20
48.0936
 30
0.000000
  70
    32
  0
VERTEX
  8
0
  5
1AE8
 10
326.522
 20
48.0846
 30
0.000000
  70
    32
  0
VERTEX
  8
0
  5
1AE9
 10
326.545
 20
48.0757
 30
0.000000
  70
    32
  0
VERTEX
  8
0
  5
1AEA
 10
326.567
 20
48.0668
 30
0.000000
  70
    32
  0
VERTEX
  8
0
  5
1AEB
 10
326.590
 20
48.0580
 30
0.000000
  70
    32
  0
VERTEX
  8
0
  5
1AEC
 10
326.613
 20
48.0492
 30
0.000000
  70
    32
  0
VERTEX
  8
0
  5
1AED
 10
326.636
 20
48.0405
 30
0.000000
  70
    32
  0
VERTEX
  8
0
  5
1AEE
 10
326.660
 20
48.0318
 30
0.000000
  70
    32
  0
VERTEX
  8
0
  5
1AEF
 10
326.683
 20
48.0232
 30
0.000000
  70
    32
  0
VERTEX
  8
0
  5
1AF0
 10
326.707
 20
48.0146
 30
0.000000
  70
    32
  0
VERTEX
  8
0
  5
1AF1
 10
326.732
 20
48.0061
 30
0.000000
  70
    32
  0
VERTEX
  8
0
  5
1AF2
 10
326.756
 20
47.9976
 30
0.000000
  70
    32
  0
VERTEX
  8
0
  5
1AF3
 10
326.781
 20
47.9892
 30
0.000000
  70
    32
  0
VERTEX
  8
0
  5
1AF4
 10
326.806
 20
47.9809
 30
0.000000
  70
    32
  0
VERTEX
  8
0
  5
1AF5
 10
326.831
 20
47.9725
 30
0.000000
  70
    32
  0
VERTEX
  8
0
  5
1AF6
 10
326.857
 20
47.9643
 30
0.000000
  70
    32
  0
VERTEX
  8
0
  5
1AF7
 10
326.883
 20
47.9561
 30
0.000000
  70
    32
  0
VERTEX
  8
0
  5
1AF8
 10
326.909
 20
47.9479
 30
0.000000
  70
    32
  0
VERTEX
  8
0
  5
1AF9
 10
326.935
 20
47.9399
 30
0.000000
  70
    32
  0
VERTEX
  8
0
  5
1AFA
 10
326.962
 20
47.9318
 30
0.000000
  70
    32
  0
VERTEX
  8
0
  5
1AFB
 10
326.988
 20
47.9239
 30
0.000000
  70
    32
  0
VERTEX
  8
0
  5
1AFC
 10
327.015
 20
47.9159
 30
0.000000
  70
    32
  0
VERTEX
  8
0
  5
1AFD
 10
327.043
 20
47.9081
 30
0.000000
  70
    32
  0
VERTEX
  8
0
  5
1AFE
 10
327.070
 20
47.9003
 30
0.000000
  70
    32
  0
VERTEX
  8
0
  5
1AFF
 10
327.098
 20
47.8925
 30
0.000000
  70
    32
  0
VERTEX
  8
0
  5
1B00
 10
327.126
 20
47.8849
 30
0.000000
  70
    32
  0
VERTEX
  8
0
  5
1B01
 10
327.154
 20
47.8772
 30
0.000000
  70
    32
  0
VERTEX
  8
0
  5
1B02
 10
327.182
 20
47.8697
 30
0.000000
  70
    32
  0
VERTEX
  8
0
  5
1B03
 10
327.211
 20
47.8622
 30
0.000000
  70
    32
  0
VERTEX
  8
0
  5
1B04
 10
327.240
 20
47.8547
 30
0.000000
  70
    32
  0
VERTEX
  8
0
  5
1B05
 10
327.269
 20
47.8474
 30
0.000000
  70
    32
  0
VERTEX
  8
0
  5
1B06
 10
327.298
 20
47.8401
 30
0.000000
  70
    32
  0
VERTEX
  8
0
  5
1B07
 10
327.327
 20
47.8328
 30
0.000000
  70
    32
  0
VERTEX
  8
0
  5
1B08
 10
327.357
 20
47.8256
 30
0.000000
  70
    32
  0
VERTEX
  8
0
  5
1B09
 10
327.387
 20
47.8185
 30
0.000000
  70
    32
  0
VERTEX
  8
0
  5
1B0A
 10
327.417
 20
47.8114
 30
0.000000
  70
    32
  0
VERTEX
  8
0
  5
1B0B
 10
327.448
 20
47.8045
 30
0.000000
  70
    32
  0
VERTEX
  8
0
  5
1B0C
 10
327.478
 20
47.7975
 30
0.000000
  70
    32
  0
VERTEX
  8
0
  5
1B0D
 10
327.509
 20
47.7907
 30
0.000000
  70
    32
  0
VERTEX
  8
0
  5
1B0E
 10
327.540
 20
47.7839
 30
0.000000
  70
    32
  0
VERTEX
  8
0
  5
1B0F
 10
327.571
 20
47.7771
 30
0.000000
  70
    32
  0
VERTEX
  8
0
  5
1B10
 10
327.602
 20
47.7705
 30
0.000000
  70
    32
  0
VERTEX
  8
0
  5
1B11
 10
327.634
 20
47.7639
 30
0.000000
  70
    32
  0
VERTEX
  8
0
  5
1B12
 10
327.666
 20
47.7574
 30
0.000000
  70
    32
  0
VERTEX
  8
0
  5
1B13
 10
327.698
 20
47.7509
 30
0.000000
  70
    32
  0
VERTEX
  8
0
  5
1B14
 10
327.730
 20
47.7445
 30
0.000000
  70
    32
  0
VERTEX
  8
0
  5
1B15
 10
327.762
 20
47.7382
 30
0.000000
  70
    32
  0
VERTEX
  8
0
  5
1B16
 10
327.794
 20
47.7319
 30
0.000000
  70
    32
  0
VERTEX
  8
0
  5
1B17
 10
327.827
 20
47.7258
 30
0.000000
  70
    32
  0
VERTEX
  8
0
  5
1B18
 10
327.860
 20
47.7196
 30
0.000000
  70
    32
  0
VERTEX
  8
0
  5
1B19
 10
327.893
 20
47.7136
 30
0.000000
  70
    32
  0
VERTEX
  8
0
  5
1B1A
 10
327.926
 20
47.7076
 30
0.000000
  70
    32
  0
VERTEX
  8
0
  5
1B1B
 10
327.960
 20
47.7017
 30
0.000000
  70
    32
  0
VERTEX
  8
0
  5
1B1C
 10
327.993
 20
47.6959
 30
0.000000
  70
    32
  0
VERTEX
  8
0
  5
1B1D
 10
328.027
 20
47.6902
 30
0.000000
  70
    32
  0
VERTEX
  8
0
  5
1B1E
 10
328.061
 20
47.6845
 30
0.000000
  70
    32
  0
VERTEX
  8
0
  5
1B1F
 10
328.095
 20
47.6789
 30
0.000000
  70
    32
  0
SEQEND
  8
0
  5
1B20
  0
LINE
  5
1685
  8
0
 10
313.29092001322852
 20
47.678871544375653
 30
0.0
 11
328.09521619122847
 21
47.678871544375653
 31
0.0
  0
LINE
  5
1686
  8
0
 10
330.69306810222838
 20
53.583613184875638
 30
0.0
 11
330.69306810222838
 21
35.013953072375621
 31
0.0
  0
POLYLINE
  5
1687
  8
0
 66
     1
 10
0.0
 20
0.0
 30
0.0
 70
   128
  0
VERTEX
  5
1911
  8
0
 10
330.69306810222838
 20
47.453795703575587
 30
0.0
  0
VERTEX
  5
1912
  8
0
 10
329.0800362061284
 20
47.543547189275642
 30
0.0
  0
VERTEX
  5
1913
  8
0
 10
328.09521619122847
 20
47.678871544375653
 30
0.0
  0
SEQEND
  5
1914
  8
0
  0
POLYLINE
  5
1688
  8
0
 66
     1
 10
0.0
 20
0.0
 30
0.0
 70
   128
  0
VERTEX
  5
1915
  8
0
 10
313.29092001322852
 20
47.678871544375653
 30
0.0
  0
VERTEX
  5
1916
  8
0
 10
311.7801375375285
 20
47.494987115175633
 30
0.0
  0
VERTEX
  5
1917
  8
0
 10
310.69306810222838
 20
47.453795703575587
 30
0.0
  0
SEQEND
  5
1918
  8
0
  0
LINE
  5
1689
  8
0
 10
310.69306810222838
 20
35.013953072375621
 30
0.0
 11
310.69306810222838
 21
53.583613184875638
 31
0.0
  0
ARC
  5
168D
  8
0
 10
316.09521860152847
 20
39.869570598075597
 30
0.0
 40
1.4271780324719721
 50
86.068629915600326
 51
169.25406301059951
  0
LINE
  5
168E
  8
0
 10
314.69306810222849
 20
40.135674174875611
 30
0.0
 11
314.69306810222849
 21
35.013953072375557
 31
0.0
  0
LINE
  5
1691
  8
0
 10
326.69306810222838
 20
35.013953072375557
 30
0.0
 11
326.69306810222838
 21
40.135674174875611
 31
0.0
  0
ARC
  5
1692
  8
0
 10
325.3336839043285
 20
39.924980943975612
 30
0.0
 40
1.3756151478099869
 50
8.8102670712002862
 51
95.867040002600277
  0
LINE
  5
1693
  8
0
 10
325.19306810222838
 20
41.293390323875599
 30
0.0
 11
316.19306810222838
 21
41.293390323875599
 31
0.0
  0
LINE
  5
169A
  8
0
 10
16.154714375688169
 20
35.013953072375529
 30
0.0
 11
20.154714375688169
 21
35.013953072375529
 31
0.0
  0
LINE
  5
169B
  8
0
 10
32.154714375688179
 20
35.013953072375529
 30
0.0
 11
36.154714375688172
 21
35.013953072375529
 31
0.0
  0
ARC
  5
169C
  8
0
 10
26.154714375688169
 20
64.763953072375514
 30
0.0
 40
15.000000000000011
 50
311.81031489579891
 51
228.189685104201
  0
LINE
  5
169D
  8
0
 10
16.154714375688169
 20
47.512283304775529
 30
0.0
 11
20.154714375688169
 21
47.512283304775529
 31
0.0
  0
LINE
  5
16A0
  8
0
 10
20.154714375688169
 20
69.763953072375514
 30
0.0
 11
20.154714375688169
 21
35.013953072375529
 31
0.0
  0
LINE
  5
16A1
  8
0
 10
36.154714375688179
 20
69.763953072375557
 30
0.0
 11
16.154714375688169
 21
69.763953072375514
 31
0.0
  0
LINE
  5
16A2
  8
0
 10
16.154714375688169
 20
69.763953072375514
 30
0.0
 11
16.154714375688169
 21
35.013953072375529
 31
0.0
  0
LINE
  5
16A3
  8
0
 10
32.154714375688179
 20
35.013953072375529
 30
0.0
 11
32.154714375688179
 21
69.763953072375514
 31
0.0
  0
LINE
  5
16A5
  8
0
 10
36.154714375688172
 20
69.763953072375514
 30
0.0
 11
36.154714375688179
 21
35.013953072375529
 31
0.0
  0
LINE
  5
16A6
  8
0
 10
32.154714375688179
 20
47.512283304775529
 30
0.0
 11
36.154714375688172
 21
47.512283304775529
 31
0.0
  0
ARC
  5
16AA
  8
0
 10
21.51409857348817
 20
39.924980943975562
 30
0.0
 40
1.3756151478099401
 50
84.132959997399723
 51
171.18973292879971
  0
ARC
  5
16AC
  8
0
 10
30.752563876288171
 20
39.869570598075541
 30
0.0
 40
1.427178032471881
 50
10.745936989400469
 51
93.931370084399546
  0
LINE
  5
16AF
  8
0
 10
21.654714375688169
 20
41.293390323875542
 30
0.0
 11
30.654714375688169
 21
41.293390323875542
 31
0.0
  0
ARC
  5
16B1
  8
0
 10
26.15307669168817
 20
64.874657061375586
 30
0.0
 40
7.3841925994480526
 50
41.462527568500697
 51
138.5374724314992
  0
LINE
  5
16BE
  8
2
 10
123.3882349783304
 20
69.763953072375557
 30
0.0
 11
131.01689927483039
 21
41.293390323921521
 31
0.0
  0
LINE
  5
16C4
  8
1
 10
104.04633652633029
 20
58.263953072375557
 30
0.0
 11
124.04633652633041
 21
58.263953072375557
 31
0.0
  0
LINE
  5
16C5
  8
1
 10
114.04633652633041
 20
48.263953072375557
 30
0.0
 11
114.04633652633041
 21
68.263953072375557
 31
0.0
  0
LINE
  5
16C7
  8
1
 10
300.69306810222838
 20
64.763953072375585
 30
0.0
 11
340.69306810222838
 21
64.763953072375585
 31
0.0
  0
CIRCLE
  5
16C8
  8
0
 10
320.69306810222849
 20
64.763953072375585
 30
0.0
 40
15.0
  0
LINE
  5
16CB
  8
1
 10
114.04633652633029
 20
133.4106846482735
 30
0.0
 11
114.04633652633029
 21
163.4106846482735
 31
0.0
  0
ARC
  5
16CC
  8
0
 10
237.04633652633041
 20
64.763953072375557
 30
0.0
 40
14.99999999999997
 50
209.92643486661339
 51
150.0735651333865
  0
LINE
  5
16CD
  8
0
 10
224.04633652633041
 20
57.280638298827768
 30
0.0
 11
224.04633652633041
 21
72.247267845923346
 31
0.0
  0
LINE
  5
16CE
  8
1
 10
237.04633652633041
 20
84.763953072375514
 30
0.0
 11
237.04633652633041
 21
44.763953072375593
 31
0.0
  0
ARC
  5
16D0
  8
0
 10
237.04633652633041
 20
148.4106846482735
 30
0.0
 40
15.0
 50
209.92643486661359
 51
150.07356513338641
  0
LINE
  5
16D1
  8
0
 10
224.04633652633041
 20
140.92736987472571
 30
0.0
 11
224.04633652633041
 21
155.89399942182141
 31
0.0
  0
LINE
  5
1777
  8
1
 10
217.04633652633041
 20
64.763953072375557
 30
0.0
 11
257.04633652633038
 21
64.763953072375557
 31
0.0
  0
LINE
  5
1778
  8
1
 10
237.04633652633041
 20
168.4106846482735
 30
0.0
 11
237.04633652633041
 21
128.41068464827359
 31
0.0
  0
LINE
  5
1779
  8
1
 10
217.04633652633041
 20
148.4106846482735
 30
0.0
 11
257.04633652633038
 21
148.4106846482735
 31
0.0
  0
LINE
  5
177B
  8
1
 10
26.154714375688169
 20
84.763953072375514
 30
0.0
 11
26.154714375688169
 21
36.293390323875542
 31
0.0
  0
LINE
  5
177C
  8
1
 10
6.1547143756881724
 20
64.763953072375514
 30
0.0
 11
46.154714375688172
 21
64.763953072375514
 31
0.0
  0
LINE
  5
17CE
  8
2
 10
109.04633652633041
 20
138.4106846482735
 30
0.0
 11
109.04633652633041
 21
142.4106846482735
 31
0.0
  0
LINE
  5
17CF
  8
2
 10
119.04633652633041
 20
138.4106846482735
 30
0.0
 11
119.04633652633041
 21
142.4106846482735
 31
0.0
  0
LINE
  5
17D0
  8
2
 10
119.04633652633041
 20
154.4106846482735
 30
0.0
 11
119.04633652633041
 21
158.4106846482735
 31
0.0
  0
LINE
  5
17D1
  8
2
 10
109.04633652633041
 20
154.4106846482735
 30
0.0
 11
109.04633652633029
 21
158.4106846482735
 31
0.0
  0
LINE
  5
181B
  8
1
 10
320.69306810222849
 20
84.763953072375557
 30
0.0
 11
320.69306810222849
 21
44.763953072375607
 31
0.0
  0
ENDSEC
  0
EOF
