  0
SECTION
  2
HEADER
  9
$ACADVER
  1
AC1009
  9
$INSBASE
 10
0.0
 20
0.0
 30
0.0
  9
$EXTMIN
 10
0.0
 20
-2.960436562073669
 30
0.0
  9
$EXTMAX
 10
237.7003851264227
 20
122.3781843626017
 30
0.0
  9
$LIMMIN
 10
0.0
 20
0.0
  9
$LIMMAX
 10
12.0
 20
9.0
  9
$ORTHOMODE
 70
     1
  9
$REGENMODE
 70
     1
  9
$FILLMODE
 70
     1
  9
$QTEXTMODE
 70
     0
  9
$MIRRTEXT
 70
     0
  9
$DRAGMODE
 70
     2
  9
$LTSCALE
 40
5.0
  9
$OSMODE
 70
  3071
  9
$ATTMODE
 70
     1
  9
$TEXTSIZE
 40
0.2
  9
$TRACEWID
 40
0.05
  9
$TEXTSTYLE
  7
STANDARD
  9
$CLAYER
  8
0
  9
$CELTYPE
  6
BYLAYER
  9
$CECOLOR
 62
   256
  9
$DIMSCALE
 40
1.0
  9
$DIMASZ
 40
0.18
  9
$DIMEXO
 40
0.0625
  9
$DIMDLI
 40
0.38
  9
$DIMRND
 40
0.0
  9
$DIMDLE
 40
0.0
  9
$DIMEXE
 40
0.18
  9
$DIMTP
 40
0.0
  9
$DIMTM
 40
0.0
  9
$DIMTXT
 40
2.6000000000000001
  9
$DIMCEN
 40
0.09
  9
$DIMTSZ
 40
0.0
  9
$DIMTOL
 70
     0
  9
$DIMLIM
 70
     0
  9
$DIMTIH
 70
     0
  9
$DIMTOH
 70
     0
  9
$DIMSE1
 70
     0
  9
$DIMSE2
 70
     0
  9
$DIMTAD
 70
     1
  9
$DIMZIN
 70
     8
  9
$DIMBLK
  1

  9
$DIMASO
 70
     1
  9
$DIMSHO
 70
     1
  9
$DIMPOST
  1

  9
$DIMAPOST
  1

  9
$DIMALT
 70
     0
  9
$DIMALTD
 70
     2
  9
$DIMALTF
 40
25.399999999999999
  9
$DIMLFAC
 40
1.0
  9
$DIMTOFL
 70
     0
  9
$DIMTVP
 40
0.0
  9
$DIMTIX
 70
     0
  9
$DIMSOXD
 70
     0
  9
$DIMSAH
 70
     0
  9
$DIMBLK1
  1

  9
$DIMBLK2
  1

  9
$DIMSTYLE
  2
STANDARD
  9
$DIMCLRD
 70
     0
  9
$DIMCLRE
 70
     0
  9
$DIMCLRT
 70
     0
  9
$DIMTFAC
 40
1.0
  9
$DIMGAP
 40
0.09
  9
$LUNITS
 70
     2
  9
$LUPREC
 70
     4
  9
$SKETCHINC
 40
0.1
  9
$FILLETRAD
 40
0.0
  9
$AUNITS
 70
     0
  9
$AUPREC
 70
     0
  9
$MENU
  1
.
  9
$ELEVATION
 40
0.0
  9
$PELEVATION
 40
0.0
  9
$THICKNESS
 40
0.0
  9
$LIMCHECK
 70
     0
  9
$BLIPMODE
 70
     0
  9
$CHAMFERA
 40
0.0
  9
$CHAMFERB
 40
0.0
  9
$SKPOLY
 70
     0
  9
$TDCREATE
 40
2453083.4120647679
  9
$TDUPDATE
 40
2456597.650107489
  9
$TDINDWG
 40
0.2679613426
  9
$TDUSRTIMER
 40
0.2679612269
  9
$USRTIMER
 70
     1
  9
$ANGBASE
 50
0.0
  9
$ANGDIR
 70
     0
  9
$PDMODE
 70
     0
  9
$PDSIZE
 40
0.0
  9
$PLINEWID
 40
0.0
  9
$COORDS
 70
     1
  9
$SPLFRAME
 70
     0
  9
$SPLINETYPE
 70
     6
  9
$SPLINESEGS
 70
     8
  9
$ATTDIA
 70
     0
  9
$ATTREQ
 70
     1
  9
$HANDLING
 70
     1
  9
$HANDSEED
  5
FED
  9
$SURFTAB1
 70
     6
  9
$SURFTAB2
 70
     6
  9
$SURFTYPE
 70
     6
  9
$SURFU
 70
     6
  9
$SURFV
 70
     6
  9
$UCSNAME
  2

  9
$UCSORG
 10
0.0
 20
0.0
 30
0.0
  9
$UCSXDIR
 10
1.0
 20
0.0
 30
0.0
  9
$UCSYDIR
 10
0.0
 20
1.0
 30
0.0
  9
$PUCSNAME
  2

  9
$PUCSORG
 10
0.0
 20
0.0
 30
0.0
  9
$PUCSXDIR
 10
1.0
 20
0.0
 30
0.0
  9
$PUCSYDIR
 10
0.0
 20
1.0
 30
0.0
  9
$USERI1
 70
     0
  9
$USERI2
 70
     1
  9
$USERI3
 70
     0
  9
$USERI4
 70
     0
  9
$USERI5
 70
     0
  9
$USERR1
 40
0.0
  9
$USERR2
 40
0.0
  9
$USERR3
 40
0.0
  9
$USERR4
 40
0.0
  9
$USERR5
 40
0.0
  9
$WORLDVIEW
 70
     1
  9
$SHADEDGE
 70
     3
  9
$SHADEDIF
 70
    70
  9
$TILEMODE
 70
     1
  9
$MAXACTVP
 70
    64
  9
$PLIMCHECK
 70
     0
  9
$PEXTMIN
 10
0.0
 20
0.0
 30
0.0
  9
$PEXTMAX
 10
0.0
 20
0.0
 30
0.0
  9
$PLIMMIN
 10
0.0
 20
0.0
  9
$PLIMMAX
 10
12.0
 20
9.0
  9
$UNITMODE
 70
     0
  9
$VISRETAIN
 70
     1
  9
$PLINEGEN
 70
     0
  9
$PSLTSCALE
 70
     1
  0
ENDSEC
  0
SECTION
  2
TABLES
  0
TABLE
  2
VPORT
 70
     1
  0
VPORT
  2
*ACTIVE
 70
     0
 10
0.0
 20
0.0
 11
1.0
 21
1.0
 12
122.54260840908491
 22
59.70922321543727
 13
0.0
 23
0.0
 14
0.5
 24
0.5
 15
0.5
 25
0.5
 16
0.0
 26
0.0
 36
1.0
 17
0.0
 27
0.0
 37
0.0
 40
134.45241122862069
 41
1.831871345029239
 42
50.0
 43
0.0
 44
0.0
 50
0.0
 51
0.0
 71
     0
 72
  1000
 73
     1
 74
     2
 75
     0
 76
     0
 77
     0
 78
     0
  0
ENDTAB
  0
TABLE
  2
LTYPE
 70
     3
  0
LTYPE
  2
CONTINUOUS
 70
     0
  3
Solid Line
 72
    65
 73
     0
 40
0.0
  0
LTYPE
  2
CENTER
 70
     0
  3
____ _ ____ _ ____ _ ____ _ ____ _ ____ _ ____
 72
    65
 73
     4
 40
2.0
 49
1.25
 49
-0.25
 49
0.25
 49
-0.25
  0
LTYPE
  2
PHANTOM2
 70
     0
  3
___ _ _ ___ _ _ ___ _ _ ___ _ _
 72
    65
 73
     6
 40
1.25
 49
0.625
 49
-0.125
 49
0.125
 49
-0.125
 49
0.125
 49
-0.125
  0
ENDTAB
  0
TABLE
  2
LAYER
 70
     4
  0
LAYER
  2
0
 70
     0
 62
     7
  6
CONTINUOUS
  0
LAYER
  2
1
 70
     0
 62
     1
  6
CENTER
  0
LAYER
  2
3
 70
     0
 62
     3
  6
CONTINUOUS
  0
LAYER
  2
DEFPOINTS
 70
     0
 62
     7
  6
CONTINUOUS
  0
ENDTAB
  0
TABLE
  2
STYLE
 70
     2
  0
STYLE
  2
STANDARD
 70
     0
 40
0.0
 41
1.0
 50
0.0
 71
     0
 42
0.2
  3
simplex.shx
  4
bigfont.shx
  0
STYLE
  2
STANDARD1
 70
     0
 40
0.0
 41
1.0
 50
0.0
 71
     0
 42
3.0
  3
txt
  4

  0
ENDTAB
  0
TABLE
  2
VIEW
 70
     0
  0
ENDTAB
  0
TABLE
  2
UCS
 70
     0
  0
ENDTAB
  0
TABLE
  2
APPID
 70
     3
  0
APPID
  2
ACAD
 70
     0
  0
APPID
  2
ACAD_MLEADERVER
 70
     0
  0
APPID
  2
ACAD_NAV_VCDISPLAY
 70
     0
  0
ENDTAB
  0
TABLE
  2
DIMSTYLE
 70
     1
  0
DIMSTYLE
  2
STANDARD
 70
     0
  3

  4

  5

  6

  7

 40
1.0
 41
0.18
 42
0.0625
 43
0.38
 44
0.18
 45
0.0
 46
0.0
 47
0.0
 48
0.0
140
2.6000000000000001
141
0.09
142
0.0
143
25.399999999999999
144
1.0
145
0.0
146
1.0
147
0.09
 71
     0
 72
     0
 73
     0
 74
     0
 75
     0
 76
     0
 77
     1
 78
     8
170
     0
171
     2
172
     0
173
     0
174
     0
175
     0
176
     0
177
     0
178
     0
  0
ENDTAB
  0
ENDSEC
  0
SECTION
  2
BLOCKS
  0
BLOCK
  8
0
  2
$MODEL_SPACE
 70
     0
 10
0.0
 20
0.0
 30
0.0
  3
$MODEL_SPACE
  1

  0
ENDBLK
  5
21
  8
0
  0
BLOCK
 67
     1
  8
0
  2
$PAPER_SPACE
 70
     0
 10
0.0
 20
0.0
 30
0.0
  3
$PAPER_SPACE
  1

  0
ENDBLK
  5
5B
 67
     1
  8
0
  0
ENDSEC
  0
SECTION
  2
ENTITIES
  0
LINE
  5
D5E
  8
1
 10
155.97977742986021
 20
74.657768721115062
 30
0.0
 11
155.97977742986021
 21
122.3781843626017
 31
0.0
  0
LINE
  5
D5F
  8
1
 10
74.214590821821218
 20
98.517976541858388
 30
0.0
 11
237.7003851264227
 21
98.517976541858388
 31
0.0
  0
CIRCLE
  5
D60
  8
3
 10
220.97977742986029
 20
98.517976541858388
 30
0.0
 40
10.0
  0
CIRCLE
  5
D61
  8
3
 10
90.979777429860476
 20
98.517976541858388
 30
0.0
 40
10.0
  0
CIRCLE
  5
D67
  8
0
 10
90.979777429860476
 20
98.517976541858388
 30
0.0
 40
8.75
  0
CIRCLE
  5
D68
  8
0
 10
220.97977742986029
 20
98.517976541858388
 30
0.0
 40
8.75
  0
LINE
  5
D6B
  8
0
 10
88.104133082842509
 20
79.517976541858346
 30
0.0
 11
223.85542177687819
 21
79.517976541858374
 31
0.0
  0
LINE
  5
D6C
  8
0
 10
223.85542177687819
 20
79.517976541858374
 30
0.0
 11
235.97977742986029
 21
86.517976541858388
 31
0.0
  0
LINE
  5
D6D
  8
0
 10
235.97977742986029
 20
86.517976541858388
 30
0.0
 11
235.97977742986029
 21
110.5179765418583
 31
0.0
  0
LINE
  5
D6E
  8
0
 10
235.97977742986029
 20
110.5179765418583
 30
0.0
 11
223.85542177687819
 21
117.5179765418583
 31
0.0
  0
LINE
  5
D6F
  8
0
 10
223.85542177687819
 20
117.5179765418583
 30
0.0
 11
88.104133082842509
 21
117.5179765418583
 31
0.0
  0
LINE
  5
D70
  8
0
 10
88.104133082842509
 20
117.5179765418583
 30
0.0
 11
75.979777429860448
 21
110.5179765418583
 31
0.0
  0
LINE
  5
D71
  8
0
 10
75.979777429860448
 20
110.5179765418583
 30
0.0
 11
75.979777429860448
 21
86.517976541858346
 31
0.0
  0
LINE
  5
D72
  8
0
 10
75.979777429860448
 20
86.517976541858346
 30
0.0
 11
88.104133082842509
 21
79.517976541858346
 31
0.0
  0
LINE
  5
D73
  8
0
 10
180.97977742986021
 20
109.0179765418583
 30
0.0
 11
130.97977742986041
 21
109.0179765418583
 31
0.0
  0
ARC
  5
D74
  8
0
 10
180.97977742986021
 20
98.517976541858388
 30
0.0
 40
10.500000000000011
 50
270.0
 51
90.0
  0
LINE
  5
D75
  8
0
 10
130.97977742986041
 20
88.01797654185836
 30
0.0
 11
180.97977742986021
 21
88.017976541858374
 31
0.0
  0
ARC
  5
D76
  8
0
 10
130.97977742986041
 20
98.517976541858374
 30
0.0
 40
10.5
 50
90.0
 51
270.0
  0
LINE
  5
D77
  8
1
 10
155.97977742986021
 20
56.686924892025338
 30
0.0
 11
155.97977742986021
 21
25.40160779757095
 31
0.0
  0
LINE
  5
D78
  8
1
 10
180.97977742986021
 20
53.744202352897503
 30
0.0
 11
180.97977742986021
 21
27.74420235289751
 31
0.0
  0
LINE
  5
D79
  8
1
 10
130.97977742986041
 20
53.744202352897503
 30
0.0
 11
130.97977742986041
 21
27.74420235289751
 31
0.0
  0
LINE
  5
D7A
  8
1
 10
220.97977742986029
 20
27.698524314207269
 30
0.0
 11
220.97977742986029
 21
53.935992574045969
 31
0.0
  0
LINE
  5
D7B
  8
1
 10
90.979777429860476
 20
27.849586733357739
 30
0.0
 11
90.979777429860476
 21
54.23923220982747
 31
0.0
  0
LINE
  5
D7C
  8
1
 10
180.97977742986021
 20
54.636762025118692
 30
0.0
 11
180.97977742986021
 21
27.709671646606761
 31
0.0
  0
LINE
  5
D7D
  8
1
 10
130.97977742986041
 20
27.709671646606761
 30
0.0
 11
130.97977742986041
 21
54.636762025118692
 31
0.0
  0
LINE
  5
D80
  8
0
 10
235.97977742986029
 20
51.744202352897503
 30
0.0
 11
235.97977742986029
 21
29.744202352897499
 31
0.0
  0
LINE
  5
D83
  8
0
 10
75.979777429860448
 20
51.744202352897503
 30
0.0
 11
75.979777429860448
 21
29.744202352897499
 31
0.0
  0
LINE
  5
D86
  8
0
 10
223.85542177687819
 20
51.744202352897503
 30
0.0
 11
223.85542177687819
 21
29.744202352897499
 31
0.0
  0
LINE
  5
D87
  8
0
 10
88.104133082842509
 20
51.744202352897503
 30
0.0
 11
88.104133082842509
 21
29.744202352897499
 31
0.0
  0
LINE
  5
D99
  8
0
 10
75.979777429860448
 20
51.744202352897503
 30
0.0
 11
235.97977742986029
 21
51.744202352897503
 31
0.0
  0
LINE
  5
D9A
  8
0
 10
235.97977742986029
 20
29.744202352897499
 30
0.0
 11
75.979777429860462
 21
29.744202352897499
 31
0.0
  0
LINE
  5
D9B
  8
1
 10
220.97977742986029
 20
111.7679765418584
 30
0.0
 11
220.97977742986029
 21
85.267976541858388
 31
0.0
  0
LINE
  5
D9C
  8
1
 10
180.97977742986021
 20
111.0179765418584
 30
0.0
 11
180.97977742986021
 21
86.017976541858403
 31
0.0
  0
LINE
  5
D9D
  8
1
 10
90.979777429860462
 20
111.7679765418584
 30
0.0
 11
90.979777429860462
 21
85.267976541858388
 31
0.0
  0
LINE
  5
D9E
  8
1
 10
130.97977742986029
 20
111.0179765418584
 30
0.0
 11
130.97977742986029
 21
86.017976541858403
 31
0.0
  0
LINE
  5
DC1
  8
0
 10
19.661067633238691
 20
117.5179765418583
 30
0.0
 11
19.661067633238691
 21
79.517976541858346
 31
0.0
  0
LINE
  5
DC2
  8
0
 10
19.661067633238691
 20
117.5179765418583
 30
0.0
 11
41.661067633238673
 21
117.5179765418583
 31
0.0
  0
LINE
  5
DC3
  8
0
 10
41.661067633238687
 20
110.5179765418583
 30
0.0
 11
19.66106763323868
 21
110.5179765418583
 31
0.0
  0
LINE
  5
DC4
  8
0
 10
41.661067633238687
 20
86.517976541858346
 30
0.0
 11
19.66106763323868
 21
86.517976541858346
 31
0.0
  0
LINE
  5
DC5
  8
0
 10
41.661067633238687
 20
79.517976541858346
 30
0.0
 11
19.66106763323868
 21
79.517976541858346
 31
0.0
  0
LINE
  5
DC6
  8
0
 10
41.661067633238687
 20
117.5179765418583
 30
0.0
 11
41.661067633238687
 21
79.517976541858346
 31
0.0
  0
LINE
  5
DC7
  8
1
 10
11.764532581793031
 20
98.853513243162865
 30
0.0
 11
49.55760268468434
 21
98.853513243162823
 31
0.0
  0
TEXT
  5
F59
  8
0
 62
     3
 10
0.0
 20
0.0
 30
0.0
 40
10.0
  1
BJ159-20160
  7
STANDARD1
  0
ENDSEC
  0
EOF
