  0
SECTION
  2
HEADER
  9
$ACADVER
  1
AC1009
  9
$INSBASE
 10
0.0
 20
0.0
 30
0.0
  9
$EXTMIN
 10
0.0
 20
-2.960436562073669
 30
0.0
  9
$EXTMAX
 10
169.0298985111817
 20
107.8312221098093
 30
0.0
  9
$LIMMIN
 10
0.0
 20
0.0
  9
$LIMMAX
 10
12.0
 20
9.0
  9
$ORTHOMODE
 70
     1
  9
$REGENMODE
 70
     1
  9
$FILLMODE
 70
     1
  9
$QTEXTMODE
 70
     0
  9
$MIRRTEXT
 70
     0
  9
$DRAGMODE
 70
     2
  9
$LTSCALE
 40
5.0
  9
$OSMODE
 70
  3071
  9
$ATTMODE
 70
     1
  9
$TEXTSIZE
 40
0.2
  9
$TRACEWID
 40
0.05
  9
$TEXTSTYLE
  7
STANDARD
  9
$CLAYER
  8
0
  9
$CELTYPE
  6
BYLAYER
  9
$CECOLOR
 62
   256
  9
$DIMSCALE
 40
1.0
  9
$DIMASZ
 40
0.18
  9
$DIMEXO
 40
0.0625
  9
$DIMDLI
 40
0.38
  9
$DIMRND
 40
0.0
  9
$DIMDLE
 40
0.0
  9
$DIMEXE
 40
0.18
  9
$DIMTP
 40
0.0
  9
$DIMTM
 40
0.0
  9
$DIMTXT
 40
2.5
  9
$DIMCEN
 40
0.09
  9
$DIMTSZ
 40
0.0
  9
$DIMTOL
 70
     0
  9
$DIMLIM
 70
     0
  9
$DIMTIH
 70
     0
  9
$DIMTOH
 70
     0
  9
$DIMSE1
 70
     0
  9
$DIMSE2
 70
     0
  9
$DIMTAD
 70
     1
  9
$DIMZIN
 70
     8
  9
$DIMBLK
  1

  9
$DIMASO
 70
     1
  9
$DIMSHO
 70
     1
  9
$DIMPOST
  1

  9
$DIMAPOST
  1

  9
$DIMALT
 70
     0
  9
$DIMALTD
 70
     2
  9
$DIMALTF
 40
25.399999999999999
  9
$DIMLFAC
 40
1.0
  9
$DIMTOFL
 70
     0
  9
$DIMTVP
 40
0.0
  9
$DIMTIX
 70
     0
  9
$DIMSOXD
 70
     0
  9
$DIMSAH
 70
     0
  9
$DIMBLK1
  1

  9
$DIMBLK2
  1

  9
$DIMSTYLE
  2
STANDARD
  9
$DIMCLRD
 70
     0
  9
$DIMCLRE
 70
     0
  9
$DIMCLRT
 70
     0
  9
$DIMTFAC
 40
1.0
  9
$DIMGAP
 40
0.09
  9
$LUNITS
 70
     2
  9
$LUPREC
 70
     4
  9
$SKETCHINC
 40
0.1
  9
$FILLETRAD
 40
0.0
  9
$AUNITS
 70
     0
  9
$AUPREC
 70
     0
  9
$MENU
  1
.
  9
$ELEVATION
 40
0.0
  9
$PELEVATION
 40
0.0
  9
$THICKNESS
 40
0.0
  9
$LIMCHECK
 70
     0
  9
$BLIPMODE
 70
     0
  9
$CHAMFERA
 40
0.0
  9
$CHAMFERB
 40
0.0
  9
$SKPOLY
 70
     0
  9
$TDCREATE
 40
2453083.4120647679
  9
$TDUPDATE
 40
2456597.649761667
  9
$TDINDWG
 40
0.2371283102
  9
$TDUSRTIMER
 40
0.2371281944
  9
$USRTIMER
 70
     1
  9
$ANGBASE
 50
0.0
  9
$ANGDIR
 70
     0
  9
$PDMODE
 70
     0
  9
$PDSIZE
 40
0.0
  9
$PLINEWID
 40
0.0
  9
$COORDS
 70
     1
  9
$SPLFRAME
 70
     0
  9
$SPLINETYPE
 70
     6
  9
$SPLINESEGS
 70
     8
  9
$ATTDIA
 70
     0
  9
$ATTREQ
 70
     1
  9
$HANDLING
 70
     1
  9
$HANDSEED
  5
B5C
  9
$SURFTAB1
 70
     6
  9
$SURFTAB2
 70
     6
  9
$SURFTYPE
 70
     6
  9
$SURFU
 70
     6
  9
$SURFV
 70
     6
  9
$UCSNAME
  2

  9
$UCSORG
 10
0.0
 20
0.0
 30
0.0
  9
$UCSXDIR
 10
1.0
 20
0.0
 30
0.0
  9
$UCSYDIR
 10
0.0
 20
1.0
 30
0.0
  9
$PUCSNAME
  2

  9
$PUCSORG
 10
0.0
 20
0.0
 30
0.0
  9
$PUCSXDIR
 10
1.0
 20
0.0
 30
0.0
  9
$PUCSYDIR
 10
0.0
 20
1.0
 30
0.0
  9
$USERI1
 70
     0
  9
$USERI2
 70
     1
  9
$USERI3
 70
     0
  9
$USERI4
 70
     0
  9
$USERI5
 70
     0
  9
$USERR1
 40
0.0
  9
$USERR2
 40
0.0
  9
$USERR3
 40
0.0
  9
$USERR4
 40
0.0
  9
$USERR5
 40
0.0
  9
$WORLDVIEW
 70
     1
  9
$SHADEDGE
 70
     3
  9
$SHADEDIF
 70
    70
  9
$TILEMODE
 70
     1
  9
$MAXACTVP
 70
    64
  9
$PLIMCHECK
 70
     0
  9
$PEXTMIN
 10
0.0
 20
0.0
 30
0.0
  9
$PEXTMAX
 10
0.0
 20
0.0
 30
0.0
  9
$PLIMMIN
 10
0.0
 20
0.0
  9
$PLIMMAX
 10
12.0
 20
9.0
  9
$UNITMODE
 70
     0
  9
$VISRETAIN
 70
     1
  9
$PLINEGEN
 70
     0
  9
$PSLTSCALE
 70
     1
  0
ENDSEC
  0
SECTION
  2
TABLES
  0
TABLE
  2
VPORT
 70
     1
  0
VPORT
  2
*ACTIVE
 70
     0
 10
0.0
 20
0.0
 11
1.0
 21
1.0
 12
87.585083496648082
 22
52.434774818972208
 13
0.0
 23
0.0
 14
0.5
 24
0.5
 15
0.5
 25
0.5
 16
0.0
 26
0.0
 36
1.0
 17
0.0
 27
0.0
 37
0.0
 40
111.79319385803829
 41
1.831871345029239
 42
50.0
 43
0.0
 44
0.0
 50
0.0
 51
0.0
 71
     0
 72
  1000
 73
     1
 74
     2
 75
     0
 76
     0
 77
     0
 78
     0
  0
ENDTAB
  0
TABLE
  2
LTYPE
 70
     3
  0
LTYPE
  2
CONTINUOUS
 70
     0
  3
Solid Line
 72
    65
 73
     0
 40
0.0
  0
LTYPE
  2
CENTER
 70
     0
  3
____ _ ____ _ ____ _ ____ _ ____ _ ____ _ ____
 72
    65
 73
     4
 40
2.0
 49
1.25
 49
-0.25
 49
0.25
 49
-0.25
  0
LTYPE
  2
PHANTOM2
 70
     0
  3
___ _ _ ___ _ _ ___ _ _ ___ _ _
 72
    65
 73
     6
 40
1.25
 49
0.625
 49
-0.125
 49
0.125
 49
-0.125
 49
0.125
 49
-0.125
  0
ENDTAB
  0
TABLE
  2
LAYER
 70
     4
  0
LAYER
  2
0
 70
     0
 62
     7
  6
CONTINUOUS
  0
LAYER
  2
1
 70
     0
 62
     1
  6
CENTER
  0
LAYER
  2
3
 70
     0
 62
     3
  6
CONTINUOUS
  0
LAYER
  2
DEFPOINTS
 70
     0
 62
     7
  6
CONTINUOUS
  0
ENDTAB
  0
TABLE
  2
STYLE
 70
     2
  0
STYLE
  2
STANDARD
 70
     0
 40
0.0
 41
1.0
 50
0.0
 71
     0
 42
0.2
  3
simplex.shx
  4
bigfont.shx
  0
STYLE
  2
STANDARD1
 70
     0
 40
0.0
 41
1.0
 50
0.0
 71
     0
 42
3.0
  3
txt
  4

  0
ENDTAB
  0
TABLE
  2
VIEW
 70
     0
  0
ENDTAB
  0
TABLE
  2
UCS
 70
     0
  0
ENDTAB
  0
TABLE
  2
APPID
 70
     3
  0
APPID
  2
ACAD
 70
     0
  0
APPID
  2
ACAD_MLEADERVER
 70
     0
  0
APPID
  2
ACAD_NAV_VCDISPLAY
 70
     0
  0
ENDTAB
  0
TABLE
  2
DIMSTYLE
 70
     1
  0
DIMSTYLE
  2
STANDARD
 70
     0
  3

  4

  5

  6

  7

 40
1.0
 41
0.18
 42
0.0625
 43
0.38
 44
0.18
 45
0.0
 46
0.0
 47
0.0
 48
0.0
140
2.5
141
0.09
142
0.0
143
25.399999999999999
144
1.0
145
0.0
146
1.0
147
0.09
 71
     0
 72
     0
 73
     0
 74
     0
 75
     0
 76
     0
 77
     1
 78
     8
170
     0
171
     2
172
     0
173
     0
174
     0
175
     0
176
     0
177
     0
178
     0
  0
ENDTAB
  0
ENDSEC
  0
SECTION
  2
BLOCKS
  0
BLOCK
  8
0
  2
$MODEL_SPACE
 70
     0
 10
0.0
 20
0.0
 30
0.0
  3
$MODEL_SPACE
  1

  0
ENDBLK
  5
21
  8
0
  0
BLOCK
 67
     1
  8
0
  2
$PAPER_SPACE
 70
     0
 10
0.0
 20
0.0
 30
0.0
  3
$PAPER_SPACE
  1

  0
ENDBLK
  5
5B
 67
     1
  8
0
  0
ENDSEC
  0
SECTION
  2
ENTITIES
  0
LINE
  5
8DF
  8
1
 10
135.2897712965935
 20
78.790894694052724
 30
0.0
 11
135.2897712965935
 21
107.8312221098093
 31
0.0
  0
LINE
  5
8E0
  8
1
 10
101.89823865476011
 20
93.480682051117213
 30
0.0
 11
169.0298985111817
 21
93.480682051117213
 31
0.0
  0
CIRCLE
  5
8E1
  8
3
 10
159.7897712965935
 20
93.480682051117213
 30
0.0
 40
4.0
  0
CIRCLE
  5
8E2
  8
3
 10
110.7897712965935
 20
93.480682051117213
 30
0.0
 40
4.0
  0
CIRCLE
  5
8E8
  8
0
 10
110.7897712965935
 20
93.480682051117213
 30
0.0
 40
3.4500000000000171
  0
CIRCLE
  5
8E9
  8
0
 10
159.7897712965935
 20
93.480682051117213
 30
0.0
 40
3.4499999999999602
  0
LINE
  5
8EC
  8
0
 10
115.9141269495755
 20
80.980682051117213
 30
0.0
 11
154.66541564361151
 21
80.980682051117213
 31
0.0
  0
LINE
  5
8ED
  8
0
 10
154.66541564361151
 20
80.980682051117213
 30
0.0
 11
166.7897712965935
 21
87.980682051117199
 31
0.0
  0
LINE
  5
8EE
  8
0
 10
166.7897712965935
 20
87.980682051117199
 30
0.0
 11
166.7897712965935
 21
98.980682051117228
 31
0.0
  0
LINE
  5
8EF
  8
0
 10
166.7897712965935
 20
98.980682051117228
 30
0.0
 11
154.6654156436114
 21
105.9806820511172
 31
0.0
  0
LINE
  5
8F0
  8
0
 10
154.6654156436114
 20
105.9806820511172
 30
0.0
 11
115.9141269495755
 21
105.9806820511172
 31
0.0
  0
LINE
  5
8F1
  8
0
 10
115.9141269495755
 20
105.9806820511172
 30
0.0
 11
103.7897712965935
 21
98.980682051117228
 31
0.0
  0
LINE
  5
8F2
  8
0
 10
103.7897712965935
 20
98.980682051117228
 30
0.0
 11
103.7897712965935
 21
87.980682051117199
 31
0.0
  0
LINE
  5
8F3
  8
0
 10
103.7897712965935
 20
87.980682051117199
 30
0.0
 11
115.9141269495755
 21
80.980682051117213
 31
0.0
  0
LINE
  5
8F4
  8
0
 10
147.7897712965935
 20
97.980682051117228
 30
0.0
 11
122.7897712965935
 21
97.980682051117228
 31
0.0
  0
ARC
  5
8F5
  8
0
 10
147.7897712965935
 20
93.480682051117213
 30
0.0
 40
4.5
 50
270.0
 51
90.0
  0
LINE
  5
8F6
  8
0
 10
122.7897712965935
 20
88.980682051117185
 30
0.0
 11
147.7897712965935
 21
88.980682051117228
 31
0.0
  0
ARC
  5
8F7
  8
0
 10
122.7897712965935
 20
93.480682051117213
 30
0.0
 40
4.5000000000000284
 50
90.0
 51
270.0
  0
LINE
  5
8F8
  8
1
 10
135.2897712965935
 20
51.411763532437497
 30
0.0
 11
135.2897712965935
 21
31.771391244354088
 31
0.0
  0
LINE
  5
8FE
  8
1
 10
110.7897712965935
 20
49.744202352897453
 30
0.0
 11
110.7897712965935
 21
33.744202352897453
 31
0.0
  0
LINE
  5
8FF
  8
1
 10
122.7897712965935
 20
49.744202352897453
 30
0.0
 11
122.7897712965935
 21
33.744202352897453
 31
0.0
  0
LINE
  5
900
  8
1
 10
147.7897712965935
 20
49.744202352897453
 30
0.0
 11
147.7897712965935
 21
33.744202352897453
 31
0.0
  0
LINE
  5
903
  8
0
 10
166.7897712965935
 20
47.74420235289746
 30
0.0
 11
166.7897712965935
 21
35.744202352897453
 31
0.0
  0
LINE
  5
906
  8
0
 10
103.7897712965935
 20
47.74420235289746
 30
0.0
 11
103.7897712965935
 21
35.744202352897453
 31
0.0
  0
LINE
  5
909
  8
0
 10
154.66541564361151
 20
47.74420235289746
 30
0.0
 11
154.66541564361151
 21
35.744202352897453
 31
0.0
  0
LINE
  5
90A
  8
0
 10
115.9141269495755
 20
47.74420235289746
 30
0.0
 11
115.9141269495755
 21
35.744202352897453
 31
0.0
  0
LINE
  5
92B
  8
1
 10
147.7897712965935
 20
99.980682051117228
 30
0.0
 11
147.7897712965935
 21
86.980682051117256
 31
0.0
  0
LINE
  5
92C
  8
1
 10
159.7897712965935
 20
99.980682051117228
 30
0.0
 11
159.7897712965935
 21
86.980682051117256
 31
0.0
  0
LINE
  5
92D
  8
1
 10
110.7897712965935
 20
99.980682051117228
 30
0.0
 11
110.7897712965935
 21
86.980682051117256
 31
0.0
  0
LINE
  5
92E
  8
1
 10
122.7897712965935
 20
99.980682051117228
 30
0.0
 11
122.7897712965935
 21
86.980682051117256
 31
0.0
  0
LINE
  5
92F
  8
0
 10
103.7897712965935
 20
47.74420235289746
 30
0.0
 11
166.7897712965935
 21
47.744202352897453
 31
0.0
  0
LINE
  5
930
  8
0
 10
103.7897712965935
 20
35.744202352897453
 30
0.0
 11
166.7897712965935
 21
35.744202352897453
 31
0.0
  0
LINE
  5
931
  8
1
 10
159.7897712965935
 20
49.744202352897453
 30
0.0
 11
159.7897712965935
 21
33.744202352897453
 31
0.0
  0
LINE
  5
948
  8
0
 10
68.389195558157553
 20
105.9806820511172
 30
0.0
 11
68.389195558157553
 21
80.980682051117213
 31
0.0
  0
LINE
  5
949
  8
0
 10
68.389195558157553
 20
105.9806820511172
 30
0.0
 11
80.389195558157567
 21
105.9806820511172
 31
0.0
  0
LINE
  5
94A
  8
0
 10
80.389195558157567
 20
98.98068205111727
 30
0.0
 11
68.389195558157553
 21
98.980682051117228
 31
0.0
  0
LINE
  5
94B
  8
0
 10
80.389195558157567
 20
87.980682051117228
 30
0.0
 11
68.389195558157553
 21
87.980682051117199
 31
0.0
  0
LINE
  5
94C
  8
0
 10
80.389195558157567
 20
80.980682051117213
 30
0.0
 11
68.389195558157553
 21
80.980682051117213
 31
0.0
  0
LINE
  5
94D
  8
0
 10
80.389195558157567
 20
105.9806820511172
 30
0.0
 11
80.389195558157567
 21
80.980682051117213
 31
0.0
  0
LINE
  5
94E
  8
1
 10
63.939306758650588
 20
93.480682051117213
 30
0.0
 11
84.839084357664504
 21
93.480682051117213
 31
0.0
  0
TEXT
  5
AC8
  8
0
 62
     3
 10
0.0
 20
0.0
 30
0.0
 40
10.0
  1
BJ159-08063
  7
STANDARD1
  0
ENDSEC
  0
EOF
