  0
SECTION
  2
HEADER
  9
$ACADVER
  1
AC1009
  9
$INSBASE
 10
82.638099999999994
 20
103.82319099999999
 30
0.0
  9
$EXTMIN
 10
0.0
 20
-2.960436562073669
 30
0.0
  9
$EXTMAX
 10
347.58288263308202
 20
240.0
 30
0.0
  9
$LIMMIN
 10
0.0
 20
0.0
  9
$LIMMAX
 10
375.0
 20
270.0
  9
$ORTHOMODE
 70
     1
  9
$REGENMODE
 70
     1
  9
$FILLMODE
 70
     1
  9
$QTEXTMODE
 70
     0
  9
$MIRRTEXT
 70
     0
  9
$DRAGMODE
 70
     2
  9
$LTSCALE
 40
10.0
  9
$OSMODE
 70
  3071
  9
$ATTMODE
 70
     1
  9
$TEXTSIZE
 40
0.06
  9
$TRACEWID
 40
0.05
  9
$TEXTSTYLE
  7
STANDARD
  9
$CLAYER
  8
0
  9
$CELTYPE
  6
BYLAYER
  9
$CECOLOR
 62
   256
  9
$DIMSCALE
 40
1.0
  9
$DIMASZ
 40
3.0
  9
$DIMEXO
 40
2.0
  9
$DIMDLI
 40
10.0
  9
$DIMRND
 40
0.0
  9
$DIMDLE
 40
0.0
  9
$DIMEXE
 40
2.0
  9
$DIMTP
 40
0.0
  9
$DIMTM
 40
0.0
  9
$DIMTXT
 40
3.0
  9
$DIMCEN
 40
0.0
  9
$DIMTSZ
 40
0.0
  9
$DIMTOL
 70
     0
  9
$DIMLIM
 70
     0
  9
$DIMTIH
 70
     0
  9
$DIMTOH
 70
     0
  9
$DIMSE1
 70
     0
  9
$DIMSE2
 70
     0
  9
$DIMTAD
 70
     1
  9
$DIMZIN
 70
     0
  9
$DIMBLK
  1

  9
$DIMASO
 70
     0
  9
$DIMSHO
 70
     0
  9
$DIMPOST
  1

  9
$DIMAPOST
  1

  9
$DIMALT
 70
     0
  9
$DIMALTD
 70
     2
  9
$DIMALTF
 40
25.399999999999999
  9
$DIMLFAC
 40
1.0
  9
$DIMTOFL
 70
     1
  9
$DIMTVP
 40
1.6000000000000001
  9
$DIMTIX
 70
     1
  9
$DIMSOXD
 70
     0
  9
$DIMSAH
 70
     0
  9
$DIMBLK1
  1

  9
$DIMBLK2
  1

  9
$DIMSTYLE
  2
STANDARD
  9
$DIMCLRD
 70
     0
  9
$DIMCLRE
 70
     0
  9
$DIMCLRT
 70
     0
  9
$DIMTFAC
 40
1.0
  9
$DIMGAP
 40
0.09
  9
$LUNITS
 70
     2
  9
$LUPREC
 70
     4
  9
$SKETCHINC
 40
0.1
  9
$FILLETRAD
 40
0.0
  9
$AUNITS
 70
     0
  9
$AUPREC
 70
     4
  9
$MENU
  1
E:\r13\win\SUPPORT\ACAD
  9
$ELEVATION
 40
0.0
  9
$PELEVATION
 40
0.0
  9
$THICKNESS
 40
0.0
  9
$LIMCHECK
 70
     0
  9
$BLIPMODE
 70
     0
  9
$CHAMFERA
 40
0.0
  9
$CHAMFERB
 40
0.0
  9
$SKPOLY
 70
     0
  9
$TDCREATE
 40
2449840.3485069438
  9
$TDUPDATE
 40
2456597.6491653821
  9
$TDINDWG
 40
0.007980787
  9
$TDUSRTIMER
 40
0.007980787
  9
$USRTIMER
 70
     1
  9
$ANGBASE
 50
0.0
  9
$ANGDIR
 70
     0
  9
$PDMODE
 70
     1
  9
$PDSIZE
 40
0.0
  9
$PLINEWID
 40
0.0
  9
$COORDS
 70
     1
  9
$SPLFRAME
 70
     0
  9
$SPLINETYPE
 70
     6
  9
$SPLINESEGS
 70
     8
  9
$ATTDIA
 70
     0
  9
$ATTREQ
 70
     1
  9
$HANDLING
 70
     1
  9
$HANDSEED
  5
634
  9
$SURFTAB1
 70
     6
  9
$SURFTAB2
 70
     6
  9
$SURFTYPE
 70
     6
  9
$SURFU
 70
     6
  9
$SURFV
 70
     6
  9
$UCSNAME
  2

  9
$UCSORG
 10
0.0
 20
0.0
 30
0.0
  9
$UCSXDIR
 10
1.0
 20
0.0
 30
0.0
  9
$UCSYDIR
 10
0.0
 20
1.0
 30
0.0
  9
$PUCSNAME
  2

  9
$PUCSORG
 10
0.0
 20
0.0
 30
0.0
  9
$PUCSXDIR
 10
1.0
 20
0.0
 30
0.0
  9
$PUCSYDIR
 10
0.0
 20
1.0
 30
0.0
  9
$USERI1
 70
     3
  9
$USERI2
 70
     1
  9
$USERI3
 70
     0
  9
$USERI4
 70
     0
  9
$USERI5
 70
     0
  9
$USERR1
 40
1.0
  9
$USERR2
 40
3.0
  9
$USERR3
 40
3.0
  9
$USERR4
 40
3.0
  9
$USERR5
 40
10.0
  9
$WORLDVIEW
 70
     1
  9
$SHADEDGE
 70
     3
  9
$SHADEDIF
 70
    70
  9
$TILEMODE
 70
     1
  9
$MAXACTVP
 70
    16
  9
$PLIMCHECK
 70
     0
  9
$PEXTMIN
 10
1.0000000000000000E+020
 20
1.0000000000000000E+020
 30
1.0000000000000000E+020
  9
$PEXTMAX
 10
-1.0000000000000000E+020
 20
-1.0000000000000000E+020
 30
-1.0000000000000000E+020
  9
$PLIMMIN
 10
0.0
 20
0.0
  9
$PLIMMAX
 10
12.0
 20
9.0
  9
$UNITMODE
 70
     0
  9
$VISRETAIN
 70
     0
  9
$PLINEGEN
 70
     0
  9
$PSLTSCALE
 70
     0
  0
ENDSEC
  0
SECTION
  2
TABLES
  0
TABLE
  2
VPORT
 70
     1
  0
VPORT
  2
*ACTIVE
 70
     0
 10
0.0
 20
0.0
 11
1.0
 21
1.0
 12
195.0581083320873
 22
133.5127261426681
 13
0.0
 23
0.0
 14
5.0
 24
5.0
 15
10.0
 25
10.0
 16
0.0
 26
0.0
 36
1.0
 17
0.0
 27
0.0
 37
0.0
 40
275.42274993631997
 41
1.831871345029239
 42
50.0
 43
0.0
 44
0.0
 50
0.0
 51
0.0
 71
     0
 72
   100
 73
     1
 74
     0
 75
     0
 76
     0
 77
     0
 78
     0
  0
ENDTAB
  0
TABLE
  2
LTYPE
 70
     4
  0
LTYPE
  2
CONTINUOUS
 70
     0
  3
Solid Line
 72
    65
 73
     0
 40
0.0
  0
LTYPE
  2
CENTER
 70
     0
  3
____ _ ____ _ ____ _ ____ _ ____ _ ____ _ ____
 72
    65
 73
     4
 40
2.0
 49
1.25
 49
-0.25
 49
0.25
 49
-0.25
  0
LTYPE
  2
HIDDEN
 70
     0
  3
__ __ __ __ __ __ __ __ __ __ __ __ __ __ __ __
 72
    65
 73
     2
 40
0.375
 49
0.25
 49
-0.125
  0
LTYPE
  2
PHANTOM2
 70
     0
  3
___ _ _ ___ _ _ ___ _ _ ___ _ _
 72
    65
 73
     6
 40
1.25
 49
0.625
 49
-0.125
 49
0.125
 49
-0.125
 49
0.125
 49
-0.125
  0
ENDTAB
  0
TABLE
  2
LAYER
 70
     4
  0
LAYER
  2
0
 70
     0
 62
     7
  6
CONTINUOUS
  0
LAYER
  2
1
 70
     0
 62
     1
  6
CENTER
  0
LAYER
  2
2
 70
     0
 62
     2
  6
HIDDEN
  0
LAYER
  2
3
 70
     0
 62
     3
  6
CONTINUOUS
  0
ENDTAB
  0
TABLE
  2
STYLE
 70
     2
  0
STYLE
  2
STANDARD
 70
     0
 40
0.0
 41
1.0
 50
0.0
 71
     0
 42
0.06
  3
TXT
  4
BIGFONT
  0
STYLE
  2
STANDARD1
 70
     0
 40
0.0
 41
1.0
 50
0.0
 71
     0
 42
3.0
  3
txt
  4

  0
ENDTAB
  0
TABLE
  2
VIEW
 70
     0
  0
ENDTAB
  0
TABLE
  2
UCS
 70
     0
  0
ENDTAB
  0
TABLE
  2
APPID
 70
     4
  0
APPID
  2
ACAD
 70
     0
  0
APPID
  2
ACAD_EXEMPT_FROM_CAD_STANDARDS
 70
     0
  0
APPID
  2
ACAD_MLEADERVER
 70
     0
  0
APPID
  2
ACAD_NAV_VCDISPLAY
 70
     0
  0
ENDTAB
  0
TABLE
  2
DIMSTYLE
 70
     1
  0
DIMSTYLE
  2
STANDARD
 70
     0
  3

  4

  5

  6

  7

 40
1.0
 41
0.18
 42
0.0625
 43
0.38
 44
0.18
 45
0.0
 46
0.0
 47
0.0
 48
0.0
140
0.18
141
0.09
142
0.0
143
25.399999999999999
144
1.0
145
0.0
146
1.0
147
0.09
 71
     0
 72
     0
 73
     1
 74
     1
 75
     0
 76
     0
 77
     0
 78
     0
170
     0
171
     2
172
     0
173
     0
174
     0
175
     0
176
     0
177
     0
178
     0
  0
ENDTAB
  0
ENDSEC
  0
SECTION
  2
BLOCKS
  0
BLOCK
  8
0
  2
$MODEL_SPACE
 70
     0
 10
0.0
 20
0.0
 30
0.0
  3
$MODEL_SPACE
  1

  0
ENDBLK
  5
223
  8
0
  0
BLOCK
 67
     1
  8
0
  2
$PAPER_SPACE
 70
     0
 10
0.0
 20
0.0
 30
0.0
  3
$PAPER_SPACE
  1

  0
ENDBLK
  5
221
 67
     1
  8
0
  0
ENDSEC
  0
SECTION
  2
ENTITIES
  0
LINE
  5
290
  8
1
 10
130.0
 20
133.0
 30
0.0
 11
130.0
 21
102.0
 31
0.0
  0
LINE
  5
292
  8
0
 10
265.0
 20
105.5
 30
0.0
 11
264.5
 21
105.0
 31
0.0
  0
LINE
  5
293
  8
0
 10
264.5
 20
130.0
 30
0.0
 11
265.0
 21
129.5
 31
0.0
  0
LINE
  5
294
  8
0
 10
105.5
 20
130.0
 30
0.0
 11
105.0
 21
129.5
 31
0.0
  0
LINE
  5
295
  8
0
 10
265.0
 20
129.5
 30
0.0
 11
265.0
 21
105.5
 31
0.0
  0
LINE
  5
296
  8
0
 10
105.0
 20
129.5
 30
0.0
 11
105.0
 21
106.60769500000001
 31
0.0
  0
LINE
  5
297
  8
0
 10
135.63325
 20
105.0
 30
0.0
 11
264.5
 21
105.0
 31
0.0
  0
LINE
  5
298
  8
0
 10
105.5
 20
130.0
 30
0.0
 11
264.5
 21
130.0
 31
0.0
  0
LINE
  5
299
  8
1
 10
250.0
 20
133.0
 30
0.0
 11
250.0
 21
102.0
 31
0.0
  0
LINE
  5
29A
  8
2
 10
190.0
 20
110.0
 30
0.0
 11
265.0
 21
110.0
 31
0.0
  0
LINE
  5
29B
  8
2
 10
121.5
 20
130.0
 30
0.0
 11
121.5
 21
106.57036100000001
 31
0.0
  0
LINE
  5
29C
  8
2
 10
198.5
 20
130.0
 30
0.0
 11
198.5
 21
110.0
 31
0.0
  0
LINE
  5
29D
  8
2
 10
242.0
 20
129.0
 30
0.0
 11
242.0
 21
110.0
 31
0.0
  0
LINE
  5
29E
  8
2
 10
243.0
 20
128.0
 30
0.0
 11
243.0
 21
110.0
 31
0.0
  0
LINE
  5
29F
  8
2
 10
241.0
 20
130.0
 30
0.0
 11
243.0
 21
128.0
 31
0.0
  0
LINE
  5
2A0
  8
2
 10
259.0
 20
130.0
 30
0.0
 11
257.0
 21
128.0
 31
0.0
  0
LINE
  5
2A1
  8
2
 10
257.0
 20
128.0
 30
0.0
 11
257.0
 21
110.0
 31
0.0
  0
LINE
  5
2A2
  8
2
 10
258.0
 20
129.0
 30
0.0
 11
258.0
 21
110.0
 31
0.0
  0
LINE
  5
2A3
  8
2
 10
243.0
 20
128.0
 30
0.0
 11
257.0
 21
128.0
 31
0.0
  0
ARC
  5
2A4
  8
0
 10
111.0
 20
117.0
 30
0.0
 40
12.0
 50
239.99999999999989
 51
303.55731000000043
  0
LINE
  5
2A5
  8
0
 10
135.63325
 20
105.0
 30
0.0
 11
117.63325
 21
107.0
 31
0.0
  0
LINE
  5
2A6
  8
0
 10
105.0
 20
196.5
 30
0.0
 11
105.5
 21
196.0
 31
0.0
  0
LINE
  5
2A7
  8
0
 10
265.0
 20
196.5
 30
0.0
 11
264.5
 21
196.0
 31
0.0
  0
LINE
  5
2A8
  8
0
 10
264.5
 20
234.0
 30
0.0
 11
265.0
 21
233.5
 31
0.0
  0
LINE
  5
2A9
  8
0
 10
105.5
 20
234.0
 30
0.0
 11
105.0
 21
233.5
 31
0.0
  0
LINE
  5
2AA
  8
0
 10
105.5
 20
196.0
 30
0.0
 11
264.5
 21
196.0
 31
0.0
  0
LINE
  5
2AB
  8
0
 10
105.5
 20
234.0
 30
0.0
 11
264.5
 21
234.0
 31
0.0
  0
LINE
  5
2AD
  8
0
 10
265.0
 20
233.5
 30
0.0
 11
265.0
 21
196.5
 31
0.0
  0
LINE
  5
2AE
  8
0
 10
105.0
 20
233.5
 30
0.0
 11
105.0
 21
196.5
 31
0.0
  0
LINE
  5
2AF
  8
2
 10
117.63325
 20
196.0
 30
0.0
 11
117.63325
 21
234.0
 31
0.0
  0
LINE
  5
2B0
  8
2
 10
135.63325
 20
196.0
 30
0.0
 11
135.63325
 21
206.5
 31
0.0
  0
LINE
  5
2B1
  8
2
 10
135.63325
 20
223.5
 30
0.0
 11
135.63325
 21
234.0
 31
0.0
  0
ARC
  5
2B2
  8
0
 10
130.0
 20
215.0
 30
0.0
 40
8.5
 50
90.0
 51
270.0
  0
ARC
  5
2B3
  8
2
 10
190.0
 20
215.0
 30
0.0
 40
8.5
 50
270.0
 51
90.0
  0
LINE
  5
2B4
  8
0
 10
130.0
 20
223.5
 30
0.0
 11
176.44455828827401
 21
223.5
 31
0.0
  0
LINE
  5
2B5
  8
0
 10
130.0
 20
206.5
 30
0.0
 11
176.44455828827401
 21
206.5
 31
0.0
  0
LINE
  5
2B6
  8
1
 10
130.0
 20
226.5
 30
0.0
 11
130.0
 21
203.5
 31
0.0
  0
CIRCLE
  5
2B8
  8
0
 10
250.0
 20
215.0
 30
0.0
 40
7.0
  0
CIRCLE
  5
2B9
  8
3
 10
250.0
 20
215.0
 30
0.0
 40
8.0
  0
LINE
  5
2BA
  8
1
 10
250.0
 20
202.5
 30
0.0
 11
250.0
 21
227.5
 31
0.0
  0
LINE
  5
2BB
  8
2
 10
176.44455828827401
 20
206.5
 30
0.0
 11
265.0
 21
206.5
 31
0.0
  0
LINE
  5
2BC
  8
2
 10
176.44455828827401
 20
223.5
 30
0.0
 11
265.0
 21
223.5
 31
0.0
  0
ARC
  5
2BD
  8
0
 10
52.962530672132281
 20
72.381197999999983
 30
0.0
 40
17.33012699999999
 50
69.743842000000313
 51
110.2561579999997
  0
LINE
  5
2BE
  8
0
 10
58.962530672132289
 20
89.711325000000016
 30
0.0
 11
58.462530672132289
 21
90.0
 31
0.0
  0
LINE
  5
2BF
  8
0
 10
58.962530672132289
 20
80.288674999999998
 30
0.0
 11
58.462530672132289
 21
80.0
 31
0.0
  0
ARC
  5
2C0
  8
0
 10
52.962530672132281
 20
97.618802000000002
 30
0.0
 40
17.33012699999999
 50
249.74384200000031
 51
290.25615800000008
  0
LINE
  5
2C1
  8
0
 10
58.962530672132289
 20
89.711325000000016
 30
0.0
 11
58.962530672132289
 21
80.288674999999998
 31
0.0
  0
LINE
  5
2C2
  8
0
 10
46.962530672132289
 20
81.360472000000001
 30
0.0
 11
46.962530672132289
 21
88.639527999999984
 31
0.0
  0
LINE
  5
2C3
  8
0
 10
34.962530672132289
 20
89.711325000000016
 30
0.0
 11
34.962530672132289
 21
80.288674999999998
 31
0.0
  0
ARC
  5
2C4
  8
0
 10
40.962530672132281
 20
97.618802000000002
 30
0.0
 40
17.33012699999999
 50
249.74384200000031
 51
290.25615800000008
  0
LINE
  5
2C5
  8
0
 10
34.962530672132289
 20
80.288674999999998
 30
0.0
 11
35.462530672132289
 21
80.0
 31
0.0
  0
LINE
  5
2C6
  8
0
 10
34.962530672132289
 20
89.711325000000016
 30
0.0
 11
35.462530672132289
 21
90.0
 31
0.0
  0
ARC
  5
2C7
  8
0
 10
40.962530672132281
 20
72.381197999999983
 30
0.0
 40
17.33012699999999
 50
69.743842000000313
 51
110.2561579999997
  0
LINE
  5
2C8
  8
0
 10
35.462530672132289
 20
90.0
 30
0.0
 11
58.462530672132289
 21
90.0
 31
0.0
  0
LINE
  5
2C9
  8
0
 10
58.462530672132289
 20
80.0
 30
0.0
 11
35.462530672132289
 21
80.0
 31
0.0
  0
LINE
  5
2CA
  8
1
 10
46.962530672132289
 20
167.5
 30
0.0
 11
46.962530672132289
 21
44.970907800533951
 31
0.0
  0
LINE
  5
2CB
  8
0
 10
52.962530672132281
 20
60.0
 30
0.0
 11
54.962530672132289
 21
62.0
 31
0.0
  0
LINE
  5
2CC
  8
0
 10
38.962530672132289
 20
158.0
 30
0.0
 11
54.962530672132289
 21
158.0
 31
0.0
  0
LINE
  5
2CD
  8
3
 10
40.031469672132282
 20
157.15346199999999
 30
0.0
 11
40.031469672132282
 21
159.068939
 31
0.0
  0
LINE
  5
2D1
  8
3
 10
53.893590672132291
 20
157.15346199999999
 30
0.0
 11
53.893590672132291
 21
159.068939
 31
0.0
  0
LINE
  5
2D2
  8
3
 10
53.893590672132291
 20
100.0
 30
0.0
 11
53.893590672132291
 21
90.0
 31
0.0
  0
LINE
  5
2D3
  8
3
 10
54.962530672132289
 20
101.851457
 30
0.0
 11
53.893591672132281
 21
100.0
 31
0.0
  0
LINE
  5
2D4
  8
0
 10
38.962530672132289
 20
100.0
 30
0.0
 11
54.962530672132289
 21
100.0
 31
0.0
  0
LINE
  5
2D5
  8
3
 10
40.031469672132282
 20
100.0
 30
0.0
 11
40.031469672132282
 21
90.0
 31
0.0
  0
LINE
  5
2D6
  8
3
 10
38.962530672132289
 20
101.851457
 30
0.0
 11
40.031469672132282
 21
100.0
 31
0.0
  0
LINE
  5
2D7
  8
0
 10
38.962530672132289
 20
62.0
 30
0.0
 11
54.962530672132289
 21
62.0
 31
0.0
  0
LINE
  5
2D8
  8
0
 10
38.962530672132289
 20
62.0
 30
0.0
 11
40.962530672132281
 21
60.0
 31
0.0
  0
LINE
  5
2D9
  8
0
 10
38.962530672132289
 20
158.0
 30
0.0
 11
40.962530672132281
 21
160.0
 31
0.0
  0
LINE
  5
2DA
  8
0
 10
54.962530672132289
 20
158.0
 30
0.0
 11
52.962530672132281
 21
160.0
 31
0.0
  0
LINE
  5
2DB
  8
0
 10
54.962530672132289
 20
158.0
 30
0.0
 11
54.962530672132289
 21
157.15346199999999
 31
0.0
  0
LINE
  5
2DC
  8
0
 10
40.962530672132281
 20
160.0
 30
0.0
 11
52.962530672132281
 21
160.0
 31
0.0
  0
LINE
  5
2DD
  8
0
 10
38.962530672132289
 20
62.0
 30
0.0
 11
38.962530672132289
 21
80.0
 31
0.0
  0
LINE
  5
2DE
  8
0
 10
52.962530672132281
 20
60.0
 30
0.0
 11
40.962530672132281
 21
60.0
 31
0.0
  0
ARC
  5
2DF
  8
0
 10
334.58288263308202
 20
72.381197999999983
 30
0.0
 40
17.33012699999999
 50
69.743841999999887
 51
110.2561580000001
  0
LINE
  5
2E0
  8
0
 10
340.58288263308202
 20
89.711325000000016
 30
0.0
 11
340.08288263308202
 21
90.0
 31
0.0
  0
LINE
  5
2E1
  8
0
 10
340.58288263308202
 20
80.288674999999998
 30
0.0
 11
340.08288263308202
 21
80.0
 31
0.0
  0
ARC
  5
2E2
  8
0
 10
334.58288263308202
 20
97.618802000000002
 30
0.0
 40
17.33012699999999
 50
249.74384199999989
 51
290.25615800000008
  0
LINE
  5
2E3
  8
0
 10
340.58288263308202
 20
89.711325000000016
 30
0.0
 11
340.58288263308202
 21
80.288674999999998
 31
0.0
  0
LINE
  5
2E4
  8
0
 10
328.58288263308202
 20
81.360472000000001
 30
0.0
 11
328.58288263308202
 21
88.639527999999984
 31
0.0
  0
LINE
  5
2E5
  8
0
 10
316.58288263308202
 20
89.711325000000016
 30
0.0
 11
316.58288263308202
 21
80.288674999999998
 31
0.0
  0
ARC
  5
2E6
  8
0
 10
322.58288263308202
 20
97.618802000000002
 30
0.0
 40
17.33012699999999
 50
249.74384199999989
 51
290.25615800000008
  0
LINE
  5
2E7
  8
0
 10
316.58288263308202
 20
80.288674999999998
 30
0.0
 11
317.08288263308202
 21
80.0
 31
0.0
  0
LINE
  5
2E8
  8
0
 10
316.58288263308202
 20
89.711325000000016
 30
0.0
 11
317.08288263308202
 21
90.0
 31
0.0
  0
ARC
  5
2E9
  8
0
 10
322.58288263308202
 20
72.381197999999983
 30
0.0
 40
17.33012699999999
 50
69.743841999999887
 51
110.2561580000001
  0
LINE
  5
2EA
  8
0
 10
317.08288263308202
 20
90.0
 30
0.0
 11
340.08288263308202
 21
90.0
 31
0.0
  0
LINE
  5
2EB
  8
0
 10
340.08288263308202
 20
80.0
 30
0.0
 11
317.08288263308202
 21
80.0
 31
0.0
  0
LINE
  5
2EC
  8
0
 10
201.5
 20
80.0
 30
0.0
 11
178.5
 21
80.0
 31
0.0
  0
LINE
  5
2ED
  8
0
 10
178.5
 20
90.0
 30
0.0
 11
201.5
 21
90.0
 31
0.0
  0
ARC
  5
2EE
  8
0
 10
200.39230499999999
 20
83.577349999999996
 30
0.0
 40
6.1339750000000004
 50
64.384247000000116
 51
124.3842470000001
  0
LINE
  5
2EF
  8
0
 10
203.85640599999999
 20
88.639527999999984
 30
0.0
 11
201.5
 21
90.0
 31
0.0
  0
LINE
  5
2F0
  8
0
 10
203.85640599999999
 20
81.360472000000001
 30
0.0
 11
201.5
 21
80.0
 31
0.0
  0
ARC
  5
2F1
  8
0
 10
200.39230499999999
 20
86.422650000000004
 30
0.0
 40
6.1339750000000004
 50
235.6157529999999
 51
295.61575299999993
  0
LINE
  5
2F2
  8
0
 10
203.85640599999999
 20
88.639527999999984
 30
0.0
 11
203.85640599999999
 21
81.360472000000001
 31
0.0
  0
LINE
  5
2F3
  8
0
 10
196.928203
 20
88.639527999999984
 30
0.0
 11
196.928203
 21
81.360472000000001
 31
0.0
  0
LINE
  5
2F4
  8
0
 10
183.071797
 20
88.639527999999984
 30
0.0
 11
183.071797
 21
81.360472000000001
 31
0.0
  0
LINE
  5
2F5
  8
0
 10
176.14359400000001
 20
88.639527999999984
 30
0.0
 11
176.14359400000001
 21
81.360472000000001
 31
0.0
  0
ARC
  5
2F6
  8
0
 10
190.0
 20
103.21687799999999
 30
0.0
 40
22.928203
 50
252.41204599999941
 51
287.58795400000059
  0
ARC
  5
2F7
  8
0
 10
179.60769500000001
 20
86.422650000000004
 30
0.0
 40
6.1339750000000004
 50
244.3842470000001
 51
304.38424700000007
  0
LINE
  5
2F8
  8
0
 10
176.14359400000001
 20
81.360472000000001
 30
0.0
 11
178.5
 21
80.0
 31
0.0
  0
LINE
  5
2F9
  8
0
 10
176.14359400000001
 20
88.639527999999984
 30
0.0
 11
178.5
 21
90.0
 31
0.0
  0
ARC
  5
2FA
  8
0
 10
179.60769500000001
 20
83.577349999999996
 30
0.0
 40
6.1339750000000004
 50
55.61575299999987
 51
115.6157529999999
  0
ARC
  5
2FB
  8
0
 10
190.0
 20
66.783122000000006
 30
0.0
 40
22.928203
 50
72.412045999999393
 51
107.58795400000059
  0
LINE
  5
2FC
  8
1
 10
190.0
 20
167.5
 30
0.0
 11
190.0
 21
52.5
 31
0.0
  0
LINE
  5
2FD
  8
0
 10
196.0
 20
60.0
 30
0.0
 11
198.0
 21
62.0
 31
0.0
  0
LINE
  5
2FE
  8
0
 10
182.0
 20
158.0
 30
0.0
 11
198.0
 21
158.0
 31
0.0
  0
LINE
  5
2FF
  8
3
 10
183.068939
 20
157.15346199999999
 30
0.0
 11
183.068939
 21
159.068939
 31
0.0
  0
LINE
  5
303
  8
3
 10
196.93105999999989
 20
157.15346199999999
 30
0.0
 11
196.93106
 21
159.068939
 31
0.0
  0
LINE
  5
304
  8
3
 10
196.93106
 20
100.0
 30
0.0
 11
196.93106
 21
90.0
 31
0.0
  0
LINE
  5
305
  8
3
 10
198.0
 20
101.851457
 30
0.0
 11
196.931061
 21
100.0
 31
0.0
  0
LINE
  5
306
  8
0
 10
182.0
 20
100.0
 30
0.0
 11
198.0
 21
100.0
 31
0.0
  0
LINE
  5
307
  8
3
 10
183.068939
 20
100.0
 30
0.0
 11
183.068939
 21
90.0
 31
0.0
  0
LINE
  5
308
  8
3
 10
182.0
 20
101.851457
 30
0.0
 11
183.068939
 21
100.0
 31
0.0
  0
LINE
  5
309
  8
0
 10
182.0
 20
62.0
 30
0.0
 11
198.0
 21
62.0
 31
0.0
  0
LINE
  5
30A
  8
0
 10
182.0
 20
62.0
 30
0.0
 11
184.0
 21
60.0
 31
0.0
  0
LINE
  5
30B
  8
0
 10
182.0
 20
158.0
 30
0.0
 11
184.0
 21
160.0
 31
0.0
  0
LINE
  5
30C
  8
0
 10
198.0
 20
158.0
 30
0.0
 11
196.0
 21
160.0
 31
0.0
  0
LINE
  5
30D
  8
0
 10
198.0
 20
158.0
 30
0.0
 11
198.0
 21
157.15346199999999
 31
0.0
  0
LINE
  5
30E
  8
0
 10
184.0
 20
160.0
 30
0.0
 11
196.0
 21
160.0
 31
0.0
  0
LINE
  5
30F
  8
0
 10
182.0
 20
62.0
 30
0.0
 11
182.0
 21
80.0
 31
0.0
  0
LINE
  5
310
  8
0
 10
196.0
 20
60.0
 30
0.0
 11
184.0
 21
60.0
 31
0.0
  0
LINE
  5
311
  8
0
 10
266.5
 20
80.0
 30
0.0
 11
243.5
 21
80.0
 31
0.0
  0
LINE
  5
312
  8
0
 10
243.5
 20
90.0
 30
0.0
 11
266.5
 21
90.0
 31
0.0
  0
ARC
  5
313
  8
0
 10
265.39230500000002
 20
83.577349999999996
 30
0.0
 40
6.1339750000000004
 50
64.384247000000116
 51
124.3842470000001
  0
LINE
  5
314
  8
0
 10
268.85640599999999
 20
88.639527999999984
 30
0.0
 11
266.5
 21
90.0
 31
0.0
  0
LINE
  5
315
  8
0
 10
268.85640599999999
 20
81.360472000000001
 30
0.0
 11
266.5
 21
80.0
 31
0.0
  0
ARC
  5
316
  8
0
 10
265.39230500000002
 20
86.422650000000004
 30
0.0
 40
6.1339750000000004
 50
235.6157529999999
 51
295.61575299999993
  0
LINE
  5
317
  8
0
 10
268.85640599999999
 20
88.639527999999984
 30
0.0
 11
268.85640599999999
 21
81.360472000000001
 31
0.0
  0
LINE
  5
318
  8
0
 10
261.928203
 20
88.639527999999984
 30
0.0
 11
261.928203
 21
81.360472000000001
 31
0.0
  0
LINE
  5
319
  8
0
 10
248.071797
 20
88.639527999999984
 30
0.0
 11
248.071797
 21
81.360472000000001
 31
0.0
  0
LINE
  5
31A
  8
0
 10
241.14359400000001
 20
88.639527999999984
 30
0.0
 11
241.14359400000001
 21
81.360472000000001
 31
0.0
  0
ARC
  5
31B
  8
0
 10
255.0
 20
103.21687799999999
 30
0.0
 40
22.928203
 50
252.41204599999941
 51
287.58795400000059
  0
ARC
  5
31C
  8
0
 10
244.60769500000001
 20
86.422650000000004
 30
0.0
 40
6.1339750000000004
 50
244.3842470000001
 51
304.38424700000007
  0
LINE
  5
31D
  8
0
 10
241.14359400000001
 20
81.360472000000001
 30
0.0
 11
243.5
 21
80.0
 31
0.0
  0
LINE
  5
31E
  8
0
 10
241.14359400000001
 20
88.639527999999984
 30
0.0
 11
243.5
 21
90.0
 31
0.0
  0
ARC
  5
31F
  8
0
 10
244.60769500000001
 20
83.577349999999996
 30
0.0
 40
6.1339750000000004
 50
55.61575299999987
 51
115.6157529999999
  0
ARC
  5
320
  8
0
 10
255.0
 20
66.783122000000006
 30
0.0
 40
22.928203
 50
72.412045999999393
 51
107.58795400000059
  0
LINE
  5
322
  8
0
 10
269.0
 20
105.0
 30
0.0
 11
270.0
 21
104.42265
 31
0.0
  0
LINE
  5
323
  8
0
 10
241.0
 20
105.0
 30
0.0
 11
240.0
 21
104.42265
 31
0.0
  0
LINE
  5
324
  8
0
 10
270.0
 20
104.42265
 30
0.0
 11
270.0
 21
95.577349999999996
 31
0.0
  0
LINE
  5
325
  8
0
 10
269.0
 20
105.0
 30
0.0
 11
241.0
 21
105.0
 31
0.0
  0
LINE
  5
326
  8
0
 10
241.0
 20
95.0
 30
0.0
 11
240.0
 21
95.577349999999996
 31
0.0
  0
LINE
  5
327
  8
0
 10
240.0
 20
95.577349999999996
 30
0.0
 11
240.0
 21
104.42265
 31
0.0
  0
LINE
  5
328
  8
0
 10
269.0
 20
95.0
 30
0.0
 11
270.0
 21
95.577349999999996
 31
0.0
  0
LINE
  5
329
  8
0
 10
269.0
 20
95.0
 30
0.0
 11
241.0
 21
95.0
 31
0.0
  0
LINE
  5
32A
  8
1
 10
255.0
 20
114.0
 30
0.0
 11
255.0
 21
44.970907800533951
 31
0.0
  0
LINE
  5
32B
  8
0
 10
261.0
 20
52.0
 30
0.0
 11
249.0
 21
52.0
 31
0.0
  0
LINE
  5
32C
  8
0
 10
247.0
 20
54.0
 30
0.0
 11
247.0
 21
80.0
 31
0.0
  0
LINE
  5
32D
  8
0
 10
263.0
 20
54.0
 30
0.0
 11
261.0
 21
52.0
 31
0.0
  0
LINE
  5
32E
  8
0
 10
249.0
 20
52.0
 30
0.0
 11
247.0
 21
54.0
 31
0.0
  0
LINE
  5
32F
  8
0
 10
247.0
 20
54.0
 30
0.0
 11
263.0
 21
54.0
 31
0.0
  0
LINE
  5
330
  8
0
 10
247.0
 20
92.725054999999983
 30
0.0
 11
263.0
 21
92.725054999999983
 31
0.0
  0
LINE
  5
331
  8
3
 10
248.08250000000001
 20
92.725054999999983
 30
0.0
 11
248.08250000000001
 21
90.0
 31
0.0
  0
LINE
  5
332
  8
3
 10
248.08250000000001
 20
92.725054999999983
 30
0.0
 11
247.0
 21
94.599999999999994
 31
0.0
  0
ARC
  5
333
  8
0
 10
255.0
 20
82.5
 30
0.0
 40
22.5
 50
75.672965999999946
 51
104.327034
  0
ARC
  5
334
  8
0
 10
255.0
 20
117.5
 30
0.0
 40
22.5
 50
255.67296599999989
 51
284.32703400000003
  0
LINE
  5
335
  8
0
 10
260.56776400000001
 20
104.300229
 30
0.0
 11
260.56776400000001
 21
95.699770999999998
 31
0.0
  0
LINE
  5
336
  8
0
 10
260.56776400000001
 20
95.699770999999998
 30
0.0
 11
261.66959800000001
 21
95.699770999999998
 31
0.0
  0
LINE
  5
337
  8
0
 10
260.56776400000001
 20
104.300229
 30
0.0
 11
261.66959800000001
 21
104.300229
 31
0.0
  0
LINE
  5
338
  8
0
 10
261.66959800000001
 20
104.300229
 30
0.0
 11
261.66959800000001
 21
95.699770999999998
 31
0.0
  0
ARC
  5
339
  8
0
 10
265.60660200000001
 20
93.575057000000015
 30
0.0
 40
11.424943000000001
 50
69.842787000000186
 51
110.1572129999998
  0
ARC
  5
33A
  8
0
 10
265.60660200000001
 20
106.424943
 30
0.0
 40
11.424943000000001
 50
249.84278700000019
 51
290.15721299999979
  0
LINE
  5
33B
  8
0
 10
270.0
 20
104.300229
 30
0.0
 11
269.54360600000001
 21
104.300229
 31
0.0
  0
LINE
  5
33C
  8
0
 10
269.54360600000001
 20
104.300229
 30
0.0
 11
269.54360600000001
 21
95.699770999999998
 31
0.0
  0
LINE
  5
33D
  8
0
 10
269.54360600000001
 20
95.699770999999998
 30
0.0
 11
270.0
 21
95.699770999999998
 31
0.0
  0
LINE
  5
33E
  8
0
 10
249.43223599999999
 20
104.300229
 30
0.0
 11
249.43223599999999
 21
95.699770999999998
 31
0.0
  0
LINE
  5
33F
  8
0
 10
248.33040199999999
 20
104.300229
 30
0.0
 11
248.33040199999999
 21
95.699770999999998
 31
0.0
  0
ARC
  5
340
  8
0
 10
244.39339799999999
 20
106.424943
 30
0.0
 40
11.424943000000001
 50
249.84278700000019
 51
290.15721299999979
  0
ARC
  5
341
  8
0
 10
244.39339799999999
 20
93.575057000000015
 30
0.0
 40
11.424943000000001
 50
69.842787000000186
 51
110.1572129999998
  0
LINE
  5
342
  8
0
 10
240.0
 20
104.300229
 30
0.0
 11
240.45639399999999
 21
104.300229
 31
0.0
  0
LINE
  5
343
  8
0
 10
240.45639399999999
 20
104.300229
 30
0.0
 11
240.45639399999999
 21
95.699770999999998
 31
0.0
  0
LINE
  5
344
  8
0
 10
240.45639399999999
 20
95.699770999999998
 30
0.0
 11
240.0
 21
95.699770999999998
 31
0.0
  0
LINE
  5
345
  8
0
 10
249.43223599999999
 20
95.699770999999998
 30
0.0
 11
248.33040199999999
 21
95.699770999999998
 31
0.0
  0
ARC
  5
346
  8
0
 10
246.59999999999999
 20
94.599999999999994
 30
0.0
 40
0.4
 50
0.0
 51
90.0
  0
LINE
  5
347
  8
3
 10
261.91750000000002
 20
92.725054999999983
 30
0.0
 11
263.0
 21
94.599999999999994
 31
0.0
  0
ARC
  5
348
  8
0
 10
263.39999999999998
 20
94.599999999999994
 30
0.0
 40
0.4
 50
90.0
 51
180.0
  0
LINE
  5
349
  8
0
 10
263.0
 20
54.0
 30
0.0
 11
263.0
 21
80.0
 31
0.0
  0
LINE
  5
34A
  8
3
 10
261.91750000000002
 20
92.725054999999983
 30
0.0
 11
261.91750000000002
 21
90.0
 31
0.0
  0
LINE
  5
34F
  8
1
 10
255.0
 20
190.0
 30
0.0
 11
255.0
 21
240.0
 31
0.0
  0
LINE
  5
350
  8
1
 10
88.216698573382345
 20
215.0
 30
0.0
 11
280.0
 21
215.0
 31
0.0
  0
ARC
  5
351
  8
0
 10
255.0
 20
215.0
 30
0.0
 40
8.0
 50
120.0
 51
240.0
  0
ARC
  5
352
  8
0
 10
255.0
 20
215.0
 30
0.0
 40
14.0
 50
315.58469140280698
 51
44.415308597192983
  0
LINE
  5
355
  8
0
 10
265.0
 20
226.21320399999999
 30
0.0
 11
269.54360600000001
 21
221.66959800000001
 31
0.0
  0
LINE
  5
356
  8
0
 10
269.54360600000001
 20
208.33040199999999
 30
0.0
 11
265.0
 21
203.78679600000001
 31
0.0
  0
ARC
  5
35D
  8
0
 10
255.0
 20
215.0
 30
0.0
 40
16.0
 50
20.364134999999379
 51
24.6358650000005
  0
ARC
  5
35E
  8
0
 10
255.0
 20
215.0
 30
0.0
 40
16.0
 50
335.36413499999952
 51
339.63586500000059
  0
LINE
  5
35F
  8
0
 10
270.0
 20
209.43223599999999
 30
0.0
 11
270.0
 21
220.56776400000001
 31
0.0
  0
CIRCLE
  5
366
  8
3
 10
190.0
 20
215.0
 30
0.0
 40
8.0
  0
LINE
  5
367
  8
0
 10
203.59230500000001
 20
214.542563
 30
0.0
 11
197.192305
 21
203.457437
 31
0.0
  0
ARC
  5
368
  8
0
 10
190.0
 20
215.0
 30
0.0
 40
13.6
 50
358.07248700000059
 51
1.927512999999391
  0
ARC
  5
369
  8
0
 10
190.0
 20
215.0
 30
0.0
 40
13.6
 50
58.072487000000528
 51
61.927513000000523
  0
LINE
  5
36A
  8
0
 10
197.192305
 20
226.542563
 30
0.0
 11
203.59230500000001
 21
215.457437
 31
0.0
  0
ARC
  5
36B
  8
0
 10
190.0
 20
215.0
 30
0.0
 40
13.6
 50
118.0724869999994
 51
121.92751299999939
  0
LINE
  5
36C
  8
0
 10
183.59999999999999
 20
227.0
 30
0.0
 11
196.40000000000001
 21
227.0
 31
0.0
  0
ARC
  5
36D
  8
0
 10
190.0
 20
215.0
 30
0.0
 40
13.6
 50
178.07248700000059
 51
181.92751299999941
  0
LINE
  5
36E
  8
0
 10
176.40769499999999
 20
215.457437
 30
0.0
 11
182.807695
 21
226.542563
 31
0.0
  0
ARC
  5
36F
  8
0
 10
190.0
 20
215.0
 30
0.0
 40
13.6
 50
238.07248700000051
 51
241.9275130000006
  0
LINE
  5
370
  8
0
 10
182.807695
 20
203.457437
 30
0.0
 11
176.40769499999999
 21
214.542563
 31
0.0
  0
ARC
  5
371
  8
0
 10
190.0
 20
215.0
 30
0.0
 40
13.6
 50
298.07248699999951
 51
301.92751299999952
  0
LINE
  5
372
  8
0
 10
196.40000000000001
 20
203.0
 30
0.0
 11
183.59999999999999
 21
203.0
 31
0.0
  0
CIRCLE
  5
373
  8
0
 10
190.0
 20
215.0
 30
0.0
 40
16.0
  0
CIRCLE
  5
374
  8
0
 10
190.0
 20
215.0
 30
0.0
 40
11.5
  0
LINE
  5
376
  8
1
 10
190.0
 20
191.0
 30
0.0
 11
190.0
 21
239.0
 31
0.0
  0
LINE
  5
384
  8
0
 10
65.962530672132289
 20
106.60769500000001
 30
0.0
 11
27.962530672132289
 21
106.60769500000001
 31
0.0
  0
LINE
  5
387
  8
0
 10
320.58240063308199
 20
105.0
 30
0.0
 11
320.58240063308199
 21
108.5
 31
0.0
  0
LINE
  5
388
  8
0
 10
342.58288263308202
 20
105.0
 30
0.0
 11
343.58288263308202
 21
104.42265
 31
0.0
  0
LINE
  5
389
  8
0
 10
314.58288263308202
 20
105.0
 30
0.0
 11
313.58288263308202
 21
104.42265
 31
0.0
  0
LINE
  5
38A
  8
0
 10
343.58288263308202
 20
104.42265
 30
0.0
 11
343.58288263308202
 21
95.577349999999996
 31
0.0
  0
LINE
  5
38B
  8
0
 10
342.58288263308202
 20
105.0
 30
0.0
 11
314.58288263308202
 21
105.0
 31
0.0
  0
LINE
  5
38C
  8
0
 10
314.58288263308202
 20
95.0
 30
0.0
 11
313.58288263308202
 21
95.577349999999996
 31
0.0
  0
LINE
  5
38D
  8
0
 10
313.58288263308202
 20
95.577349999999996
 30
0.0
 11
313.58288263308202
 21
104.42265
 31
0.0
  0
LINE
  5
38E
  8
0
 10
342.58288263308202
 20
95.0
 30
0.0
 11
343.58288263308202
 21
95.577349999999996
 31
0.0
  0
LINE
  5
38F
  8
0
 10
342.58288263308202
 20
95.0
 30
0.0
 11
314.58288263308202
 21
95.0
 31
0.0
  0
LINE
  5
390
  8
1
 10
328.58288263308202
 20
167.5
 30
0.0
 11
328.58288263308202
 21
44.970907800533951
 31
0.0
  0
LINE
  5
391
  8
0
 10
334.58288263308202
 20
52.0
 30
0.0
 11
322.58288263308202
 21
52.0
 31
0.0
  0
LINE
  5
392
  8
0
 10
320.58288263308202
 20
54.0
 30
0.0
 11
320.58288263308202
 21
80.0
 31
0.0
  0
LINE
  5
393
  8
0
 10
336.58288263308202
 20
54.0
 30
0.0
 11
334.58288263308202
 21
52.0
 31
0.0
  0
LINE
  5
394
  8
0
 10
322.58288263308202
 20
52.0
 30
0.0
 11
320.58288263308202
 21
54.0
 31
0.0
  0
LINE
  5
395
  8
0
 10
320.58288263308202
 20
54.0
 30
0.0
 11
336.58288263308202
 21
54.0
 31
0.0
  0
LINE
  5
396
  8
0
 10
320.58288263308202
 20
92.725054999999983
 30
0.0
 11
336.58288263308202
 21
92.725054999999983
 31
0.0
  0
LINE
  5
397
  8
3
 10
321.665382633082
 20
92.725054999999983
 30
0.0
 11
321.665382633082
 21
90.0
 31
0.0
  0
LINE
  5
398
  8
3
 10
321.665382633082
 20
92.725054999999983
 30
0.0
 11
320.58288263308202
 21
94.599999999999994
 31
0.0
  0
ARC
  5
399
  8
0
 10
328.58288263308202
 20
82.5
 30
0.0
 40
22.5
 50
75.672965999999974
 51
104.327034
  0
ARC
  5
39A
  8
0
 10
328.58288263308202
 20
117.5
 30
0.0
 40
22.5
 50
255.672966
 51
284.32703400000003
  0
LINE
  5
39B
  8
0
 10
334.15064663308198
 20
104.300229
 30
0.0
 11
334.15064663308198
 21
95.699770999999998
 31
0.0
  0
LINE
  5
39C
  8
0
 10
334.15064663308198
 20
95.699770999999998
 30
0.0
 11
335.25248063308197
 21
95.699770999999998
 31
0.0
  0
LINE
  5
39D
  8
0
 10
334.15064663308198
 20
104.300229
 30
0.0
 11
335.25248063308197
 21
104.300229
 31
0.0
  0
LINE
  5
39E
  8
0
 10
335.25248063308197
 20
104.300229
 30
0.0
 11
335.25248063308197
 21
95.699770999999998
 31
0.0
  0
ARC
  5
39F
  8
0
 10
339.18948463308197
 20
93.575057000000015
 30
0.0
 40
11.424943000000001
 50
69.842787000000186
 51
110.1572129999998
  0
ARC
  5
3A0
  8
0
 10
339.18948463308197
 20
106.424943
 30
0.0
 40
11.424943000000001
 50
249.84278700000019
 51
290.15721299999979
  0
LINE
  5
3A1
  8
0
 10
343.58288263308202
 20
104.300229
 30
0.0
 11
343.12648863308198
 21
104.300229
 31
0.0
  0
LINE
  5
3A2
  8
0
 10
343.12648863308198
 20
104.300229
 30
0.0
 11
343.12648863308198
 21
95.699770999999998
 31
0.0
  0
LINE
  5
3A3
  8
0
 10
343.12648863308198
 20
95.699770999999998
 30
0.0
 11
343.58288263308202
 21
95.699770999999998
 31
0.0
  0
LINE
  5
3A4
  8
0
 10
323.01511863308201
 20
104.300229
 30
0.0
 11
323.01511863308201
 21
95.699770999999998
 31
0.0
  0
LINE
  5
3A5
  8
0
 10
321.91328463308201
 20
104.300229
 30
0.0
 11
321.91328463308201
 21
95.699770999999998
 31
0.0
  0
ARC
  5
3A6
  8
0
 10
317.97628063308201
 20
106.424943
 30
0.0
 40
11.424943000000001
 50
249.84278700000019
 51
290.15721299999979
  0
ARC
  5
3A7
  8
0
 10
317.97628063308201
 20
93.575057000000015
 30
0.0
 40
11.424943000000001
 50
69.842787000000186
 51
110.1572129999998
  0
LINE
  5
3A8
  8
0
 10
313.58288263308202
 20
104.300229
 30
0.0
 11
314.03927663308201
 21
104.300229
 31
0.0
  0
LINE
  5
3A9
  8
0
 10
314.03927663308201
 20
104.300229
 30
0.0
 11
314.03927663308201
 21
95.699770999999998
 31
0.0
  0
LINE
  5
3AA
  8
0
 10
314.03927663308201
 20
95.699770999999998
 30
0.0
 11
313.58288263308202
 21
95.699770999999998
 31
0.0
  0
LINE
  5
3AB
  8
0
 10
323.01511863308201
 20
95.699770999999998
 30
0.0
 11
321.91328463308201
 21
95.699770999999998
 31
0.0
  0
ARC
  5
3AC
  8
0
 10
320.18288263308199
 20
94.599999999999994
 30
0.0
 40
0.4
 50
0.0
 51
90.0
  0
LINE
  5
3AD
  8
3
 10
335.5003826330821
 20
92.725054999999983
 30
0.0
 11
336.58288263308202
 21
94.599999999999994
 31
0.0
  0
ARC
  5
3AE
  8
0
 10
336.982882633082
 20
94.599999999999994
 30
0.0
 40
0.4
 50
90.0
 51
180.0
  0
LINE
  5
3AF
  8
0
 10
336.58288263308202
 20
54.0
 30
0.0
 11
336.58288263308202
 21
80.0
 31
0.0
  0
LINE
  5
3B0
  8
3
 10
335.5003826330821
 20
92.725054999999983
 30
0.0
 11
335.5003826330821
 21
90.0
 31
0.0
  0
LINE
  5
3B1
  8
0
 10
336.58336463308211
 20
105.0
 30
0.0
 11
336.58336463308211
 21
108.5
 31
0.0
  0
LINE
  5
3B2
  8
0
 10
336.08336463308211
 20
109.0
 30
0.0
 11
321.08240063308199
 21
109.0
 31
0.0
  0
LINE
  5
3B3
  8
0
 10
321.08240063308199
 20
109.0
 30
0.0
 11
320.58240063308199
 21
108.5
 31
0.0
  0
LINE
  5
3B4
  8
0
 10
336.08336463308211
 20
109.0
 30
0.0
 11
336.58336463308211
 21
108.5
 31
0.0
  0
LINE
  5
3C0
  8
0
 10
320.08288263308202
 20
105.0
 30
0.0
 11
320.08288263308202
 21
110.0
 31
0.0
  0
LINE
  5
3C1
  8
0
 10
320.08288263308202
 20
110.0
 30
0.0
 11
337.08288263308202
 21
110.0
 31
0.0
  0
LINE
  5
3C2
  8
0
 10
337.08288263308202
 20
110.0
 30
0.0
 11
337.08288263308202
 21
105.0
 31
0.0
  0
ARC
  5
3C3
  8
0
 10
200.19999999999999
 20
151.77998099999999
 30
0.0
 40
5.3734809999999991
 50
69.252335999999502
 51
129.2523359999997
  0
LINE
  5
3C4
  8
0
 10
196.80000000000001
 20
155.94102599999999
 30
0.0
 11
196.80000000000001
 21
139.15346199999999
 31
0.0
  0
ARC
  5
3C5
  8
0
 10
190.0
 20
137.47819000000001
 30
0.0
 40
19.675272
 50
69.780873000000142
 51
90.000007999999823
  0
LINE
  5
3C7
  8
0
 10
205.5
 20
139.15346199999999
 30
0.0
 11
174.5
 21
139.15346199999999
 31
0.0
  0
LINE
  5
3C8
  8
0
 10
174.5
 20
139.15346199999999
 30
0.0
 11
174.0
 21
138.65346199999999
 31
0.0
  0
LINE
  5
3C9
  8
0
 10
174.0
 20
138.65346199999999
 30
0.0
 11
174.0
 21
135.75346200000001
 31
0.0
  0
LINE
  5
3CA
  8
0
 10
176.40000000000001
 20
155.94102599999999
 30
0.0
 11
176.40000000000001
 21
139.553462
 31
0.0
  0
ARC
  5
3CB
  8
0
 10
176.0
 20
139.553462
 30
0.0
 40
0.4
 50
270.0
 51
0.0
  0
ARC
  5
3CC
  8
0
 10
190.0
 20
137.47819000000001
 30
0.0
 40
19.675272
 50
89.999992000000177
 51
110.2191269999998
  0
LINE
  5
3CD
  8
0
 10
205.5
 20
139.15346199999999
 30
0.0
 11
206.0
 21
138.65346199999999
 31
0.0
  0
ARC
  5
3CE
  8
0
 10
204.0
 20
139.553462
 30
0.0
 40
0.4
 50
180.0
 51
270.0
  0
LINE
  5
3D0
  8
0
 10
206.0
 20
138.65346199999999
 30
0.0
 11
206.0
 21
135.75346200000001
 31
0.0
  0
LINE
  5
3D1
  8
0
 10
203.59999999999999
 20
155.94102599999999
 30
0.0
 11
203.59999999999999
 21
139.553462
 31
0.0
  0
LINE
  5
3D2
  8
0
 10
178.5
 20
157.15346199999999
 30
0.0
 11
201.5
 21
157.15346199999999
 31
0.0
  0
LINE
  5
3D3
  8
0
 10
183.19999999999999
 20
155.94102599999999
 30
0.0
 11
183.19999999999999
 21
139.15346199999999
 31
0.0
  0
LINE
  5
3D4
  8
0
 10
203.59999999999999
 20
155.94102599999999
 30
0.0
 11
201.5
 21
157.15346199999999
 31
0.0
  0
ARC
  5
3D5
  8
0
 10
179.80000000000001
 20
151.77998099999999
 30
0.0
 40
5.3734809999999991
 50
50.747664000000277
 51
110.7476639999999
  0
LINE
  5
3D6
  8
0
 10
176.40000000000001
 20
155.94102599999999
 30
0.0
 11
178.5
 21
157.15346199999999
 31
0.0
  0
LINE
  5
3D7
  8
0
 10
206.0
 20
135.75346200000001
 30
0.0
 11
174.0
 21
135.75346200000001
 31
0.0
  0
ARC
  5
3D8
  8
0
 10
190.0
 20
166.882227
 30
0.0
 40
35.0
 50
242.79710600000041
 51
245.63290704125441
  0
ARC
  5
3D9
  8
0
 10
190.0
 20
166.882227
 30
0.0
 40
35.0
 50
294.36709295874567
 51
297.20289399999962
  0
LINE
  5
3DA
  8
0
 10
205.5
 20
130.0
 30
0.0
 11
174.5
 21
130.0
 31
0.0
  0
LINE
  5
3E3
  8
0
 10
174.0
 20
130.5
 30
0.0
 11
174.5
 21
130.0
 31
0.0
  0
LINE
  5
3E4
  8
0
 10
174.5
 20
135.0
 30
0.0
 11
174.0
 21
134.5
 31
0.0
  0
LINE
  5
3E5
  8
0
 10
206.0
 20
134.5
 30
0.0
 11
205.5
 21
135.0
 31
0.0
  0
LINE
  5
3E6
  8
0
 10
206.0
 20
130.5
 30
0.0
 11
205.5
 21
130.0
 31
0.0
  0
LINE
  5
3E7
  8
0
 10
174.0
 20
130.5
 30
0.0
 11
174.0
 21
134.5
 31
0.0
  0
LINE
  5
3E8
  8
0
 10
206.0
 20
134.5
 30
0.0
 11
206.0
 21
130.5
 31
0.0
  0
LINE
  5
3E9
  8
0
 10
174.5
 20
135.0
 30
0.0
 11
205.5
 21
135.0
 31
0.0
  0
LINE
  5
43A
  8
0
 10
336.58288263308202
 20
90.0
 30
0.0
 11
336.58288263308202
 21
94.599999999999994
 31
0.0
  0
LINE
  5
43B
  8
3
 10
335.5003826330821
 20
80.0
 30
0.0
 11
335.5003826330821
 21
52.917499999999997
 31
0.0
  0
LINE
  5
43C
  8
3
 10
321.665382633082
 20
80.0
 30
0.0
 11
321.665382633082
 21
52.917499999999997
 31
0.0
  0
LINE
  5
43D
  8
0
 10
320.58288263308202
 20
90.0
 30
0.0
 11
320.58288263308202
 21
94.599999999999994
 31
0.0
  0
LINE
  5
43E
  8
3
 10
248.08250000000001
 20
80.0
 30
0.0
 11
248.08250000000001
 21
52.917499999999997
 31
0.0
  0
LINE
  5
43F
  8
0
 10
247.0
 20
90.0
 30
0.0
 11
247.0
 21
94.599999999999994
 31
0.0
  0
LINE
  5
440
  8
0
 10
263.0
 20
90.0
 30
0.0
 11
263.0
 21
94.599999999999994
 31
0.0
  0
LINE
  5
441
  8
3
 10
261.91750000000002
 20
80.0
 30
0.0
 11
261.91750000000002
 21
52.917499999999997
 31
0.0
  0
LINE
  5
442
  8
0
 10
198.0
 20
80.0
 30
0.0
 11
198.0
 21
62.0
 31
0.0
  0
LINE
  5
443
  8
3
 10
196.93106
 20
80.0
 30
0.0
 11
196.93106
 21
60.931060999999993
 31
0.0
  0
LINE
  5
444
  8
3
 10
183.068939
 20
80.0
 30
0.0
 11
183.068939
 21
60.931060999999993
 31
0.0
  0
LINE
  5
445
  8
0
 10
182.0
 20
90.0
 30
0.0
 11
182.0
 21
105.0
 31
0.0
  0
LINE
  5
446
  8
3
 10
40.031469672132282
 20
80.0
 30
0.0
 11
40.031469672132282
 21
60.931060999999993
 31
0.0
  0
LINE
  5
447
  8
0
 10
38.962530672132289
 20
90.0
 30
0.0
 11
38.962530672132289
 21
105.0
 31
0.0
  0
LINE
  5
448
  8
0
 10
54.962530672132289
 20
80.0
 30
0.0
 11
54.962530672132289
 21
62.0
 31
0.0
  0
LINE
  5
449
  8
3
 10
53.893590672132291
 20
80.0
 30
0.0
 11
53.893590672132291
 21
60.931060999999993
 31
0.0
  0
ARC
  5
44C
  8
0
 10
34.56253067213229
 20
139.553462
 30
0.0
 40
0.4
 50
270.0
 51
0.0
  0
LINE
  5
44D
  8
0
 10
46.962530672132289
 20
139.15346199999999
 30
0.0
 11
46.962530672132289
 21
155.79298999999989
 31
0.0
  0
LINE
  5
44E
  8
0
 10
58.462530672132289
 20
157.15346199999999
 30
0.0
 11
35.462530672132289
 21
157.15346199999999
 31
0.0
  0
LINE
  5
44F
  8
0
 10
34.962530672132289
 20
156.86478699999989
 30
0.0
 11
35.462530672132289
 21
157.15346199999999
 31
0.0
  0
LINE
  5
450
  8
0
 10
34.962530672132289
 20
139.553462
 30
0.0
 11
34.962530672132289
 21
156.86478699999989
 31
0.0
  0
ARC
  5
451
  8
0
 10
40.962530672132281
 20
139.53466
 30
0.0
 40
17.33012699999999
 50
69.743842000000299
 51
110.2561579999997
  0
ARC
  5
452
  8
0
 10
52.962530672132281
 20
139.53466
 30
0.0
 40
17.33012699999999
 50
69.743842000000299
 51
110.2561579999997
  0
LINE
  5
453
  8
0
 10
58.962530672132289
 20
156.86478699999989
 30
0.0
 11
58.462530672132289
 21
157.15346199999999
 31
0.0
  0
ARC
  5
454
  8
0
 10
59.362530672132287
 20
139.553462
 30
0.0
 40
0.4
 50
180.0
 51
270.0
  0
LINE
  5
455
  8
0
 10
58.962530672132289
 20
139.553462
 30
0.0
 11
58.962530672132289
 21
156.86478699999989
 31
0.0
  0
ARC
  5
456
  8
0
 10
46.962530672132289
 20
166.882227
 30
0.0
 40
35.0
 50
294.36709295874567
 51
297.2028940000003
  0
ARC
  5
457
  8
0
 10
46.962530672132289
 20
166.882227
 30
0.0
 40
35.0
 50
242.7971059999997
 51
245.63290704125441
  0
LINE
  5
458
  8
0
 10
62.962530672132281
 20
135.75346200000001
 30
0.0
 11
30.962530672132289
 21
135.75346200000001
 31
0.0
  0
LINE
  5
459
  8
0
 10
62.962530672132281
 20
138.65346199999999
 30
0.0
 11
62.962530672132281
 21
135.75346200000001
 31
0.0
  0
LINE
  5
45A
  8
0
 10
62.462530672132289
 20
139.15346199999999
 30
0.0
 11
62.962530672132281
 21
138.65346199999999
 31
0.0
  0
LINE
  5
45B
  8
0
 10
30.962530672132289
 20
138.65346199999999
 30
0.0
 11
30.962530672132289
 21
135.75346200000001
 31
0.0
  0
LINE
  5
45C
  8
0
 10
31.462530672132289
 20
139.15346199999999
 30
0.0
 11
30.962530672132289
 21
138.65346199999999
 31
0.0
  0
LINE
  5
45D
  8
0
 10
62.462530672132289
 20
139.15346199999999
 30
0.0
 11
31.462530672132289
 21
139.15346199999999
 31
0.0
  0
LINE
  5
45E
  8
0
 10
62.462530672132289
 20
130.0
 30
0.0
 11
31.462530672132289
 21
130.0
 31
0.0
  0
LINE
  5
467
  8
0
 10
30.962530672132289
 20
130.5
 30
0.0
 11
31.462530672132289
 21
130.0
 31
0.0
  0
LINE
  5
468
  8
0
 10
31.462530672132289
 20
135.0
 30
0.0
 11
30.962530672132289
 21
134.5
 31
0.0
  0
LINE
  5
469
  8
0
 10
62.962530672132281
 20
134.5
 30
0.0
 11
62.462530672132289
 21
135.0
 31
0.0
  0
LINE
  5
46A
  8
0
 10
62.962530672132281
 20
130.5
 30
0.0
 11
62.462530672132289
 21
130.0
 31
0.0
  0
LINE
  5
46B
  8
0
 10
30.962530672132289
 20
130.5
 30
0.0
 11
30.962530672132289
 21
134.5
 31
0.0
  0
LINE
  5
46C
  8
0
 10
62.962530672132281
 20
134.5
 30
0.0
 11
62.962530672132281
 21
130.5
 31
0.0
  0
LINE
  5
46D
  8
0
 10
31.462530672132289
 20
135.0
 30
0.0
 11
62.462530672132289
 21
135.0
 31
0.0
  0
LINE
  5
46F
  8
0
 10
65.962530672132289
 20
129.5
 30
0.0
 11
65.962530672132289
 21
105.5
 31
0.0
  0
LINE
  5
470
  8
0
 10
65.962530672132289
 20
105.5
 30
0.0
 11
65.462530672132274
 21
105.0
 31
0.0
  0
LINE
  5
471
  8
0
 10
65.462530672132274
 20
105.0
 30
0.0
 11
28.462530672132289
 21
105.0
 31
0.0
  0
LINE
  5
472
  8
0
 10
28.462530672132289
 20
105.0
 30
0.0
 11
27.962530672132289
 21
105.5
 31
0.0
  0
LINE
  5
473
  8
0
 10
27.962530672132289
 20
105.5
 30
0.0
 11
27.962530672132289
 21
129.5
 31
0.0
  0
LINE
  5
474
  8
0
 10
27.962530672132289
 20
129.5
 30
0.0
 11
28.462530672132289
 21
130.0
 31
0.0
  0
LINE
  5
475
  8
0
 10
28.462530672132289
 20
130.0
 30
0.0
 11
65.462530672132274
 21
130.0
 31
0.0
  0
LINE
  5
476
  8
0
 10
65.462530672132274
 20
130.0
 30
0.0
 11
65.962530672132289
 21
129.5
 31
0.0
  0
ARC
  5
479
  8
0
 10
316.18288263308199
 20
139.553462
 30
0.0
 40
0.4
 50
270.0
 51
0.0
  0
LINE
  5
47A
  8
0
 10
328.58288263308202
 20
139.15346199999999
 30
0.0
 11
328.58288263308202
 21
155.79298999999989
 31
0.0
  0
LINE
  5
47B
  8
0
 10
340.08288263308202
 20
157.15346199999999
 30
0.0
 11
317.08288263308202
 21
157.15346199999999
 31
0.0
  0
LINE
  5
47C
  8
0
 10
316.58288263308202
 20
156.86478699999989
 30
0.0
 11
317.08288263308202
 21
157.15346199999999
 31
0.0
  0
LINE
  5
47D
  8
0
 10
316.58288263308202
 20
139.553462
 30
0.0
 11
316.58288263308202
 21
156.86478699999989
 31
0.0
  0
ARC
  5
47E
  8
0
 10
322.58288263308202
 20
139.53466
 30
0.0
 40
17.33012699999999
 50
69.743841999999916
 51
110.2561580000001
  0
ARC
  5
47F
  8
0
 10
334.58288263308202
 20
139.53466
 30
0.0
 40
17.33012699999999
 50
69.743841999999916
 51
110.2561580000001
  0
LINE
  5
480
  8
0
 10
340.58288263308202
 20
156.86478699999989
 30
0.0
 11
340.08288263308202
 21
157.15346199999999
 31
0.0
  0
ARC
  5
481
  8
0
 10
340.982882633082
 20
139.553462
 30
0.0
 40
0.4
 50
180.0
 51
270.0
  0
LINE
  5
482
  8
0
 10
340.58288263308202
 20
139.553462
 30
0.0
 11
340.58288263308202
 21
156.86478699999989
 31
0.0
  0
ARC
  5
483
  8
0
 10
328.58288263308202
 20
166.882227
 30
0.0
 40
35.0
 50
294.36709295874567
 51
297.20289399999962
  0
ARC
  5
484
  8
0
 10
328.58288263308202
 20
166.882227
 30
0.0
 40
35.0
 50
242.79710600000041
 51
245.6329070412543
  0
LINE
  5
485
  8
0
 10
344.58288263308202
 20
135.75346200000001
 30
0.0
 11
312.58288263308202
 21
135.75346200000001
 31
0.0
  0
LINE
  5
486
  8
0
 10
344.58288263308202
 20
138.65346199999999
 30
0.0
 11
344.58288263308202
 21
135.75346200000001
 31
0.0
  0
LINE
  5
487
  8
0
 10
344.08288263308202
 20
139.15346199999999
 30
0.0
 11
344.58288263308202
 21
138.65346199999999
 31
0.0
  0
LINE
  5
488
  8
0
 10
312.58288263308202
 20
138.65346199999999
 30
0.0
 11
312.58288263308202
 21
135.75346200000001
 31
0.0
  0
LINE
  5
489
  8
0
 10
313.08288263308202
 20
139.15346199999999
 30
0.0
 11
312.58288263308202
 21
138.65346199999999
 31
0.0
  0
LINE
  5
48A
  8
0
 10
344.08288263308202
 20
139.15346199999999
 30
0.0
 11
313.08288263308202
 21
139.15346199999999
 31
0.0
  0
LINE
  5
48B
  8
0
 10
344.08288263308202
 20
130.0
 30
0.0
 11
313.08288263308202
 21
130.0
 31
0.0
  0
LINE
  5
494
  8
0
 10
312.58288263308202
 20
130.5
 30
0.0
 11
313.08288263308202
 21
130.0
 31
0.0
  0
LINE
  5
495
  8
0
 10
313.08288263308202
 20
135.0
 30
0.0
 11
312.58288263308202
 21
134.5
 31
0.0
  0
LINE
  5
496
  8
0
 10
344.58288263308202
 20
134.5
 30
0.0
 11
344.08288263308202
 21
135.0
 31
0.0
  0
LINE
  5
497
  8
0
 10
344.58288263308202
 20
130.5
 30
0.0
 11
344.08288263308202
 21
130.0
 31
0.0
  0
LINE
  5
498
  8
0
 10
312.58288263308202
 20
130.5
 30
0.0
 11
312.58288263308202
 21
134.5
 31
0.0
  0
LINE
  5
499
  8
0
 10
344.58288263308202
 20
134.5
 30
0.0
 11
344.58288263308202
 21
130.5
 31
0.0
  0
LINE
  5
49A
  8
0
 10
313.08288263308202
 20
135.0
 30
0.0
 11
344.08288263308202
 21
135.0
 31
0.0
  0
LINE
  5
49C
  8
0
 10
309.58288263308202
 20
129.5
 30
0.0
 11
309.58288263308202
 21
105.5
 31
0.0
  0
LINE
  5
49D
  8
0
 10
309.58288263308202
 20
105.5
 30
0.0
 11
310.08288263308202
 21
105.0
 31
0.0
  0
LINE
  5
49E
  8
0
 10
310.08288263308202
 20
105.0
 30
0.0
 11
347.08288263308202
 21
105.0
 31
0.0
  0
LINE
  5
49F
  8
0
 10
347.08288263308202
 20
105.0
 30
0.0
 11
347.58288263308202
 21
105.5
 31
0.0
  0
LINE
  5
4A0
  8
0
 10
347.58288263308202
 20
105.5
 30
0.0
 11
347.58288263308202
 21
129.5
 31
0.0
  0
LINE
  5
4A1
  8
0
 10
347.58288263308202
 20
129.5
 30
0.0
 11
347.08288263308202
 21
130.0
 31
0.0
  0
LINE
  5
4A2
  8
0
 10
347.08288263308202
 20
130.0
 30
0.0
 11
310.08288263308202
 21
130.0
 31
0.0
  0
LINE
  5
4A3
  8
0
 10
310.08288263308202
 20
130.0
 30
0.0
 11
309.58288263308202
 21
129.5
 31
0.0
  0
LINE
  5
4A4
  8
0
 10
321.91328463308201
 20
104.300229
 30
0.0
 11
323.0151181748742
 21
104.30022933223221
 31
0.0
  0
LINE
  5
4A5
  8
0
 10
248.3304020599482
 20
104.3002293335898
 30
0.0
 11
249.4322355417921
 21
104.30022933223221
 31
0.0
  0
LINE
  5
538
  8
0
 10
182.0
 20
157.15346199999999
 30
0.0
 11
182.0
 21
158.0
 31
0.0
  0
LINE
  5
53B
  8
0
 10
198.0
 20
105.0
 30
0.0
 11
198.0
 21
90.0
 31
0.0
  0
LINE
  5
53C
  8
0
 10
320.58288263308202
 20
158.0
 30
0.0
 11
336.58288263308202
 21
158.0
 31
0.0
  0
LINE
  5
53D
  8
3
 10
321.65182163308202
 20
157.15346199999999
 30
0.0
 11
321.65182163308202
 21
159.068939
 31
0.0
  0
LINE
  5
53E
  8
3
 10
335.51394263308191
 20
157.15346199999999
 30
0.0
 11
335.51394263308202
 21
159.068939
 31
0.0
  0
LINE
  5
53F
  8
0
 10
320.58288263308202
 20
158.0
 30
0.0
 11
322.58288263308202
 21
160.0
 31
0.0
  0
LINE
  5
540
  8
0
 10
336.58288263308202
 20
158.0
 30
0.0
 11
334.58288263308202
 21
160.0
 31
0.0
  0
LINE
  5
541
  8
0
 10
336.58288263308202
 20
158.0
 30
0.0
 11
336.58288263308202
 21
157.15346199999999
 31
0.0
  0
LINE
  5
542
  8
0
 10
322.58288263308202
 20
160.0
 30
0.0
 11
334.58288263308202
 21
160.0
 31
0.0
  0
LINE
  5
543
  8
0
 10
320.58288263308202
 20
157.15346199999999
 30
0.0
 11
320.58288263308202
 21
158.0
 31
0.0
  0
LINE
  5
544
  8
0
 10
54.962530672132289
 20
105.0
 30
0.0
 11
54.962530672132289
 21
90.0
 31
0.0
  0
LINE
  5
545
  8
0
 10
38.962530672132289
 20
157.15346199999999
 30
0.0
 11
38.962530672132289
 21
158.0
 31
0.0
  0
LINE
  5
546
  8
0
 10
60.962530672132289
 20
105.0
 30
0.0
 11
61.962530672132289
 21
104.42265
 31
0.0
  0
LINE
  5
547
  8
0
 10
32.962530672132289
 20
105.0
 30
0.0
 11
31.962530672132289
 21
104.42265
 31
0.0
  0
LINE
  5
548
  8
0
 10
61.962530672132289
 20
104.42265
 30
0.0
 11
61.962530672132289
 21
95.577349999999996
 31
0.0
  0
LINE
  5
549
  8
0
 10
60.962530672132289
 20
105.0
 30
0.0
 11
32.962530672132289
 21
105.0
 31
0.0
  0
LINE
  5
54A
  8
0
 10
32.962530672132289
 20
95.0
 30
0.0
 11
31.962530672132289
 21
95.577349999999996
 31
0.0
  0
LINE
  5
54B
  8
0
 10
31.962530672132289
 20
95.577349999999996
 30
0.0
 11
31.962530672132289
 21
104.42265
 31
0.0
  0
LINE
  5
54C
  8
0
 10
60.962530672132289
 20
95.0
 30
0.0
 11
61.962530672132289
 21
95.577349999999996
 31
0.0
  0
LINE
  5
54D
  8
0
 10
60.962530672132289
 20
95.0
 30
0.0
 11
54.962530672132281
 21
95.0
 31
0.0
  0
ARC
  5
554
  8
0
 10
57.569132672132298
 20
93.575057000000015
 30
0.0
 40
11.424943000000001
 50
69.842787000000286
 51
103.1881854054882
  0
ARC
  5
555
  8
0
 10
57.569132672132298
 20
106.424943
 30
0.0
 40
11.424943000000001
 50
256.8118145945117
 51
290.15721299999967
  0
LINE
  5
556
  8
0
 10
61.962530672132289
 20
104.300229
 30
0.0
 11
61.5061366721323
 21
104.300229
 31
0.0
  0
LINE
  5
557
  8
0
 10
61.5061366721323
 20
104.300229
 30
0.0
 11
61.5061366721323
 21
95.699770999999998
 31
0.0
  0
LINE
  5
558
  8
0
 10
61.5061366721323
 20
95.699770999999998
 30
0.0
 11
61.962530672132289
 21
95.699770999999998
 31
0.0
  0
ARC
  5
55B
  8
0
 10
36.355928672132279
 20
106.424943
 30
0.0
 40
11.424943000000001
 50
249.8427870000003
 51
283.18818540548818
  0
ARC
  5
55C
  8
0
 10
36.355928672132279
 20
93.575057000000015
 30
0.0
 40
11.424943000000001
 50
76.811814594511745
 51
110.1572129999997
  0
LINE
  5
55D
  8
0
 10
31.962530672132289
 20
104.300229
 30
0.0
 11
32.418924672132277
 21
104.300229
 31
0.0
  0
LINE
  5
55E
  8
0
 10
32.418924672132277
 20
104.300229
 30
0.0
 11
32.418924672132277
 21
95.699770999999998
 31
0.0
  0
LINE
  5
55F
  8
0
 10
32.418924672132277
 20
95.699770999999998
 30
0.0
 11
31.962530672132289
 21
95.699770999999998
 31
0.0
  0
LINE
  5
562
  8
0
 10
38.962530672132289
 20
95.0
 30
0.0
 11
32.962530672132289
 21
95.0
 31
0.0
  0
LINE
  5
565
  8
0
 10
52.962530672132281
 20
52.0
 30
0.0
 11
40.962530672132281
 21
52.0
 31
0.0
  0
LINE
  5
566
  8
0
 10
38.962530672132289
 20
54.0
 30
0.0
 11
38.962530672132289
 21
62.000000000000007
 31
0.0
  0
LINE
  5
567
  8
0
 10
54.962530672132289
 20
54.0
 30
0.0
 11
52.962530672132281
 21
52.0
 31
0.0
  0
LINE
  5
568
  8
0
 10
40.962530672132281
 20
52.0
 30
0.0
 11
38.962530672132289
 21
54.0
 31
0.0
  0
LINE
  5
569
  8
0
 10
38.962530672132289
 20
54.0
 30
0.0
 11
54.962530672132289
 21
54.0
 31
0.0
  0
LINE
  5
56A
  8
3
 10
40.04503067213227
 20
60.917500000000018
 30
0.0
 11
40.04503067213227
 21
52.917499999999997
 31
0.0
  0
LINE
  5
56B
  8
0
 10
54.962530672132289
 20
54.0
 30
0.0
 11
54.962530672132289
 21
62.0
 31
0.0
  0
LINE
  5
56C
  8
3
 10
53.8800306721323
 20
60.917500000000011
 30
0.0
 11
53.8800306721323
 21
52.917499999999997
 31
0.0
  0
TEXT
  5
5CF
  8
0
 62
     3
 10
0.0
 20
0.0
 30
0.0
 40
10.0
  1
BJ156-16160A1
  7
STANDARD1
  0
ENDSEC
  0
EOF
