  0
SECTION
  2
HEADER
  9
$ACADVER
  1
AC1009
  9
$INSBASE
 10
82.638099999999994
 20
103.82319099999999
 30
0.0
  9
$EXTMIN
 10
0.0
 20
-2.960436562073669
 30
0.0
  9
$EXTMAX
 10
304.0
 20
264.0
 30
0.0
  9
$LIMMIN
 10
0.0
 20
0.0
  9
$LIMMAX
 10
375.0
 20
270.0
  9
$ORTHOMODE
 70
     1
  9
$REGENMODE
 70
     1
  9
$FILLMODE
 70
     1
  9
$QTEXTMODE
 70
     0
  9
$MIRRTEXT
 70
     0
  9
$DRAGMODE
 70
     2
  9
$LTSCALE
 40
10.0
  9
$OSMODE
 70
  3071
  9
$ATTMODE
 70
     1
  9
$TEXTSIZE
 40
0.06
  9
$TRACEWID
 40
0.05
  9
$TEXTSTYLE
  7
STANDARD
  9
$CLAYER
  8
0
  9
$CELTYPE
  6
BYLAYER
  9
$CECOLOR
 62
   256
  9
$DIMSCALE
 40
1.0
  9
$DIMASZ
 40
3.0
  9
$DIMEXO
 40
2.0
  9
$DIMDLI
 40
10.0
  9
$DIMRND
 40
0.0
  9
$DIMDLE
 40
0.0
  9
$DIMEXE
 40
2.0
  9
$DIMTP
 40
0.0
  9
$DIMTM
 40
0.0
  9
$DIMTXT
 40
3.0
  9
$DIMCEN
 40
0.0
  9
$DIMTSZ
 40
0.0
  9
$DIMTOL
 70
     0
  9
$DIMLIM
 70
     0
  9
$DIMTIH
 70
     0
  9
$DIMTOH
 70
     0
  9
$DIMSE1
 70
     0
  9
$DIMSE2
 70
     0
  9
$DIMTAD
 70
     1
  9
$DIMZIN
 70
     0
  9
$DIMBLK
  1

  9
$DIMASO
 70
     0
  9
$DIMSHO
 70
     0
  9
$DIMPOST
  1

  9
$DIMAPOST
  1

  9
$DIMALT
 70
     0
  9
$DIMALTD
 70
     2
  9
$DIMALTF
 40
25.399999999999999
  9
$DIMLFAC
 40
1.0
  9
$DIMTOFL
 70
     1
  9
$DIMTVP
 40
1.6000000000000001
  9
$DIMTIX
 70
     1
  9
$DIMSOXD
 70
     0
  9
$DIMSAH
 70
     0
  9
$DIMBLK1
  1

  9
$DIMBLK2
  1

  9
$DIMSTYLE
  2
STANDARD
  9
$DIMCLRD
 70
     0
  9
$DIMCLRE
 70
     0
  9
$DIMCLRT
 70
     0
  9
$DIMTFAC
 40
1.0
  9
$DIMGAP
 40
0.09
  9
$LUNITS
 70
     2
  9
$LUPREC
 70
     4
  9
$SKETCHINC
 40
0.1
  9
$FILLETRAD
 40
0.0
  9
$AUNITS
 70
     0
  9
$AUPREC
 70
     4
  9
$MENU
  1
E:\r13\win\SUPPORT\ACAD
  9
$ELEVATION
 40
0.0
  9
$PELEVATION
 40
0.0
  9
$THICKNESS
 40
0.0
  9
$LIMCHECK
 70
     0
  9
$BLIPMODE
 70
     0
  9
$CHAMFERA
 40
0.0
  9
$CHAMFERB
 40
0.0
  9
$SKPOLY
 70
     0
  9
$TDCREATE
 40
2449840.3493634262
  9
$TDUPDATE
 40
2456597.6487797569
  9
$TDINDWG
 40
0.0001009028
  9
$TDUSRTIMER
 40
0.0001009028
  9
$USRTIMER
 70
     1
  9
$ANGBASE
 50
0.0
  9
$ANGDIR
 70
     0
  9
$PDMODE
 70
     1
  9
$PDSIZE
 40
0.0
  9
$PLINEWID
 40
0.0
  9
$COORDS
 70
     1
  9
$SPLFRAME
 70
     0
  9
$SPLINETYPE
 70
     6
  9
$SPLINESEGS
 70
     8
  9
$ATTDIA
 70
     0
  9
$ATTREQ
 70
     1
  9
$HANDLING
 70
     1
  9
$HANDSEED
  5
35B
  9
$SURFTAB1
 70
     6
  9
$SURFTAB2
 70
     6
  9
$SURFTYPE
 70
     6
  9
$SURFU
 70
     6
  9
$SURFV
 70
     6
  9
$UCSNAME
  2

  9
$UCSORG
 10
0.0
 20
0.0
 30
0.0
  9
$UCSXDIR
 10
1.0
 20
0.0
 30
0.0
  9
$UCSYDIR
 10
0.0
 20
1.0
 30
0.0
  9
$PUCSNAME
  2

  9
$PUCSORG
 10
0.0
 20
0.0
 30
0.0
  9
$PUCSXDIR
 10
1.0
 20
0.0
 30
0.0
  9
$PUCSYDIR
 10
0.0
 20
1.0
 30
0.0
  9
$USERI1
 70
     3
  9
$USERI2
 70
     1
  9
$USERI3
 70
     0
  9
$USERI4
 70
     0
  9
$USERI5
 70
     0
  9
$USERR1
 40
1.0
  9
$USERR2
 40
3.0
  9
$USERR3
 40
3.0
  9
$USERR4
 40
3.0
  9
$USERR5
 40
10.0
  9
$WORLDVIEW
 70
     1
  9
$SHADEDGE
 70
     3
  9
$SHADEDIF
 70
    70
  9
$TILEMODE
 70
     1
  9
$MAXACTVP
 70
    16
  9
$PLIMCHECK
 70
     0
  9
$PEXTMIN
 10
1.0000000000000000E+020
 20
1.0000000000000000E+020
 30
1.0000000000000000E+020
  9
$PEXTMAX
 10
-1.0000000000000000E+020
 20
-1.0000000000000000E+020
 30
-1.0000000000000000E+020
  9
$PLIMMIN
 10
0.0
 20
0.0
  9
$PLIMMAX
 10
12.0
 20
9.0
  9
$UNITMODE
 70
     0
  9
$VISRETAIN
 70
     0
  9
$PLINEGEN
 70
     0
  9
$PSLTSCALE
 70
     0
  0
ENDSEC
  0
SECTION
  2
TABLES
  0
TABLE
  2
VPORT
 70
     1
  0
VPORT
  2
*ACTIVE
 70
     0
 10
0.0
 20
0.0
 11
1.0
 21
1.0
 12
195.0581083320873
 22
133.5127261426681
 13
0.0
 23
0.0
 14
5.0
 24
5.0
 15
10.0
 25
10.0
 16
0.0
 26
0.0
 36
1.0
 17
0.0
 27
0.0
 37
0.0
 40
275.42274993631997
 41
1.831871345029239
 42
50.0
 43
0.0
 44
0.0
 50
0.0
 51
0.0
 71
     0
 72
   100
 73
     1
 74
     0
 75
     0
 76
     0
 77
     0
 78
     0
  0
ENDTAB
  0
TABLE
  2
LTYPE
 70
     4
  0
LTYPE
  2
CONTINUOUS
 70
     0
  3
Solid Line
 72
    65
 73
     0
 40
0.0
  0
LTYPE
  2
CENTER
 70
     0
  3
____ _ ____ _ ____ _ ____ _ ____ _ ____ _ ____
 72
    65
 73
     4
 40
2.0
 49
1.25
 49
-0.25
 49
0.25
 49
-0.25
  0
LTYPE
  2
HIDDEN
 70
     0
  3
__ __ __ __ __ __ __ __ __ __ __ __ __ __ __ __
 72
    65
 73
     2
 40
0.375
 49
0.25
 49
-0.125
  0
LTYPE
  2
PHANTOM2
 70
     0
  3
___ _ _ ___ _ _ ___ _ _ ___ _ _
 72
    65
 73
     6
 40
1.25
 49
0.625
 49
-0.125
 49
0.125
 49
-0.125
 49
0.125
 49
-0.125
  0
ENDTAB
  0
TABLE
  2
LAYER
 70
     4
  0
LAYER
  2
0
 70
     0
 62
     7
  6
CONTINUOUS
  0
LAYER
  2
1
 70
     0
 62
     1
  6
CENTER
  0
LAYER
  2
2
 70
     0
 62
     2
  6
HIDDEN
  0
LAYER
  2
3
 70
     0
 62
     3
  6
CONTINUOUS
  0
ENDTAB
  0
TABLE
  2
STYLE
 70
     2
  0
STYLE
  2
STANDARD
 70
     0
 40
0.0
 41
1.0
 50
0.0
 71
     0
 42
0.06
  3
txt
  4
bigfont
  0
STYLE
  2
STANDARD1
 70
     0
 40
0.0
 41
1.0
 50
0.0
 71
     0
 42
3.0
  3
txt
  4

  0
ENDTAB
  0
TABLE
  2
VIEW
 70
     0
  0
ENDTAB
  0
TABLE
  2
UCS
 70
     0
  0
ENDTAB
  0
TABLE
  2
APPID
 70
     3
  0
APPID
  2
ACAD
 70
     0
  0
APPID
  2
ACAD_MLEADERVER
 70
     0
  0
APPID
  2
ACAD_NAV_VCDISPLAY
 70
     0
  0
ENDTAB
  0
TABLE
  2
DIMSTYLE
 70
     1
  0
DIMSTYLE
  2
STANDARD
 70
     0
  3

  4

  5

  6

  7

 40
1.0
 41
0.18
 42
0.0625
 43
0.38
 44
0.18
 45
0.0
 46
0.0
 47
0.0
 48
0.0
140
0.18
141
0.09
142
0.0
143
25.399999999999999
144
1.0
145
0.0
146
1.0
147
0.09
 71
     0
 72
     0
 73
     1
 74
     1
 75
     0
 76
     0
 77
     0
 78
     0
170
     0
171
     2
172
     0
173
     0
174
     0
175
     0
176
     0
177
     0
178
     0
  0
ENDTAB
  0
ENDSEC
  0
SECTION
  2
BLOCKS
  0
BLOCK
  8
0
  2
$MODEL_SPACE
 70
     0
 10
0.0
 20
0.0
 30
0.0
  3
$MODEL_SPACE
  1

  0
ENDBLK
  5
213
  8
0
  0
BLOCK
 67
     1
  8
0
  2
$PAPER_SPACE
 70
     0
 10
0.0
 20
0.0
 30
0.0
  3
$PAPER_SPACE
  1

  0
ENDBLK
  5
211
 67
     1
  8
0
  0
BLOCK
  8
0
  2
STDGX5
 70
     0
 10
0.0
 20
0.0
 30
0.0
  3
STDGX5
  1

  0
ENDBLK
  5
3F
  8
0
  0
BLOCK
  8
0
  2
B740318A
 70
     0
 10
0.0
 20
0.0
 30
0.0
  3
B740318A
  1

  0
CIRCLE
  5
4C
  8
0
 10
0.0
 20
0.0
 30
0.0
 40
7.0
  0
CIRCLE
  5
4D
  8
3
 10
0.0
 20
0.0
 30
0.0
 40
8.0
  0
LINE
  5
4E
  8
0
 10
13.592305
 20
-0.457437
 30
0.0
 11
7.1923050000000002
 21
-11.542562999999999
 31
0.0
  0
ARC
  5
4F
  8
0
 10
0.0
 20
0.0
 30
0.0
 40
13.6
 50
358.07248700000002
 51
1.9275129999999989
  0
ARC
  5
50
  8
0
 10
0.0
 20
0.0
 30
0.0
 40
13.6
 50
58.072487000000002
 51
61.927513000000012
  0
LINE
  5
51
  8
0
 10
7.1923050000000002
 20
11.542562999999999
 30
0.0
 11
13.592305
 21
0.457437
 31
0.0
  0
ARC
  5
52
  8
0
 10
0.0
 20
0.0
 30
0.0
 40
13.6
 50
118.072487
 51
121.927513
  0
LINE
  5
53
  8
0
 10
-6.4000000000000004
 20
12.0
 30
0.0
 11
6.4000000000000004
 21
12.0
 31
0.0
  0
ARC
  5
54
  8
0
 10
0.0
 20
0.0
 30
0.0
 40
13.6
 50
178.072487
 51
181.927513
  0
LINE
  5
55
  8
0
 10
-13.592305
 20
0.457437
 30
0.0
 11
-7.1923050000000002
 21
11.542562999999999
 31
0.0
  0
ARC
  5
56
  8
0
 10
0.0
 20
0.0
 30
0.0
 40
13.6
 50
238.072487
 51
241.927513
  0
LINE
  5
57
  8
0
 10
-7.1923050000000002
 20
-11.542562999999999
 30
0.0
 11
-13.592305
 21
-0.457437
 31
0.0
  0
ARC
  5
58
  8
0
 10
0.0
 20
0.0
 30
0.0
 40
13.6
 50
298.07248700000002
 51
301.92751299999998
  0
LINE
  5
59
  8
0
 10
6.4000000000000004
 20
-12.0
 30
0.0
 11
-6.4000000000000004
 21
-12.0
 31
0.0
  0
CIRCLE
  5
5A
  8
0
 10
0.0
 20
0.0
 30
0.0
 40
16.0
  0
CIRCLE
  5
5B
  8
0
 10
0.0
 20
0.0
 30
0.0
 40
11.5
  0
LINE
  5
5C
  8
1
 10
-24.0
 20
0.0
 30
0.0
 11
24.0
 21
0.0
 31
0.0
  0
LINE
  5
5D
  8
1
 10
0.0
 20
-24.0
 30
0.0
 11
0.0
 21
24.0
 31
0.0
  0
ENDBLK
  5
5E
  8
0
  0
BLOCK
  8
0
  2
B739318B
 70
     0
 10
0.0
 20
0.0
 30
0.0
  3
B739318B
  1

  0
INSERT
  5
60
  8
0
  2
742D01B2
 10
0.0
 20
0.0
 30
0.0
  0
INSERT
  5
61
  8
0
  2
B741318B
 10
0.0
 20
3.1534619999999989
 30
0.0
  0
ENDBLK
  5
62
  8
0
  0
BLOCK
  8
0
  2
742D01B2
 70
     0
 10
110.0
 20
85.0
 30
0.0
  3
742D01B2
  1

  0
LINE
  5
64
  8
0
 10
125.5
 20
85.0
 30
0.0
 11
94.500000000000014
 21
85.0
 31
0.0
  0
LINE
  5
65
  8
2
 10
100.5
 20
88.089156000000003
 30
0.0
 11
119.5
 21
88.089156000000003
 31
0.0
  0
LINE
  5
66
  8
2
 10
100.5
 20
85.5
 30
0.0
 11
119.5
 21
85.5
 31
0.0
  0
LINE
  5
67
  8
2
 10
100.5
 20
85.5
 30
0.0
 11
100.0
 21
85.0
 31
0.0
  0
LINE
  5
68
  8
2
 10
100.5
 20
88.089156000000003
 30
0.0
 11
100.5
 21
85.5
 31
0.0
  0
LINE
  5
69
  8
2
 10
95.25
 20
90.0
 30
0.0
 11
100.5
 21
88.089156000000003
 31
0.0
  0
LINE
  5
6A
  8
2
 10
119.5
 20
85.5
 30
0.0
 11
120.0
 21
85.0
 31
0.0
  0
LINE
  5
6B
  8
2
 10
119.5
 20
88.089156000000003
 30
0.0
 11
119.5
 21
85.5
 31
0.0
  0
LINE
  5
6C
  8
2
 10
124.75
 20
90.0
 30
0.0
 11
119.5
 21
88.089156000000003
 31
0.0
  0
LINE
  5
6D
  8
0
 10
94.0
 20
85.5
 30
0.0
 11
94.500000000000014
 21
85.0
 31
0.0
  0
LINE
  5
6E
  8
0
 10
94.500000000000014
 20
90.0
 30
0.0
 11
94.0
 21
89.500000000000014
 31
0.0
  0
LINE
  5
6F
  8
0
 10
126.0
 20
89.500000000000014
 30
0.0
 11
125.5
 21
90.0
 31
0.0
  0
LINE
  5
70
  8
0
 10
126.0
 20
85.5
 30
0.0
 11
125.5
 21
85.0
 31
0.0
  0
LINE
  5
71
  8
0
 10
94.0
 20
85.5
 30
0.0
 11
94.0
 21
89.500000000000014
 31
0.0
  0
LINE
  5
72
  8
0
 10
126.0
 20
89.500000000000014
 30
0.0
 11
126.0
 21
85.5
 31
0.0
  0
LINE
  5
73
  8
0
 10
94.500000000000014
 20
90.0
 30
0.0
 11
125.5
 21
90.0
 31
0.0
  0
LINE
  5
74
  8
1
 10
110.0
 20
95.0
 30
0.0
 11
110.0
 21
80.0
 31
0.0
  0
ENDBLK
  5
75
  8
0
  0
BLOCK
  8
0
  2
B741318B
 70
     0
 10
0.0
 20
0.0
 30
0.0
  3
B741318B
  1

  0
ARC
  5
77
  8
0
 10
10.199999999999999
 20
18.626518999999998
 30
0.0
 40
5.3734809999999991
 50
69.252336
 51
129.25233600000001
  0
LINE
  5
78
  8
0
 10
6.7999999999999989
 20
22.787564
 30
0.0
 11
6.7999999999999989
 21
6.0
 31
0.0
  0
ARC
  5
79
  8
0
 10
0.0
 20
4.3247279999999986
 30
0.0
 40
19.675272
 50
69.780873
 51
90.000007999999994
  0
LINE
  5
7A
  8
1
 10
0.0
 20
34.0
 30
0.0
 11
0.0
 21
-10.0
 31
0.0
  0
LINE
  5
7B
  8
0
 10
15.5
 20
6.0
 30
0.0
 11
-15.5
 21
6.0
 31
0.0
  0
LINE
  5
7C
  8
0
 10
-15.5
 20
6.0
 30
0.0
 11
-16.0
 21
5.5
 31
0.0
  0
LINE
  5
7D
  8
0
 10
-16.0
 20
5.5
 30
0.0
 11
-16.0
 21
2.6000000000000001
 31
0.0
  0
LINE
  5
7E
  8
0
 10
-13.6
 20
22.787564
 30
0.0
 11
-13.6
 21
6.4000000000000004
 31
0.0
  0
ARC
  5
7F
  8
0
 10
-14.0
 20
6.4000000000000004
 30
0.0
 40
0.4
 50
270.0
 51
0.0
  0
ARC
  5
80
  8
0
 10
0.0
 20
4.3247279999999986
 30
0.0
 40
19.675272
 50
89.999992000000006
 51
110.219127
  0
LINE
  5
81
  8
0
 10
15.5
 20
6.0
 30
0.0
 11
16.0
 21
5.5
 31
0.0
  0
ARC
  5
82
  8
0
 10
14.0
 20
6.4000000000000004
 30
0.0
 40
0.4
 50
180.0
 51
270.0
  0
LINE
  5
83
  8
0
 10
9.3472150000000003
 20
0.0
 30
0.0
 11
-9.3472150000000003
 21
0.0
 31
0.0
  0
LINE
  5
84
  8
0
 10
16.0
 20
5.5
 30
0.0
 11
16.0
 21
2.6000000000000001
 31
0.0
  0
LINE
  5
85
  8
0
 10
13.6
 20
22.787564
 30
0.0
 11
13.6
 21
6.4000000000000004
 31
0.0
  0
LINE
  5
86
  8
0
 10
-11.5
 20
24.0
 30
0.0
 11
11.5
 21
24.0
 31
0.0
  0
LINE
  5
87
  8
0
 10
-6.7999999999999989
 20
22.787564
 30
0.0
 11
-6.7999999999999989
 21
6.0
 31
0.0
  0
LINE
  5
88
  8
0
 10
13.6
 20
22.787564
 30
0.0
 11
11.5
 21
24.0
 31
0.0
  0
ARC
  5
89
  8
0
 10
-10.199999999999999
 20
18.626518999999998
 30
0.0
 40
5.3734809999999991
 50
50.747664
 51
110.747664
  0
LINE
  5
8A
  8
0
 10
-13.6
 20
22.787564
 30
0.0
 11
-11.5
 21
24.0
 31
0.0
  0
LINE
  5
8B
  8
0
 10
16.0
 20
2.6000000000000001
 30
0.0
 11
-16.0
 21
2.6000000000000001
 31
0.0
  0
ARC
  5
8C
  8
0
 10
0.0
 20
33.728765000000003
 30
0.0
 40
35.0
 50
242.79710600000001
 51
254.510411
  0
ARC
  5
8D
  8
0
 10
0.0
 20
33.728765000000003
 30
0.0
 40
35.0
 50
285.48958900000002
 51
297.20289400000001
  0
ENDBLK
  5
8E
  8
0
  0
BLOCK
  8
0
  2
B739318C
 70
     0
 10
0.0
 20
0.0
 30
0.0
  3
B739318C
  1

  0
INSERT
  5
90
  8
0
  2
742D01B2
 10
0.0
 20
0.0
 30
0.0
  0
INSERT
  5
91
  8
0
  2
B741318C
 10
0.0
 20
3.1534619999999989
 30
0.0
  0
ENDBLK
  5
92
  8
0
  0
BLOCK
  8
0
  2
B741318C
 70
     0
 10
0.0
 20
0.0
 30
0.0
  3
B741318C
  1

  0
LINE
  5
94
  8
1
 10
0.0
 20
30.0
 30
0.0
 11
0.0
 21
-5.0
 31
0.0
  0
LINE
  5
95
  8
0
 10
9.3472150000000003
 20
0.0
 30
0.0
 11
-9.3472150000000003
 21
0.0
 31
0.0
  0
ARC
  5
96
  8
0
 10
-12.4
 20
6.4000000000000004
 30
0.0
 40
0.4
 50
270.0
 51
0.0
  0
LINE
  5
97
  8
0
 10
0.0
 20
6.0
 30
0.0
 11
0.0
 21
22.639527999999999
 31
0.0
  0
LINE
  5
98
  8
0
 10
11.5
 20
24.0
 30
0.0
 11
-11.5
 21
24.0
 31
0.0
  0
LINE
  5
99
  8
0
 10
-12.0
 20
23.711324999999999
 30
0.0
 11
-11.5
 21
24.0
 31
0.0
  0
LINE
  5
9A
  8
0
 10
-12.0
 20
6.4000000000000004
 30
0.0
 11
-12.0
 21
23.711324999999999
 31
0.0
  0
ARC
  5
9B
  8
0
 10
-6.0
 20
6.3811980000000004
 30
0.0
 40
17.33012699999999
 50
69.743842000000001
 51
110.256158
  0
ARC
  5
9C
  8
0
 10
6.0
 20
6.3811980000000004
 30
0.0
 40
17.33012699999999
 50
69.743842000000001
 51
110.256158
  0
LINE
  5
9D
  8
0
 10
12.0
 20
23.711324999999999
 30
0.0
 11
11.5
 21
24.0
 31
0.0
  0
ARC
  5
9E
  8
0
 10
12.4
 20
6.4000000000000004
 30
0.0
 40
0.4
 50
180.0
 51
270.0
  0
LINE
  5
9F
  8
0
 10
12.0
 20
6.4000000000000004
 30
0.0
 11
12.0
 21
23.711324999999999
 31
0.0
  0
ARC
  5
A0
  8
0
 10
0.0
 20
33.728765000000003
 30
0.0
 40
35.0
 50
285.48958900000002
 51
297.20289400000001
  0
ARC
  5
A1
  8
0
 10
0.0
 20
33.728765000000003
 30
0.0
 40
35.0
 50
242.79710600000001
 51
254.510411
  0
LINE
  5
A2
  8
0
 10
16.0
 20
2.6000000000000001
 30
0.0
 11
-16.0
 21
2.6000000000000001
 31
0.0
  0
LINE
  5
A3
  8
0
 10
16.0
 20
5.5
 30
0.0
 11
16.0
 21
2.6000000000000001
 31
0.0
  0
LINE
  5
A4
  8
0
 10
15.5
 20
6.0
 30
0.0
 11
16.0
 21
5.5
 31
0.0
  0
LINE
  5
A5
  8
0
 10
-16.0
 20
5.5
 30
0.0
 11
-16.0
 21
2.6000000000000001
 31
0.0
  0
LINE
  5
A6
  8
0
 10
-15.5
 20
6.0
 30
0.0
 11
-16.0
 21
5.5
 31
0.0
  0
LINE
  5
A7
  8
0
 10
15.5
 20
6.0
 30
0.0
 11
-15.5
 21
6.0
 31
0.0
  0
ENDBLK
  5
A8
  8
0
  0
BLOCK
  8
0
  2
B746318A
 70
     0
 10
0.0
 20
0.0
 30
0.0
  3
B746318A
  1

  0
LINE
  5
AA
  8
0
 10
-2.3094009999999989
 20
-4.0
 30
0.0
 11
2.3094009999999989
 21
-4.0
 31
0.0
  0
LINE
  5
AB
  8
0
 10
2.3094009999999989
 20
-4.0
 30
0.0
 11
4.6188019999999987
 21
0.0
 31
0.0
  0
LINE
  5
AC
  8
0
 10
4.6188019999999987
 20
0.0
 30
0.0
 11
2.3094009999999989
 21
4.0
 31
0.0
  0
LINE
  5
AD
  8
0
 10
2.3094009999999989
 20
4.0
 30
0.0
 11
-2.3094009999999989
 21
4.0
 31
0.0
  0
LINE
  5
AE
  8
0
 10
-2.3094009999999989
 20
4.0
 30
0.0
 11
-4.6188019999999987
 21
0.0
 31
0.0
  0
LINE
  5
AF
  8
0
 10
-4.6188019999999987
 20
0.0
 30
0.0
 11
-2.3094009999999989
 21
-4.0
 31
0.0
  0
CIRCLE
  5
B0
  8
0
 10
0.0
 20
0.0
 30
0.0
 40
8.0
  0
CIRCLE
  5
B1
  8
3
 10
0.0
 20
0.0
 30
0.0
 40
7.1879999999999988
  0
LINE
  5
B2
  8
1
 10
0.0
 20
21.0
 30
0.0
 11
0.0
 21
-21.0
 31
0.0
  0
LINE
  5
B3
  8
1
 10
21.0
 20
0.0
 30
0.0
 11
-21.0
 21
0.0
 31
0.0
  0
CIRCLE
  5
B4
  8
0
 10
0.0
 20
0.0
 30
0.0
 40
16.0
  0
CIRCLE
  5
B5
  8
0
 10
0.0
 20
0.0
 30
0.0
 40
11.0
  0
ENDBLK
  5
B6
  8
0
  0
BLOCK
  8
0
  2
NM16B
 70
     0
 10
0.0
 20
0.0
 30
0.0
  3
NM16B
  1

  0
LINE
  5
B8
  8
0
 10
0.0
 20
11.5
 30
0.0
 11
0.0
 21
-11.5
 31
0.0
  0
LINE
  5
B9
  8
0
 10
-10.0
 20
-11.5
 30
0.0
 11
-10.0
 21
11.5
 31
0.0
  0
ARC
  5
BA
  8
0
 10
-3.57735
 20
10.392305
 30
0.0
 40
6.1339750000000004
 50
154.38424699999999
 51
214.38424699999999
  0
LINE
  5
BB
  8
0
 10
-8.6395280000000003
 20
13.856406
 30
0.0
 11
-10.0
 21
11.5
 31
0.0
  0
LINE
  5
BC
  8
0
 10
-1.360471999999999
 20
13.856406
 30
0.0
 11
0.0
 21
11.5
 31
0.0
  0
ARC
  5
BD
  8
0
 10
-6.4226499999999991
 20
10.392305
 30
0.0
 40
6.1339750000000004
 50
325.61575299999998
 51
25.615753000000002
  0
LINE
  5
BE
  8
0
 10
-8.6395280000000003
 20
13.856406
 30
0.0
 11
-1.360471999999999
 21
13.856406
 31
0.0
  0
LINE
  5
BF
  8
0
 10
-8.6395280000000003
 20
6.928202999999999
 30
0.0
 11
-1.360471999999999
 21
6.928202999999999
 31
0.0
  0
LINE
  5
C0
  8
0
 10
-8.6395280000000003
 20
-6.928202999999999
 30
0.0
 11
-1.360471999999999
 21
-6.928202999999999
 31
0.0
  0
LINE
  5
C1
  8
0
 10
-8.6395280000000003
 20
-13.856406
 30
0.0
 11
-1.360471999999999
 21
-13.856406
 31
0.0
  0
ARC
  5
C2
  8
0
 10
-23.216878000000001
 20
0.0
 30
0.0
 40
22.928203
 50
342.41204599999998
 51
17.587954
  0
ARC
  5
C3
  8
0
 10
-6.4226499999999991
 20
-10.392305
 30
0.0
 40
6.1339750000000004
 50
334.38424700000002
 51
34.384247000000002
  0
LINE
  5
C4
  8
0
 10
-1.360471999999999
 20
-13.856406
 30
0.0
 11
0.0
 21
-11.5
 31
0.0
  0
LINE
  5
C5
  8
0
 10
-8.6395280000000003
 20
-13.856406
 30
0.0
 11
-10.0
 21
-11.5
 31
0.0
  0
ARC
  5
C6
  8
0
 10
-3.57735
 20
-10.392305
 30
0.0
 40
6.1339750000000004
 50
145.61575300000001
 51
205.61575300000001
  0
ARC
  5
C7
  8
0
 10
13.216877999999999
 20
0.0
 30
0.0
 40
22.928203
 50
162.412046
 51
197.587954
  0
ENDBLK
  5
C8
  8
0
  0
BLOCK
  8
0
  2
NM16C
 70
     0
 10
0.0
 20
0.0
 30
0.0
  3
NM16C
  1

  0
ARC
  5
CA
  8
0
 10
6.0
 20
-7.6188019999999996
 30
0.0
 40
17.33012699999999
 50
69.743842000000001
 51
110.256158
  0
LINE
  5
CB
  8
0
 10
12.0
 20
9.7113250000000004
 30
0.0
 11
11.5
 21
10.0
 31
0.0
  0
LINE
  5
CC
  8
0
 10
12.0
 20
0.288675
 30
0.0
 11
11.5
 21
0.0
 31
0.0
  0
ARC
  5
CD
  8
0
 10
6.0
 20
17.618801999999999
 30
0.0
 40
17.33012699999999
 50
249.743842
 51
290.25615800000003
  0
LINE
  5
CE
  8
0
 10
12.0
 20
9.7113250000000004
 30
0.0
 11
12.0
 21
0.288675
 31
0.0
  0
LINE
  5
CF
  8
0
 10
0.0
 20
1.360471999999999
 30
0.0
 11
0.0
 21
8.6395280000000003
 31
0.0
  0
LINE
  5
D0
  8
0
 10
-12.0
 20
9.7113250000000004
 30
0.0
 11
-12.0
 21
0.288675
 31
0.0
  0
ARC
  5
D1
  8
0
 10
-6.0
 20
17.618801999999999
 30
0.0
 40
17.33012699999999
 50
249.743842
 51
290.25615800000003
  0
LINE
  5
D2
  8
0
 10
-12.0
 20
0.288675
 30
0.0
 11
-11.5
 21
0.0
 31
0.0
  0
LINE
  5
D3
  8
0
 10
-12.0
 20
9.7113250000000004
 30
0.0
 11
-11.5
 21
10.0
 31
0.0
  0
ARC
  5
D4
  8
0
 10
-6.0
 20
-7.6188019999999996
 30
0.0
 40
17.33012699999999
 50
69.743842000000001
 51
110.256158
  0
LINE
  5
D5
  8
0
 10
-11.5
 20
10.0
 30
0.0
 11
11.5
 21
10.0
 31
0.0
  0
LINE
  5
D6
  8
0
 10
11.5
 20
0.0
 30
0.0
 11
-11.5
 21
0.0
 31
0.0
  0
ENDBLK
  5
D7
  8
0
  0
BLOCK
  8
0
  2
B746328B
 70
     0
 10
0.0
 20
0.0
 30
0.0
  3
B746328B
  1

  0
LINE
  5
D9
  8
1
 10
0.0
 20
111.809658
 30
0.0
 11
0.0
 21
-5.2422240000000002
 31
0.0
  0
LINE
  5
DA
  8
0
 10
5.3333329999999997
 20
105.40000000000001
 30
0.0
 11
-5.3333329999999997
 21
105.40000000000001
 31
0.0
  0
LINE
  5
DB
  8
0
 10
-8.0
 20
102.733333
 30
0.0
 11
-8.0
 21
17.140447999999999
 31
0.0
  0
LINE
  5
DC
  8
0
 10
-8.0
 20
17.140447999999999
 30
0.0
 11
8.0
 21
17.140447999999999
 31
0.0
  0
LINE
  5
DD
  8
0
 10
8.0
 20
17.140447999999999
 30
0.0
 11
8.0
 21
102.733333
 31
0.0
  0
LINE
  5
DE
  8
0
 10
8.0
 20
102.733333
 30
0.0
 11
5.3333329999999997
 21
105.40000000000001
 31
0.0
  0
LINE
  5
DF
  8
0
 10
-5.3333329999999997
 20
105.40000000000001
 30
0.0
 11
-8.0
 21
102.733333
 31
0.0
  0
LINE
  5
E0
  8
0
 10
8.0
 20
102.733333
 30
0.0
 11
-8.0
 21
102.733333
 31
0.0
  0
LINE
  5
E1
  8
0
 10
4.7999999999999989
 20
15.292927000000001
 30
0.0
 11
4.7999999999999989
 21
15.0
 31
0.0
  0
LINE
  5
E2
  8
0
 10
8.0
 20
17.140447999999999
 30
0.0
 11
4.7999999999999989
 21
15.292927000000001
 31
0.0
  0
LINE
  5
E3
  8
0
 10
4.7999999999999989
 20
15.292927000000001
 30
0.0
 11
0.0
 21
15.292927000000001
 31
0.0
  0
LINE
  5
E4
  8
0
 10
-8.0
 20
17.140447999999999
 30
0.0
 11
-4.7999999999999989
 21
15.292927000000001
 31
0.0
  0
LINE
  5
E5
  8
0
 10
-4.7999999999999989
 20
15.292927000000001
 30
0.0
 11
-4.7999999999999989
 21
15.0
 31
0.0
  0
LINE
  5
E6
  8
0
 10
-4.7999999999999989
 20
15.292927000000001
 30
0.0
 11
0.0
 21
15.292927000000001
 31
0.0
  0
LINE
  5
E7
  8
3
 10
6.8333329999999997
 20
103.90000000000001
 30
0.0
 11
6.8333329999999997
 21
16.466871999999999
 31
0.0
  0
LINE
  5
E8
  8
3
 10
-6.8333329999999997
 20
103.90000000000001
 30
0.0
 11
-6.8333329999999997
 21
16.466871999999999
 31
0.0
  0
LINE
  5
E9
  8
0
 10
11.0
 20
10.0
 30
0.0
 11
11.0
 21
14.0
 31
0.0
  0
LINE
  5
EA
  8
0
 10
0.0
 20
0.0
 30
0.0
 11
15.0
 21
0.0
 31
0.0
  0
LINE
  5
EB
  8
0
 10
10.0
 20
15.0
 30
0.0
 11
0.0
 21
15.0
 31
0.0
  0
LINE
  5
EC
  8
0
 10
15.0
 20
7.0
 30
0.0
 11
0.0
 21
7.0
 31
0.0
  0
LINE
  5
ED
  8
0
 10
-15.0
 20
7.0
 30
0.0
 11
0.0
 21
7.0
 31
0.0
  0
LINE
  5
EE
  8
0
 10
-11.0
 20
10.0
 30
0.0
 11
-11.0
 21
14.0
 31
0.0
  0
LINE
  5
EF
  8
0
 10
-10.0
 20
15.0
 30
0.0
 11
0.0
 21
15.0
 31
0.0
  0
LINE
  5
F0
  8
0
 10
-16.0
 20
1.0
 30
0.0
 11
-16.0
 21
6.0
 31
0.0
  0
LINE
  5
F1
  8
0
 10
0.0
 20
0.0
 30
0.0
 11
-15.0
 21
0.0
 31
0.0
  0
LINE
  5
F2
  8
1
 10
0.0
 20
-8.2369859999999981
 30
0.0
 11
0.0
 21
19.590589000000001
 31
0.0
  0
LINE
  5
F3
  8
0
 10
16.0
 20
1.0
 30
0.0
 11
16.0
 21
6.0
 31
0.0
  0
LINE
  5
F4
  8
0
 10
16.0
 20
1.0
 30
0.0
 11
15.0
 21
0.0
 31
0.0
  0
LINE
  5
F5
  8
0
 10
16.0
 20
6.0
 30
0.0
 11
15.0
 21
7.0
 31
0.0
  0
LINE
  5
F6
  8
0
 10
-15.0
 20
7.0
 30
0.0
 11
-16.0
 21
6.0
 31
0.0
  0
LINE
  5
F7
  8
0
 10
-16.0
 20
1.0
 30
0.0
 11
-15.0
 21
0.0
 31
0.0
  0
ARC
  5
F8
  8
0
 10
-14.0
 20
10.0
 30
0.0
 40
3.0
 50
270.0
 51
360.0
  0
ARC
  5
F9
  8
0
 10
14.0
 20
10.0
 30
0.0
 40
3.0
 50
180.0
 51
270.0
  0
LINE
  5
FA
  8
0
 10
11.0
 20
14.0
 30
0.0
 11
10.0
 21
15.0
 31
0.0
  0
LINE
  5
FB
  8
0
 10
-11.0
 20
14.0
 30
0.0
 11
-10.0
 21
15.0
 31
0.0
  0
ENDBLK
  5
FC
  8
0
  0
BLOCK
  8
0
  2
B745358B
 70
     0
 10
0.0
 20
0.0
 30
0.0
  3
B745358B
  1

  0
LINE
  5
FE
  8
1
 10
0.0
 20
167.5
 30
0.0
 11
0.0
 21
-7.5
 31
0.0
  0
LINE
  5
FF
  8
0
 10
-7.9704319999999997
 20
2.0
 30
0.0
 11
-5.9704319999999989
 21
0.0
 31
0.0
  0
LINE
  5
100
  8
0
 10
6.0295680000000003
 20
0.0
 30
0.0
 11
-5.9704319999999989
 21
0.0
 31
0.0
  0
LINE
  5
101
  8
3
 10
-6.9014929999999994
 20
50.0
 30
0.0
 11
-6.9014929999999994
 21
0.931061
 31
0.0
  0
LINE
  5
102
  8
3
 10
6.9606279999999989
 20
50.0
 30
0.0
 11
6.9606279999999989
 21
0.931061
 31
0.0
  0
LINE
  5
103
  8
0
 10
-7.9704319999999997
 20
158.0
 30
0.0
 11
8.0295679999999994
 21
158.0
 31
0.0
  0
LINE
  5
104
  8
3
 10
-6.9014929999999994
 20
110.0
 30
0.0
 11
-6.9014929999999994
 21
159.068939
 31
0.0
  0
LINE
  5
105
  8
3
 10
-7.9408640000000004
 20
108.148543
 30
0.0
 11
-6.8719250000000001
 21
110.0
 31
0.0
  0
LINE
  5
106
  8
0
 10
-7.9408640000000004
 20
110.0
 30
0.0
 11
8.0591360000000005
 21
110.0
 31
0.0
  0
LINE
  5
107
  8
3
 10
8.0591360000000005
 20
108.148543
 30
0.0
 11
6.9901960000000001
 21
110.0
 31
0.0
  0
LINE
  5
108
  8
3
 10
6.9606279999999989
 20
110.0
 30
0.0
 11
6.9606279999999989
 21
159.068939
 31
0.0
  0
LINE
  5
109
  8
3
 10
8.0591360000000005
 20
51.851457000000003
 30
0.0
 11
6.9901960000000001
 21
50.0
 31
0.0
  0
LINE
  5
10A
  8
0
 10
-7.9408640000000004
 20
50.0
 30
0.0
 11
8.0591360000000005
 21
50.0
 31
0.0
  0
LINE
  5
10B
  8
3
 10
-7.9408640000000004
 20
51.851457000000003
 30
0.0
 11
-6.8719250000000001
 21
50.0
 31
0.0
  0
LINE
  5
10C
  8
0
 10
-7.9704319999999997
 20
2.0
 30
0.0
 11
8.0295679999999994
 21
2.0
 31
0.0
  0
LINE
  5
10D
  8
0
 10
-7.9704319999999997
 20
158.0
 30
0.0
 11
-5.9704319999999989
 21
160.0
 31
0.0
  0
LINE
  5
10E
  8
0
 10
8.0295679999999994
 20
158.0
 30
0.0
 11
6.0295680000000003
 21
160.0
 31
0.0
  0
LINE
  5
10F
  8
0
 10
8.0295679999999994
 20
158.0
 30
0.0
 11
8.0295679999999994
 21
2.0
 31
0.0
  0
LINE
  5
110
  8
0
 10
-5.9704319999999989
 20
160.0
 30
0.0
 11
6.0295680000000003
 21
160.0
 31
0.0
  0
LINE
  5
111
  8
0
 10
-7.9704319999999997
 20
2.0
 30
0.0
 11
-7.9704319999999997
 21
158.0
 31
0.0
  0
LINE
  5
112
  8
0
 10
8.0295679999999994
 20
2.0
 30
0.0
 11
6.0295680000000003
 21
0.0
 31
0.0
  0
ENDBLK
  5
113
  8
0
  0
BLOCK
  8
0
  2
B156328A
 70
     0
 10
0.0
 20
0.0
 30
0.0
  3
B156328A
  1

  0
LINE
  5
115
  8
0
 10
-55.0
 20
-18.5
 30
0.0
 11
-54.5
 21
-19.0
 31
0.0
  0
LINE
  5
116
  8
0
 10
45.0
 20
-18.5
 30
0.0
 11
44.5
 21
-19.0
 31
0.0
  0
LINE
  5
117
  8
0
 10
44.5
 20
19.0
 30
0.0
 11
45.0
 21
18.5
 31
0.0
  0
LINE
  5
118
  8
0
 10
-54.5
 20
19.0
 30
0.0
 11
-55.0
 21
18.5
 31
0.0
  0
LINE
  5
119
  8
0
 10
-54.5
 20
-19.0
 30
0.0
 11
44.5
 21
-19.0
 31
0.0
  0
LINE
  5
11A
  8
0
 10
-54.5
 20
19.0
 30
0.0
 11
44.5
 21
19.0
 31
0.0
  0
LINE
  5
11B
  8
1
 10
-60.0
 20
0.0
 30
0.0
 11
50.0
 21
0.0
 31
0.0
  0
LINE
  5
11C
  8
0
 10
45.0
 20
18.5
 30
0.0
 11
45.0
 21
-18.5
 31
0.0
  0
LINE
  5
11D
  8
0
 10
-55.0
 20
18.5
 30
0.0
 11
-55.0
 21
-18.5
 31
0.0
  0
LINE
  5
11E
  8
2
 10
-42.366750000000003
 20
-19.0
 30
0.0
 11
-42.366750000000003
 21
19.0
 31
0.0
  0
LINE
  5
11F
  8
2
 10
-24.36675
 20
-19.0
 30
0.0
 11
-24.36675
 21
-8.5
 31
0.0
  0
LINE
  5
120
  8
2
 10
-24.36675
 20
8.5
 30
0.0
 11
-24.36675
 21
19.0
 31
0.0
  0
ARC
  5
121
  8
0
 10
-30.0
 20
0.0
 30
0.0
 40
8.5
 50
90.0
 51
270.0
  0
ARC
  5
122
  8
0
 10
0.0
 20
0.0
 30
0.0
 40
8.5
 50
270.0
 51
90.0
  0
LINE
  5
123
  8
0
 10
-30.0
 20
8.5
 30
0.0
 11
0.0
 21
8.5
 31
0.0
  0
LINE
  5
124
  8
0
 10
-30.0
 20
-8.5
 30
0.0
 11
0.0
 21
-8.5
 31
0.0
  0
LINE
  5
125
  8
1
 10
-30.0
 20
11.5
 30
0.0
 11
-30.0
 21
-11.5
 31
0.0
  0
LINE
  5
126
  8
1
 10
0.0
 20
11.5
 30
0.0
 11
0.0
 21
-11.5
 31
0.0
  0
CIRCLE
  5
127
  8
0
 10
30.0
 20
0.0
 30
0.0
 40
7.0
  0
CIRCLE
  5
128
  8
3
 10
30.0
 20
0.0
 30
0.0
 40
8.0
  0
LINE
  5
129
  8
1
 10
30.0
 20
-12.5
 30
0.0
 11
30.0
 21
12.5
 31
0.0
  0
LINE
  5
12A
  8
2
 10
0.0
 20
-8.5
 30
0.0
 11
45.0
 21
-8.5
 31
0.0
  0
LINE
  5
12B
  8
2
 10
0.0
 20
8.5
 30
0.0
 11
45.0
 21
8.5
 31
0.0
  0
ENDBLK
  5
12C
  8
0
  0
BLOCK
  8
0
  2
B156328B
 70
     0
 10
0.0
 20
0.0
 30
0.0
  3
B156328B
  1

  0
LINE
  5
12E
  8
1
 10
-30.0
 20
25.0
 30
0.0
 11
-30.0
 21
-3.0
 31
0.0
  0
LINE
  5
12F
  8
1
 10
0.0
 20
25.0
 30
0.0
 11
0.0
 21
-3.0
 31
0.0
  0
LINE
  5
130
  8
0
 10
45.0
 20
0.5
 30
0.0
 11
44.5
 21
0.0
 31
0.0
  0
LINE
  5
131
  8
0
 10
44.5
 20
22.0
 30
0.0
 11
45.0
 21
21.5
 31
0.0
  0
LINE
  5
132
  8
0
 10
-54.5
 20
22.0
 30
0.0
 11
-55.0
 21
21.5
 31
0.0
  0
LINE
  5
133
  8
0
 10
45.0
 20
21.5
 30
0.0
 11
45.0
 21
0.5
 31
0.0
  0
LINE
  5
134
  8
0
 10
-55.0
 20
21.5
 30
0.0
 11
-55.0
 21
1.6076950000000001
 31
0.0
  0
LINE
  5
135
  8
0
 10
-24.36675
 20
0.0
 30
0.0
 11
44.5
 21
0.0
 31
0.0
  0
LINE
  5
136
  8
0
 10
-54.5
 20
22.0
 30
0.0
 11
44.5
 21
22.0
 31
0.0
  0
LINE
  5
137
  8
1
 10
30.0
 20
25.0
 30
0.0
 11
30.0
 21
-3.0
 31
0.0
  0
LINE
  5
138
  8
2
 10
0.0
 20
5.0
 30
0.0
 11
45.0
 21
5.0
 31
0.0
  0
LINE
  5
139
  8
2
 10
-38.5
 20
22.0
 30
0.0
 11
-38.5
 21
1.5703609999999999
 31
0.0
  0
LINE
  5
13A
  8
2
 10
8.5
 20
22.0
 30
0.0
 11
8.5
 21
5.0
 31
0.0
  0
LINE
  5
13B
  8
2
 10
22.0
 20
21.0
 30
0.0
 11
22.0
 21
5.0
 31
0.0
  0
LINE
  5
13C
  8
2
 10
23.0
 20
20.0
 30
0.0
 11
23.0
 21
5.0
 31
0.0
  0
LINE
  5
13D
  8
2
 10
21.0
 20
22.0
 30
0.0
 11
23.0
 21
20.0
 31
0.0
  0
LINE
  5
13E
  8
2
 10
39.0
 20
22.0
 30
0.0
 11
37.0
 21
20.0
 31
0.0
  0
LINE
  5
13F
  8
2
 10
37.0
 20
20.0
 30
0.0
 11
37.0
 21
5.0
 31
0.0
  0
LINE
  5
140
  8
2
 10
38.0
 20
21.0
 30
0.0
 11
38.0
 21
5.0
 31
0.0
  0
LINE
  5
141
  8
2
 10
23.0
 20
20.0
 30
0.0
 11
37.0
 21
20.0
 31
0.0
  0
ARC
  5
142
  8
0
 10
-49.0
 20
12.0
 30
0.0
 40
12.0
 50
240.0
 51
303.55731000000009
  0
LINE
  5
143
  8
0
 10
-24.36675
 20
0.0
 30
0.0
 11
-42.366750000000003
 21
2.0
 31
0.0
  0
ENDBLK
  5
144
  8
0
  0
BLOCK
  8
0
  2
B156328C
 70
     0
 10
0.0
 20
0.0
 30
0.0
  3
B156328C
  1

  0
POLYLINE
  5
146
  8
0
 66
     1
 10
0.0
 20
0.0
 30
0.0
 70
     1
  0
VERTEX
  5
147
  8
0
 10
-19.0
 20
21.5
 30
0.0
  0
VERTEX
  5
148
  8
0
 10
-19.0
 20
0.5
 30
0.0
  0
VERTEX
  5
149
  8
0
 10
-18.5
 20
0.0
 30
0.0
  0
VERTEX
  5
14A
  8
0
 10
18.5
 20
0.0
 30
0.0
  0
VERTEX
  5
14B
  8
0
 10
19.0
 20
0.5
 30
0.0
  0
VERTEX
  5
14C
  8
0
 10
19.0
 20
21.5
 30
0.0
  0
VERTEX
  5
14D
  8
0
 10
18.5
 20
22.0
 30
0.0
  0
VERTEX
  5
14E
  8
0
 10
-18.5
 20
22.0
 30
0.0
  0
SEQEND
  5
14F
  8
0
  0
LINE
  5
150
  8
1
 10
0.0
 20
27.0
 30
0.0
 11
0.0
 21
-5.0
 31
0.0
  0
LINE
  5
151
  8
0
 10
-8.5
 20
0.0
 30
0.0
 11
-8.5
 21
5.0
 31
0.0
  0
LINE
  5
152
  8
0
 10
-8.5
 20
5.0
 30
0.0
 11
8.5
 21
5.0
 31
0.0
  0
LINE
  5
153
  8
0
 10
8.5
 20
5.0
 30
0.0
 11
8.5
 21
0.0
 31
0.0
  0
ENDBLK
  5
154
  8
0
  0
BLOCK
  8
0
  2
B156328D
 70
     0
 10
0.0
 20
0.0
 30
0.0
  3
B156328D
  1

  0
LINE
  5
156
  8
1
 10
0.0
 20
27.0
 30
0.0
 11
0.0
 21
-5.0
 31
0.0
  0
POLYLINE
  5
157
  8
0
 66
     1
 10
0.0
 20
0.0
 30
0.0
 70
     1
  0
VERTEX
  5
158
  8
0
 10
19.0
 20
21.5
 30
0.0
  0
VERTEX
  5
159
  8
0
 10
19.0
 20
0.5
 30
0.0
  0
VERTEX
  5
15A
  8
0
 10
18.5
 20
0.0
 30
0.0
  0
VERTEX
  5
15B
  8
0
 10
-18.5
 20
0.0
 30
0.0
  0
VERTEX
  5
15C
  8
0
 10
-19.0
 20
0.5
 30
0.0
  0
VERTEX
  5
15D
  8
0
 10
-19.0
 20
21.5
 30
0.0
  0
VERTEX
  5
15E
  8
0
 10
-18.5
 20
22.0
 30
0.0
  0
VERTEX
  5
15F
  8
0
 10
18.5
 20
22.0
 30
0.0
  0
SEQEND
  5
160
  8
0
  0
LINE
  5
161
  8
0
 10
19.0
 20
1.6076950000000001
 30
0.0
 11
-19.0
 21
1.6076950000000001
 31
0.0
  0
ENDBLK
  5
162
  8
0
  0
BLOCK
  8
0
  2
156BD05A1
 70
     0
 10
0.0
 20
0.0
 30
0.0
  3
156BD05A1
  1

  0
INSERT
  5
164
  8
0
  2
B156328A
 10
0.0
 20
0.0
 30
0.0
  0
INSERT
  5
165
  8
2
  2
B746318A
 10
30.0
 20
0.0
 30
0.0
  0
ENDBLK
  5
166
  8
0
  0
BLOCK
  8
0
  2
156BD05C1
 70
     0
 10
0.0
 20
0.0
 30
0.0
  3
156BD05C1
  1

  0
INSERT
  5
168
  8
0
  2
B156328C
 10
0.0
 20
0.0
 30
0.0
  0
INSERT
  5
169
  8
0
  2
B739318C
 10
0.0
 20
22.0
 30
0.0
  0
ENDBLK
  5
16A
  8
0
  0
BLOCK
  8
0
  2
156BD05D1
 70
     0
 10
0.0
 20
0.0
 30
0.0
  3
156BD05D1
  1

  0
INSERT
  5
16C
  8
0
  2
B156328D
 10
0.0
 20
0.0
 30
0.0
  0
INSERT
  5
16D
  8
0
  2
B739318C
 10
0.0
 20
22.0
 30
0.0
  0
ENDBLK
  5
16E
  8
0
  0
ENDSEC
  0
SECTION
  2
ENTITIES
  0
INSERT
  5
16F
  8
0
  2
STDGX5
 10
0.0
 20
0.0
 30
0.0
  0
INSERT
  5
179
  8
0
  2
STDGX5
 10
0.0
 20
0.0
 30
0.0
  0
INSERT
  5
17A
  8
0
  2
STDGX5
 10
0.0
 20
0.0
 30
0.0
  0
INSERT
  5
17B
  8
0
  2
STDGX5
 10
0.0
 20
0.0
 30
0.0
  0
INSERT
  5
17C
  8
0
  2
STDGX5
 10
0.0
 20
0.0
 30
0.0
  0
INSERT
  5
17D
  8
0
  2
STDGX5
 10
0.0
 20
0.0
 30
0.0
  0
INSERT
  5
17E
  8
0
  2
STDGX5
 10
0.0
 20
0.0
 30
0.0
  0
INSERT
  5
17F
  8
0
  2
STDGX5
 10
0.0
 20
0.0
 30
0.0
  0
INSERT
  5
180
  8
0
  2
B740318A
 10
185.0
 20
240.0
 30
0.0
  0
INSERT
  5
181
  8
0
  2
B739318B
 10
185.0
 20
152.0
 30
0.0
  0
INSERT
  5
182
  8
0
  2
B746328B
 10
215.0
 20
70.0
 30
0.0
  0
INSERT
  5
183
  8
0
  2
B745358B
 10
185.0
 20
46.0
 30
0.0
  0
INSERT
  5
184
  8
0
  2
NM16B
 10
185.0
 20
70.0
 30
0.0
 50
270.0
  0
INSERT
  5
185
  8
0
  2
B746328B
 10
285.0
 20
70.0
 30
0.0
  0
INSERT
  5
186
  8
0
  2
B745358B
 10
285.0
 20
46.0
 30
0.0
  0
INSERT
  5
187
  8
0
  2
B745358B
 10
90.0
 20
46.0
 30
0.0
  0
INSERT
  5
188
  8
0
  2
NM16C
 10
90.0
 20
70.0
 30
0.0
  0
INSERT
  5
189
  8
0
  2
B156328B
 10
185.0
 20
130.0
 30
0.0
  0
INSERT
  5
18A
  8
0
  2
156BD05A1
 10
185.0
 20
240.0
 30
0.0
  0
INSERT
  5
18B
  8
0
  2
156BD05C1
 10
285.0
 20
130.0
 30
0.0
  0
INSERT
  5
18C
  8
0
  2
156BD05D1
 10
90.0
 20
130.0
 30
0.0
  0
TEXT
  5
2CC
  8
0
 62
     3
 10
0.0
 20
0.0
 30
0.0
 40
10.0
  1
BJ156-16100B2
  7
STANDARD1
  0
ENDSEC
  0
EOF
