  0
SECTION
  2
HEADER
  9
$ACADVER
  1
AC1009
  9
$INSBASE
 10
82.638099999999994
 20
103.82319099999999
 30
0.0
  9
$EXTMIN
 10
0.0
 20
-2.960436562073669
 30
0.0
  9
$EXTMAX
 10
349.3605668671355
 20
239.34305092398111
 30
0.0
  9
$LIMMIN
 10
0.0
 20
0.0
  9
$LIMMAX
 10
375.0
 20
270.0
  9
$ORTHOMODE
 70
     1
  9
$REGENMODE
 70
     1
  9
$FILLMODE
 70
     1
  9
$QTEXTMODE
 70
     0
  9
$MIRRTEXT
 70
     0
  9
$DRAGMODE
 70
     2
  9
$LTSCALE
 40
10.0
  9
$OSMODE
 70
  3071
  9
$ATTMODE
 70
     1
  9
$TEXTSIZE
 40
0.06
  9
$TRACEWID
 40
0.05
  9
$TEXTSTYLE
  7
STANDARD
  9
$CLAYER
  8
0
  9
$CELTYPE
  6
BYLAYER
  9
$CECOLOR
 62
   256
  9
$DIMSCALE
 40
1.0
  9
$DIMASZ
 40
3.0
  9
$DIMEXO
 40
2.0
  9
$DIMDLI
 40
10.0
  9
$DIMRND
 40
0.0
  9
$DIMDLE
 40
0.0
  9
$DIMEXE
 40
2.0
  9
$DIMTP
 40
0.0
  9
$DIMTM
 40
0.0
  9
$DIMTXT
 40
3.0
  9
$DIMCEN
 40
0.0
  9
$DIMTSZ
 40
0.0
  9
$DIMTOL
 70
     0
  9
$DIMLIM
 70
     0
  9
$DIMTIH
 70
     0
  9
$DIMTOH
 70
     0
  9
$DIMSE1
 70
     0
  9
$DIMSE2
 70
     0
  9
$DIMTAD
 70
     1
  9
$DIMZIN
 70
     0
  9
$DIMBLK
  1

  9
$DIMASO
 70
     0
  9
$DIMSHO
 70
     0
  9
$DIMPOST
  1

  9
$DIMAPOST
  1

  9
$DIMALT
 70
     0
  9
$DIMALTD
 70
     2
  9
$DIMALTF
 40
25.399999999999999
  9
$DIMLFAC
 40
1.0
  9
$DIMTOFL
 70
     1
  9
$DIMTVP
 40
1.6000000000000001
  9
$DIMTIX
 70
     1
  9
$DIMSOXD
 70
     0
  9
$DIMSAH
 70
     0
  9
$DIMBLK1
  1

  9
$DIMBLK2
  1

  9
$DIMSTYLE
  2
STANDARD
  9
$DIMCLRD
 70
     0
  9
$DIMCLRE
 70
     0
  9
$DIMCLRT
 70
     0
  9
$DIMTFAC
 40
1.0
  9
$DIMGAP
 40
0.09
  9
$LUNITS
 70
     2
  9
$LUPREC
 70
     4
  9
$SKETCHINC
 40
0.1
  9
$FILLETRAD
 40
0.0
  9
$AUNITS
 70
     0
  9
$AUPREC
 70
     4
  9
$MENU
  1
E:\r13\win\SUPPORT\ACAD
  9
$ELEVATION
 40
0.0
  9
$PELEVATION
 40
0.0
  9
$THICKNESS
 40
0.0
  9
$LIMCHECK
 70
     0
  9
$BLIPMODE
 70
     0
  9
$CHAMFERA
 40
0.0
  9
$CHAMFERB
 40
0.0
  9
$SKPOLY
 70
     0
  9
$TDCREATE
 40
2449840.348113426
  9
$TDUPDATE
 40
2456597.6483046878
  9
$TDINDWG
 40
0.1435437384
  9
$TDUSRTIMER
 40
0.1435437384
  9
$USRTIMER
 70
     1
  9
$ANGBASE
 50
0.0
  9
$ANGDIR
 70
     0
  9
$PDMODE
 70
     1
  9
$PDSIZE
 40
0.0
  9
$PLINEWID
 40
0.0
  9
$COORDS
 70
     1
  9
$SPLFRAME
 70
     0
  9
$SPLINETYPE
 70
     6
  9
$SPLINESEGS
 70
     8
  9
$ATTDIA
 70
     0
  9
$ATTREQ
 70
     1
  9
$HANDLING
 70
     1
  9
$HANDSEED
  5
5053
  9
$SURFTAB1
 70
     6
  9
$SURFTAB2
 70
     6
  9
$SURFTYPE
 70
     6
  9
$SURFU
 70
     6
  9
$SURFV
 70
     6
  9
$UCSNAME
  2

  9
$UCSORG
 10
0.0
 20
0.0
 30
0.0
  9
$UCSXDIR
 10
1.0
 20
0.0
 30
0.0
  9
$UCSYDIR
 10
0.0
 20
1.0
 30
0.0
  9
$PUCSNAME
  2

  9
$PUCSORG
 10
0.0
 20
0.0
 30
0.0
  9
$PUCSXDIR
 10
1.0
 20
0.0
 30
0.0
  9
$PUCSYDIR
 10
0.0
 20
1.0
 30
0.0
  9
$USERI1
 70
     3
  9
$USERI2
 70
     1
  9
$USERI3
 70
     0
  9
$USERI4
 70
     0
  9
$USERI5
 70
     0
  9
$USERR1
 40
1.0
  9
$USERR2
 40
3.0
  9
$USERR3
 40
3.0
  9
$USERR4
 40
3.0
  9
$USERR5
 40
10.0
  9
$WORLDVIEW
 70
     1
  9
$SHADEDGE
 70
     3
  9
$SHADEDIF
 70
    70
  9
$TILEMODE
 70
     1
  9
$MAXACTVP
 70
    16
  9
$PLIMCHECK
 70
     0
  9
$PEXTMIN
 10
1.0000000000000000E+020
 20
1.0000000000000000E+020
 30
1.0000000000000000E+020
  9
$PEXTMAX
 10
-1.0000000000000000E+020
 20
-1.0000000000000000E+020
 30
-1.0000000000000000E+020
  9
$PLIMMIN
 10
0.0
 20
0.0
  9
$PLIMMAX
 10
12.0
 20
9.0
  9
$UNITMODE
 70
     0
  9
$VISRETAIN
 70
     0
  9
$PLINEGEN
 70
     0
  9
$PSLTSCALE
 70
     0
  0
ENDSEC
  0
SECTION
  2
TABLES
  0
TABLE
  2
VPORT
 70
     1
  0
VPORT
  2
*ACTIVE
 70
     0
 10
0.0
 20
0.0
 11
1.0
 21
1.0
 12
195.0581083320873
 22
133.5127261426681
 13
0.0
 23
0.0
 14
5.0
 24
5.0
 15
10.0
 25
10.0
 16
0.0
 26
0.0
 36
1.0
 17
0.0
 27
0.0
 37
0.0
 40
275.42274993631997
 41
1.831871345029239
 42
50.0
 43
0.0
 44
0.0
 50
0.0
 51
0.0
 71
     0
 72
   100
 73
     1
 74
     0
 75
     0
 76
     0
 77
     0
 78
     0
  0
ENDTAB
  0
TABLE
  2
LTYPE
 70
     4
  0
LTYPE
  2
CONTINUOUS
 70
     0
  3
Solid Line
 72
    65
 73
     0
 40
0.0
  0
LTYPE
  2
CENTER
 70
     0
  3
____ _ ____ _ ____ _ ____ _ ____ _ ____ _ ____
 72
    65
 73
     4
 40
2.0
 49
1.25
 49
-0.25
 49
0.25
 49
-0.25
  0
LTYPE
  2
HIDDEN
 70
     0
  3
__ __ __ __ __ __ __ __ __ __ __ __ __ __ __ __
 72
    65
 73
     2
 40
0.375
 49
0.25
 49
-0.125
  0
LTYPE
  2
PHANTOM2
 70
     0
  3
___ _ _ ___ _ _ ___ _ _ ___ _ _
 72
    65
 73
     6
 40
1.25
 49
0.625
 49
-0.125
 49
0.125
 49
-0.125
 49
0.125
 49
-0.125
  0
ENDTAB
  0
TABLE
  2
LAYER
 70
     5
  0
LAYER
  2
0
 70
     0
 62
     7
  6
CONTINUOUS
  0
LAYER
  2
1
 70
     0
 62
     1
  6
CENTER
  0
LAYER
  2
2
 70
     0
 62
     2
  6
HIDDEN
  0
LAYER
  2
3
 70
     0
 62
     3
  6
CONTINUOUS
  0
LAYER
  2
DEFPOINTS
 70
     0
 62
     7
  6
CONTINUOUS
  0
ENDTAB
  0
TABLE
  2
STYLE
 70
     2
  0
STYLE
  2
STANDARD
 70
     0
 40
0.0
 41
1.0
 50
0.0
 71
     0
 42
0.06
  3
TXT
  4
BIGFONT
  0
STYLE
  2
STANDARD1
 70
     0
 40
0.0
 41
1.0
 50
0.0
 71
     0
 42
3.0
  3
txt
  4

  0
ENDTAB
  0
TABLE
  2
VIEW
 70
     0
  0
ENDTAB
  0
TABLE
  2
UCS
 70
     0
  0
ENDTAB
  0
TABLE
  2
APPID
 70
     3
  0
APPID
  2
ACAD
 70
     0
  0
APPID
  2
ACAD_MLEADERVER
 70
     0
  0
APPID
  2
ACAD_NAV_VCDISPLAY
 70
     0
  0
ENDTAB
  0
TABLE
  2
DIMSTYLE
 70
     1
  0
DIMSTYLE
  2
STANDARD
 70
     0
  3

  4

  5

  6

  7

 40
1.0
 41
0.18
 42
0.0625
 43
0.38
 44
0.18
 45
0.0
 46
0.0
 47
0.0
 48
0.0
140
0.18
141
0.09
142
0.0
143
25.399999999999999
144
1.0
145
0.0
146
1.0
147
0.09
 71
     0
 72
     0
 73
     1
 74
     1
 75
     0
 76
     0
 77
     0
 78
     0
170
     0
171
     2
172
     0
173
     0
174
     0
175
     0
176
     0
177
     0
178
     0
  0
ENDTAB
  0
ENDSEC
  0
SECTION
  2
BLOCKS
  0
BLOCK
  8
0
  2
$MODEL_SPACE
 70
     0
 10
0.0
 20
0.0
 30
0.0
  3
$MODEL_SPACE
  1

  0
ENDBLK
  5
223
  8
0
  0
BLOCK
 67
     1
  8
0
  2
$PAPER_SPACE
 70
     0
 10
0.0
 20
0.0
 30
0.0
  3
$PAPER_SPACE
  1

  0
ENDBLK
  5
221
 67
     1
  8
0
  0
ENDSEC
  0
SECTION
  2
ENTITIES
  0
LINE
  5
3F20
  8
0
 10
339.3605668671355
 20
91.843050923981281
 30
0.0
 11
346.3605668671359
 21
91.843050923981281
 31
0.0
  0
LINE
  5
3F21
  8
0
 10
320.3605668671355
 20
91.843050923981281
 30
0.0
 11
327.3605668671355
 21
91.843050923981281
 31
0.0
  0
LINE
  5
3F22
  8
0
 10
320.8605668671355
 20
95.343050923981281
 30
0.0
 11
327.3605668671355
 21
95.343050923981281
 31
0.0
  0
LINE
  5
3F23
  8
0
 10
339.3605668671355
 20
95.343050923981281
 30
0.0
 11
345.8605668671359
 21
95.343050923981281
 31
0.0
  0
LINE
  5
3F24
  8
0
 10
346.3605668671359
 20
94.843050923981295
 30
0.0
 11
339.3605668671355
 21
94.843050923981295
 31
0.0
  0
LINE
  5
3F25
  8
0
 10
327.3605668671355
 20
94.843050923981295
 30
0.0
 11
320.3605668671355
 21
94.843050923981295
 31
0.0
  0
LINE
  5
3F26
  8
0
 10
323.8605668671355
 20
98.843050923981295
 30
0.0
 11
323.8605668671355
 21
110.7058700133545
 31
0.0
  0
LINE
  5
3F27
  8
0
 10
323.8605668671355
 20
110.7058700133545
 30
0.0
 11
323.8605668671355
 21
111.55437338891549
 31
0.0
  0
POLYLINE
  5
3F28
  8
0
 66
     1
 10
0.0
 20
0.0
 30
0.0
 70
   128
  0
VERTEX
  5
4EB5
  8
0
 10
327.3605668671355
 20
111.44560515811079
 30
0.0
  0
VERTEX
  5
4EB6
  8
0
 10
326.06319122353511
 20
111.29747992482579
 30
0.0
  0
VERTEX
  5
4EB7
  8
0
 10
323.8605668671355
 20
110.7058700133545
 30
0.0
  0
SEQEND
  5
4EB8
  8
0
  0
LINE
  5
3F29
  8
0
 10
342.8605668671355
 20
111.55284832104741
 30
0.0
 11
342.8605668671355
 21
110.7058700133546
 31
0.0
  0
LINE
  5
3F2A
  8
0
 10
339.3605668671355
 20
111.84305092398129
 30
0.0
 11
342.3605668671355
 21
111.84305092398129
 31
0.0
  0
LINE
  5
3F2B
  8
0
 10
324.3605668671355
 20
111.84305092398129
 30
0.0
 11
327.3605668671355
 21
111.84305092398129
 31
0.0
  0
LINE
  5
3F2C
  8
0
 10
342.8605668671355
 20
98.843050923981295
 30
0.0
 11
342.8605668671355
 21
110.7058700133546
 31
0.0
  0
POLYLINE
  5
3F2D
  8
0
 66
     1
 10
0.0
 20
0.0
 30
0.0
 70
   128
  0
VERTEX
  5
4EB9
  8
0
 10
342.8605668671355
 20
110.7058700133546
 30
0.0
  0
VERTEX
  5
4EBA
  8
0
 10
340.37243581971802
 20
111.35087021225461
 30
0.0
  0
VERTEX
  5
4EBB
  8
0
 10
339.3605668671355
 20
111.4805430072235
 30
0.0
  0
SEQEND
  5
4EBC
  8
0
  0
LINE
  5
3F2E
  8
0
 10
339.3605668671355
 20
98.843050923981295
 30
0.0
 11
346.3605668671359
 21
98.843050923981295
 31
0.0
  0
LINE
  5
3F2F
  8
0
 10
320.3605668671355
 20
98.843050923981295
 30
0.0
 11
327.3605668671355
 21
98.843050923981295
 31
0.0
  0
LINE
  5
3F30
  8
0
 10
339.3605668671355
 20
95.843050923981281
 30
0.0
 11
346.3605668671359
 21
95.843050923981281
 31
0.0
  0
LINE
  5
3F31
  8
0
 10
320.3605668671355
 20
95.843050923981281
 30
0.0
 11
327.3605668671355
 21
95.843050923981281
 31
0.0
  0
LINE
  5
3F32
  8
0
 10
327.9379171363255
 20
136.3430509239812
 30
0.0
 11
338.78321659794642
 21
136.3430509239812
 31
0.0
  0
LINE
  5
3F33
  8
0
 10
339.3605668671355
 20
135.3430509239812
 30
0.0
 11
327.3605668671355
 21
135.3430509239812
 31
0.0
  0
LINE
  5
3F34
  8
0
 10
336.96056686713592
 20
64.95741027792613
 30
0.0
 11
329.76056686713559
 21
64.95741027792613
 31
0.0
  0
LINE
  5
3F36
  8
0
 10
324.3605668671355
 20
64.343050923981224
 30
0.0
 11
342.3605668671355
 21
64.343050923981224
 31
0.0
  0
LINE
  5
3F37
  8
0
 10
320.8605668671355
 20
57.34305092398116
 30
0.0
 11
345.8605668671355
 21
57.34305092398116
 31
0.0
  0
LINE
  5
3F38
  8
0
 10
320.8605668671355
 20
51.343050923981167
 30
0.0
 11
345.8605668671355
 21
51.343050923981167
 31
0.0
  0
LINE
  5
3F3B
  8
0
 10
338.28706686713599
 20
157.34305092398111
 30
0.0
 11
328.43406686713593
 21
157.34305092398111
 31
0.0
  0
LINE
  5
3F3C
  8
0
 10
339.3605668671355
 20
156.26955092398109
 30
0.0
 11
327.3605668671355
 21
156.26955092398109
 31
0.0
  0
ARC
  5
3F3D
  8
0
 10
333.3605668671355
 20
32.343050923980712
 30
0.0
 40
8.6068286842488533
 50
0.0000000000032569
 51
179.99999999999261
  0
LINE
  5
3F3E
  8
0
 10
338.1105668671355
 20
42.26461834047322
 30
0.0
 11
328.6105668671355
 21
42.26461834047322
 31
0.0
  0
LINE
  5
3F43
  8
0
 10
344.29492098614969
 20
28.743050923981201
 30
0.0
 11
344.29492098614969
 21
32.343050923981217
 31
0.0
  0
LINE
  5
3F44
  8
0
 10
344.36056686713601
 20
32.343050923981259
 30
0.0
 11
322.36056686713528
 21
32.343050923981217
 31
0.0
  0
LINE
  5
3F45
  8
0
 10
322.42621274812183
 20
32.343050923981217
 30
0.0
 11
322.42621274812183
 21
28.743050923981201
 31
0.0
  0
LINE
  5
3F47
  8
0
 10
344.36056686713499
 20
32.343050923981849
 30
0.0
 11
344.36056686713601
 21
24.343050923981171
 31
0.0
  0
LINE
  5
3F48
  8
0
 10
344.3605668671355
 20
28.743050923981201
 30
0.0
 11
344.29492098614969
 21
28.743050923981201
 31
0.0
  0
POLYLINE
  5
3F49
  8
0
 66
     1
 10
0.0
 20
0.0
 30
0.0
 70
   128
  0
VERTEX
  5
4EBD
  8
0
 10
334.92008602380128
 20
24.343050923981171
 30
0.0
  0
VERTEX
  5
4EBE
  8
0
 10
337.0661458700236
 20
24.371253673966319
 30
0.0
  0
VERTEX
  5
4EBF
  8
0
 10
339.21220571624571
 20
24.555142739799042
 30
0.0
  0
VERTEX
  5
4EC0
  8
0
 10
340.64452203330961
 20
24.867358473030691
 30
0.0
  0
VERTEX
  5
4EC1
  8
0
 10
342.03823212362317
 20
25.434653676206011
 30
0.0
  0
VERTEX
  5
4EC2
  8
0
 10
343.20153973655869
 20
26.28527179004957
 30
0.0
  0
VERTEX
  5
4EC3
  8
0
 10
343.6657293105493
 20
26.83141379469393
 30
0.0
  0
VERTEX
  5
4EC4
  8
0
 10
344.02997693057767
 20
27.478500876816469
 30
0.0
  0
VERTEX
  5
4EC5
  8
0
 10
344.2869606077013
 20
28.520914085131011
 30
0.0
  0
VERTEX
  5
4EC6
  8
0
 10
344.29492098614969
 20
28.743050923981201
 30
0.0
  0
SEQEND
  5
4EC7
  8
0
  0
LINE
  5
3F4A
  8
0
 10
344.36056686713601
 20
24.343050923981171
 30
0.0
 11
322.36056686713528
 21
24.34305092398111
 31
0.0
  0
POLYLINE
  5
3F4B
  8
0
 66
     1
 10
0.0
 20
0.0
 30
0.0
 70
   128
  0
VERTEX
  5
4EC8
  8
0
 10
322.42621274812183
 20
28.743050923981201
 30
0.0
  0
VERTEX
  5
4EC9
  8
0
 10
322.51791889423862
 20
27.992339582000881
 30
0.0
  0
VERTEX
  5
4ECA
  8
0
 10
322.92621887888731
 20
27.027202535163699
 30
0.0
  0
VERTEX
  5
4ECB
  8
0
 10
323.65519624692001
 20
26.156554739966712
 30
0.0
  0
VERTEX
  5
4ECC
  8
0
 10
324.35394108833788
 20
25.627384493178429
 30
0.0
  0
VERTEX
  5
4ECD
  8
0
 10
325.15023425033201
 20
25.205352821052632
 30
0.0
  0
VERTEX
  5
4ECE
  8
0
 10
326.49624860042439
 20
24.753687650766128
 30
0.0
  0
VERTEX
  5
4ECF
  8
0
 10
327.9290172582634
 20
24.49814414748008
 30
0.0
  0
VERTEX
  5
4ED0
  8
0
 10
329.8582595849719
 20
24.36451686355278
 30
0.0
  0
VERTEX
  5
4ED1
  8
0
 10
331.80104771047007
 20
24.343050923981171
 30
0.0
  0
SEQEND
  5
4ED2
  8
0
  0
LINE
  5
3F4C
  8
0
 10
322.42621274812183
 20
28.743050923981201
 30
0.0
 11
322.3605668671355
 21
28.743050923981201
 31
0.0
  0
LINE
  5
3F4D
  8
0
 10
322.3605668671355
 20
24.343050923981171
 30
0.0
 11
322.3605668671355
 21
32.343050923980712
 31
0.0
  0
POLYLINE
  5
3F4F
  8
0
 10
339.8605668671359
 20
67.507887366048053
 30
0.0
 66
     1
 70
     8
  0
VERTEX
  8
0
  5
4F4F
 10
339.861
 20
67.5079
 30
0.000000
  70
    32
  0
VERTEX
  8
0
  5
4F50
 10
339.861
 20
67.5101
 30
0.000000
  70
    32
  0
VERTEX
  8
0
  5
4F51
 10
339.860
 20
67.5123
 30
0.000000
  70
    32
  0
VERTEX
  8
0
  5
4F52
 10
339.860
 20
67.5145
 30
0.000000
  70
    32
  0
VERTEX
  8
0
  5
4F53
 10
339.860
 20
67.5167
 30
0.000000
  70
    32
  0
VERTEX
  8
0
  5
4F54
 10
339.860
 20
67.5189
 30
0.000000
  70
    32
  0
VERTEX
  8
0
  5
4F55
 10
339.859
 20
67.5211
 30
0.000000
  70
    32
  0
VERTEX
  8
0
  5
4F56
 10
339.859
 20
67.5233
 30
0.000000
  70
    32
  0
VERTEX
  8
0
  5
4F57
 10
339.859
 20
67.5255
 30
0.000000
  70
    32
  0
VERTEX
  8
0
  5
4F58
 10
339.858
 20
67.5277
 30
0.000000
  70
    32
  0
VERTEX
  8
0
  5
4F59
 10
339.857
 20
67.5299
 30
0.000000
  70
    32
  0
VERTEX
  8
0
  5
4F5A
 10
339.857
 20
67.5321
 30
0.000000
  70
    32
  0
VERTEX
  8
0
  5
4F5B
 10
339.856
 20
67.5343
 30
0.000000
  70
    32
  0
VERTEX
  8
0
  5
4F5C
 10
339.855
 20
67.5365
 30
0.000000
  70
    32
  0
VERTEX
  8
0
  5
4F5D
 10
339.855
 20
67.5387
 30
0.000000
  70
    32
  0
VERTEX
  8
0
  5
4F5E
 10
339.854
 20
67.5409
 30
0.000000
  70
    32
  0
VERTEX
  8
0
  5
4F5F
 10
339.853
 20
67.5431
 30
0.000000
  70
    32
  0
VERTEX
  8
0
  5
4F60
 10
339.852
 20
67.5453
 30
0.000000
  70
    32
  0
VERTEX
  8
0
  5
4F61
 10
339.851
 20
67.5475
 30
0.000000
  70
    32
  0
VERTEX
  8
0
  5
4F62
 10
339.849
 20
67.5497
 30
0.000000
  70
    32
  0
VERTEX
  8
0
  5
4F63
 10
339.848
 20
67.5519
 30
0.000000
  70
    32
  0
VERTEX
  8
0
  5
4F64
 10
339.847
 20
67.5541
 30
0.000000
  70
    32
  0
VERTEX
  8
0
  5
4F65
 10
339.846
 20
67.5563
 30
0.000000
  70
    32
  0
VERTEX
  8
0
  5
4F66
 10
339.844
 20
67.5585
 30
0.000000
  70
    32
  0
VERTEX
  8
0
  5
4F67
 10
339.843
 20
67.5607
 30
0.000000
  70
    32
  0
VERTEX
  8
0
  5
4F68
 10
339.841
 20
67.5629
 30
0.000000
  70
    32
  0
VERTEX
  8
0
  5
4F69
 10
339.840
 20
67.5651
 30
0.000000
  70
    32
  0
VERTEX
  8
0
  5
4F6A
 10
339.838
 20
67.5673
 30
0.000000
  70
    32
  0
VERTEX
  8
0
  5
4F6B
 10
339.836
 20
67.5695
 30
0.000000
  70
    32
  0
VERTEX
  8
0
  5
4F6C
 10
339.835
 20
67.5717
 30
0.000000
  70
    32
  0
VERTEX
  8
0
  5
4F6D
 10
339.833
 20
67.5739
 30
0.000000
  70
    32
  0
VERTEX
  8
0
  5
4F6E
 10
339.831
 20
67.5761
 30
0.000000
  70
    32
  0
VERTEX
  8
0
  5
4F6F
 10
339.829
 20
67.5783
 30
0.000000
  70
    32
  0
VERTEX
  8
0
  5
4F70
 10
339.827
 20
67.5805
 30
0.000000
  70
    32
  0
VERTEX
  8
0
  5
4F71
 10
339.825
 20
67.5827
 30
0.000000
  70
    32
  0
VERTEX
  8
0
  5
4F72
 10
339.823
 20
67.5848
 30
0.000000
  70
    32
  0
VERTEX
  8
0
  5
4F73
 10
339.821
 20
67.5870
 30
0.000000
  70
    32
  0
VERTEX
  8
0
  5
4F74
 10
339.818
 20
67.5892
 30
0.000000
  70
    32
  0
VERTEX
  8
0
  5
4F75
 10
339.816
 20
67.5914
 30
0.000000
  70
    32
  0
VERTEX
  8
0
  5
4F76
 10
339.814
 20
67.5936
 30
0.000000
  70
    32
  0
VERTEX
  8
0
  5
4F77
 10
339.811
 20
67.5958
 30
0.000000
  70
    32
  0
VERTEX
  8
0
  5
4F78
 10
339.809
 20
67.5980
 30
0.000000
  70
    32
  0
VERTEX
  8
0
  5
4F79
 10
339.806
 20
67.6002
 30
0.000000
  70
    32
  0
VERTEX
  8
0
  5
4F7A
 10
339.803
 20
67.6023
 30
0.000000
  70
    32
  0
VERTEX
  8
0
  5
4F7B
 10
339.801
 20
67.6045
 30
0.000000
  70
    32
  0
VERTEX
  8
0
  5
4F7C
 10
339.798
 20
67.6067
 30
0.000000
  70
    32
  0
VERTEX
  8
0
  5
4F7D
 10
339.795
 20
67.6089
 30
0.000000
  70
    32
  0
VERTEX
  8
0
  5
4F7E
 10
339.792
 20
67.6111
 30
0.000000
  70
    32
  0
VERTEX
  8
0
  5
4F7F
 10
339.789
 20
67.6132
 30
0.000000
  70
    32
  0
VERTEX
  8
0
  5
4F80
 10
339.786
 20
67.6154
 30
0.000000
  70
    32
  0
VERTEX
  8
0
  5
4F81
 10
339.783
 20
67.6176
 30
0.000000
  70
    32
  0
VERTEX
  8
0
  5
4F82
 10
339.780
 20
67.6198
 30
0.000000
  70
    32
  0
VERTEX
  8
0
  5
4F83
 10
339.777
 20
67.6220
 30
0.000000
  70
    32
  0
VERTEX
  8
0
  5
4F84
 10
339.774
 20
67.6241
 30
0.000000
  70
    32
  0
VERTEX
  8
0
  5
4F85
 10
339.771
 20
67.6263
 30
0.000000
  70
    32
  0
VERTEX
  8
0
  5
4F86
 10
339.767
 20
67.6285
 30
0.000000
  70
    32
  0
VERTEX
  8
0
  5
4F87
 10
339.764
 20
67.6306
 30
0.000000
  70
    32
  0
VERTEX
  8
0
  5
4F88
 10
339.760
 20
67.6328
 30
0.000000
  70
    32
  0
VERTEX
  8
0
  5
4F89
 10
339.757
 20
67.6350
 30
0.000000
  70
    32
  0
VERTEX
  8
0
  5
4F8A
 10
339.753
 20
67.6372
 30
0.000000
  70
    32
  0
VERTEX
  8
0
  5
4F8B
 10
339.750
 20
67.6393
 30
0.000000
  70
    32
  0
VERTEX
  8
0
  5
4F8C
 10
339.746
 20
67.6415
 30
0.000000
  70
    32
  0
VERTEX
  8
0
  5
4F8D
 10
339.742
 20
67.6436
 30
0.000000
  70
    32
  0
VERTEX
  8
0
  5
4F8E
 10
339.738
 20
67.6458
 30
0.000000
  70
    32
  0
VERTEX
  8
0
  5
4F8F
 10
339.734
 20
67.6480
 30
0.000000
  70
    32
  0
VERTEX
  8
0
  5
4F90
 10
339.730
 20
67.6501
 30
0.000000
  70
    32
  0
VERTEX
  8
0
  5
4F91
 10
339.726
 20
67.6523
 30
0.000000
  70
    32
  0
VERTEX
  8
0
  5
4F92
 10
339.722
 20
67.6544
 30
0.000000
  70
    32
  0
VERTEX
  8
0
  5
4F93
 10
339.718
 20
67.6566
 30
0.000000
  70
    32
  0
VERTEX
  8
0
  5
4F94
 10
339.714
 20
67.6588
 30
0.000000
  70
    32
  0
VERTEX
  8
0
  5
4F95
 10
339.710
 20
67.6609
 30
0.000000
  70
    32
  0
VERTEX
  8
0
  5
4F96
 10
339.705
 20
67.6631
 30
0.000000
  70
    32
  0
VERTEX
  8
0
  5
4F97
 10
339.701
 20
67.6652
 30
0.000000
  70
    32
  0
VERTEX
  8
0
  5
4F98
 10
339.697
 20
67.6674
 30
0.000000
  70
    32
  0
VERTEX
  8
0
  5
4F99
 10
339.692
 20
67.6695
 30
0.000000
  70
    32
  0
VERTEX
  8
0
  5
4F9A
 10
339.687
 20
67.6716
 30
0.000000
  70
    32
  0
VERTEX
  8
0
  5
4F9B
 10
339.683
 20
67.6738
 30
0.000000
  70
    32
  0
VERTEX
  8
0
  5
4F9C
 10
339.678
 20
67.6759
 30
0.000000
  70
    32
  0
VERTEX
  8
0
  5
4F9D
 10
339.673
 20
67.6781
 30
0.000000
  70
    32
  0
VERTEX
  8
0
  5
4F9E
 10
339.669
 20
67.6802
 30
0.000000
  70
    32
  0
VERTEX
  8
0
  5
4F9F
 10
339.664
 20
67.6824
 30
0.000000
  70
    32
  0
VERTEX
  8
0
  5
4FA0
 10
339.659
 20
67.6845
 30
0.000000
  70
    32
  0
VERTEX
  8
0
  5
4FA1
 10
339.654
 20
67.6866
 30
0.000000
  70
    32
  0
VERTEX
  8
0
  5
4FA2
 10
339.649
 20
67.6888
 30
0.000000
  70
    32
  0
VERTEX
  8
0
  5
4FA3
 10
339.644
 20
67.6909
 30
0.000000
  70
    32
  0
VERTEX
  8
0
  5
4FA4
 10
339.638
 20
67.6930
 30
0.000000
  70
    32
  0
VERTEX
  8
0
  5
4FA5
 10
339.633
 20
67.6951
 30
0.000000
  70
    32
  0
VERTEX
  8
0
  5
4FA6
 10
339.628
 20
67.6973
 30
0.000000
  70
    32
  0
VERTEX
  8
0
  5
4FA7
 10
339.623
 20
67.6994
 30
0.000000
  70
    32
  0
VERTEX
  8
0
  5
4FA8
 10
339.617
 20
67.7015
 30
0.000000
  70
    32
  0
VERTEX
  8
0
  5
4FA9
 10
339.612
 20
67.7036
 30
0.000000
  70
    32
  0
VERTEX
  8
0
  5
4FAA
 10
339.606
 20
67.7057
 30
0.000000
  70
    32
  0
VERTEX
  8
0
  5
4FAB
 10
339.601
 20
67.7079
 30
0.000000
  70
    32
  0
VERTEX
  8
0
  5
4FAC
 10
339.595
 20
67.7100
 30
0.000000
  70
    32
  0
VERTEX
  8
0
  5
4FAD
 10
339.589
 20
67.7121
 30
0.000000
  70
    32
  0
VERTEX
  8
0
  5
4FAE
 10
339.584
 20
67.7142
 30
0.000000
  70
    32
  0
VERTEX
  8
0
  5
4FAF
 10
339.578
 20
67.7163
 30
0.000000
  70
    32
  0
VERTEX
  8
0
  5
4FB0
 10
339.572
 20
67.7184
 30
0.000000
  70
    32
  0
VERTEX
  8
0
  5
4FB1
 10
339.566
 20
67.7205
 30
0.000000
  70
    32
  0
VERTEX
  8
0
  5
4FB2
 10
339.560
 20
67.7226
 30
0.000000
  70
    32
  0
VERTEX
  8
0
  5
4FB3
 10
339.554
 20
67.7247
 30
0.000000
  70
    32
  0
VERTEX
  8
0
  5
4FB4
 10
339.548
 20
67.7268
 30
0.000000
  70
    32
  0
VERTEX
  8
0
  5
4FB5
 10
339.542
 20
67.7289
 30
0.000000
  70
    32
  0
VERTEX
  8
0
  5
4FB6
 10
339.535
 20
67.7310
 30
0.000000
  70
    32
  0
VERTEX
  8
0
  5
4FB7
 10
339.529
 20
67.7331
 30
0.000000
  70
    32
  0
VERTEX
  8
0
  5
4FB8
 10
339.523
 20
67.7352
 30
0.000000
  70
    32
  0
VERTEX
  8
0
  5
4FB9
 10
339.516
 20
67.7373
 30
0.000000
  70
    32
  0
VERTEX
  8
0
  5
4FBA
 10
339.510
 20
67.7394
 30
0.000000
  70
    32
  0
VERTEX
  8
0
  5
4FBB
 10
339.503
 20
67.7414
 30
0.000000
  70
    32
  0
VERTEX
  8
0
  5
4FBC
 10
339.497
 20
67.7435
 30
0.000000
  70
    32
  0
VERTEX
  8
0
  5
4FBD
 10
339.490
 20
67.7456
 30
0.000000
  70
    32
  0
VERTEX
  8
0
  5
4FBE
 10
339.483
 20
67.7477
 30
0.000000
  70
    32
  0
VERTEX
  8
0
  5
4FBF
 10
339.477
 20
67.7498
 30
0.000000
  70
    32
  0
VERTEX
  8
0
  5
4FC0
 10
339.470
 20
67.7518
 30
0.000000
  70
    32
  0
VERTEX
  8
0
  5
4FC1
 10
339.463
 20
67.7539
 30
0.000000
  70
    32
  0
VERTEX
  8
0
  5
4FC2
 10
339.456
 20
67.7560
 30
0.000000
  70
    32
  0
VERTEX
  8
0
  5
4FC3
 10
339.449
 20
67.7580
 30
0.000000
  70
    32
  0
VERTEX
  8
0
  5
4FC4
 10
339.442
 20
67.7601
 30
0.000000
  70
    32
  0
VERTEX
  8
0
  5
4FC5
 10
339.435
 20
67.7621
 30
0.000000
  70
    32
  0
VERTEX
  8
0
  5
4FC6
 10
339.428
 20
67.7642
 30
0.000000
  70
    32
  0
VERTEX
  8
0
  5
4FC7
 10
339.420
 20
67.7663
 30
0.000000
  70
    32
  0
VERTEX
  8
0
  5
4FC8
 10
339.413
 20
67.7683
 30
0.000000
  70
    32
  0
VERTEX
  8
0
  5
4FC9
 10
339.406
 20
67.7704
 30
0.000000
  70
    32
  0
VERTEX
  8
0
  5
4FCA
 10
339.398
 20
67.7724
 30
0.000000
  70
    32
  0
VERTEX
  8
0
  5
4FCB
 10
339.391
 20
67.7745
 30
0.000000
  70
    32
  0
VERTEX
  8
0
  5
4FCC
 10
339.383
 20
67.7765
 30
0.000000
  70
    32
  0
VERTEX
  8
0
  5
4FCD
 10
339.376
 20
67.7785
 30
0.000000
  70
    32
  0
VERTEX
  8
0
  5
4FCE
 10
339.368
 20
67.7806
 30
0.000000
  70
    32
  0
VERTEX
  8
0
  5
4FCF
 10
339.361
 20
67.7826
 30
0.000000
  70
    32
  0
SEQEND
  8
0
  5
4FD0
  0
POLYLINE
  5
3F50
  8
0
 10
327.36056686713573
 20
67.782612942007091
 30
0.0
 66
     1
 70
     8
  0
VERTEX
  8
0
  5
4FD1
 10
327.361
 20
67.7826
 30
0.000000
  70
    32
  0
VERTEX
  8
0
  5
4FD2
 10
327.353
 20
67.7806
 30
0.000000
  70
    32
  0
VERTEX
  8
0
  5
4FD3
 10
327.345
 20
67.7785
 30
0.000000
  70
    32
  0
VERTEX
  8
0
  5
4FD4
 10
327.338
 20
67.7765
 30
0.000000
  70
    32
  0
VERTEX
  8
0
  5
4FD5
 10
327.330
 20
67.7745
 30
0.000000
  70
    32
  0
VERTEX
  8
0
  5
4FD6
 10
327.323
 20
67.7724
 30
0.000000
  70
    32
  0
VERTEX
  8
0
  5
4FD7
 10
327.315
 20
67.7704
 30
0.000000
  70
    32
  0
VERTEX
  8
0
  5
4FD8
 10
327.308
 20
67.7683
 30
0.000000
  70
    32
  0
VERTEX
  8
0
  5
4FD9
 10
327.301
 20
67.7663
 30
0.000000
  70
    32
  0
VERTEX
  8
0
  5
4FDA
 10
327.293
 20
67.7642
 30
0.000000
  70
    32
  0
VERTEX
  8
0
  5
4FDB
 10
327.286
 20
67.7621
 30
0.000000
  70
    32
  0
VERTEX
  8
0
  5
4FDC
 10
327.279
 20
67.7601
 30
0.000000
  70
    32
  0
VERTEX
  8
0
  5
4FDD
 10
327.272
 20
67.7580
 30
0.000000
  70
    32
  0
VERTEX
  8
0
  5
4FDE
 10
327.265
 20
67.7560
 30
0.000000
  70
    32
  0
VERTEX
  8
0
  5
4FDF
 10
327.258
 20
67.7539
 30
0.000000
  70
    32
  0
VERTEX
  8
0
  5
4FE0
 10
327.251
 20
67.7518
 30
0.000000
  70
    32
  0
VERTEX
  8
0
  5
4FE1
 10
327.245
 20
67.7498
 30
0.000000
  70
    32
  0
VERTEX
  8
0
  5
4FE2
 10
327.238
 20
67.7477
 30
0.000000
  70
    32
  0
VERTEX
  8
0
  5
4FE3
 10
327.231
 20
67.7456
 30
0.000000
  70
    32
  0
VERTEX
  8
0
  5
4FE4
 10
327.224
 20
67.7435
 30
0.000000
  70
    32
  0
VERTEX
  8
0
  5
4FE5
 10
327.218
 20
67.7414
 30
0.000000
  70
    32
  0
VERTEX
  8
0
  5
4FE6
 10
327.211
 20
67.7394
 30
0.000000
  70
    32
  0
VERTEX
  8
0
  5
4FE7
 10
327.205
 20
67.7373
 30
0.000000
  70
    32
  0
VERTEX
  8
0
  5
4FE8
 10
327.198
 20
67.7352
 30
0.000000
  70
    32
  0
VERTEX
  8
0
  5
4FE9
 10
327.192
 20
67.7331
 30
0.000000
  70
    32
  0
VERTEX
  8
0
  5
4FEA
 10
327.186
 20
67.7310
 30
0.000000
  70
    32
  0
VERTEX
  8
0
  5
4FEB
 10
327.180
 20
67.7289
 30
0.000000
  70
    32
  0
VERTEX
  8
0
  5
4FEC
 10
327.173
 20
67.7268
 30
0.000000
  70
    32
  0
VERTEX
  8
0
  5
4FED
 10
327.167
 20
67.7247
 30
0.000000
  70
    32
  0
VERTEX
  8
0
  5
4FEE
 10
327.161
 20
67.7226
 30
0.000000
  70
    32
  0
VERTEX
  8
0
  5
4FEF
 10
327.155
 20
67.7205
 30
0.000000
  70
    32
  0
VERTEX
  8
0
  5
4FF0
 10
327.149
 20
67.7184
 30
0.000000
  70
    32
  0
VERTEX
  8
0
  5
4FF1
 10
327.143
 20
67.7163
 30
0.000000
  70
    32
  0
VERTEX
  8
0
  5
4FF2
 10
327.138
 20
67.7142
 30
0.000000
  70
    32
  0
VERTEX
  8
0
  5
4FF3
 10
327.132
 20
67.7121
 30
0.000000
  70
    32
  0
VERTEX
  8
0
  5
4FF4
 10
327.126
 20
67.7100
 30
0.000000
  70
    32
  0
VERTEX
  8
0
  5
4FF5
 10
327.120
 20
67.7079
 30
0.000000
  70
    32
  0
VERTEX
  8
0
  5
4FF6
 10
327.115
 20
67.7057
 30
0.000000
  70
    32
  0
VERTEX
  8
0
  5
4FF7
 10
327.109
 20
67.7036
 30
0.000000
  70
    32
  0
VERTEX
  8
0
  5
4FF8
 10
327.104
 20
67.7015
 30
0.000000
  70
    32
  0
VERTEX
  8
0
  5
4FF9
 10
327.099
 20
67.6994
 30
0.000000
  70
    32
  0
VERTEX
  8
0
  5
4FFA
 10
327.093
 20
67.6973
 30
0.000000
  70
    32
  0
VERTEX
  8
0
  5
4FFB
 10
327.088
 20
67.6951
 30
0.000000
  70
    32
  0
VERTEX
  8
0
  5
4FFC
 10
327.083
 20
67.6930
 30
0.000000
  70
    32
  0
VERTEX
  8
0
  5
4FFD
 10
327.078
 20
67.6909
 30
0.000000
  70
    32
  0
VERTEX
  8
0
  5
4FFE
 10
327.072
 20
67.6888
 30
0.000000
  70
    32
  0
VERTEX
  8
0
  5
4FFF
 10
327.067
 20
67.6866
 30
0.000000
  70
    32
  0
VERTEX
  8
0
  5
5000
 10
327.062
 20
67.6845
 30
0.000000
  70
    32
  0
VERTEX
  8
0
  5
5001
 10
327.057
 20
67.6824
 30
0.000000
  70
    32
  0
VERTEX
  8
0
  5
5002
 10
327.053
 20
67.6802
 30
0.000000
  70
    32
  0
VERTEX
  8
0
  5
5003
 10
327.048
 20
67.6781
 30
0.000000
  70
    32
  0
VERTEX
  8
0
  5
5004
 10
327.043
 20
67.6759
 30
0.000000
  70
    32
  0
VERTEX
  8
0
  5
5005
 10
327.038
 20
67.6738
 30
0.000000
  70
    32
  0
VERTEX
  8
0
  5
5006
 10
327.034
 20
67.6716
 30
0.000000
  70
    32
  0
VERTEX
  8
0
  5
5007
 10
327.029
 20
67.6695
 30
0.000000
  70
    32
  0
VERTEX
  8
0
  5
5008
 10
327.025
 20
67.6674
 30
0.000000
  70
    32
  0
VERTEX
  8
0
  5
5009
 10
327.020
 20
67.6652
 30
0.000000
  70
    32
  0
VERTEX
  8
0
  5
500A
 10
327.016
 20
67.6631
 30
0.000000
  70
    32
  0
VERTEX
  8
0
  5
500B
 10
327.011
 20
67.6609
 30
0.000000
  70
    32
  0
VERTEX
  8
0
  5
500C
 10
327.007
 20
67.6588
 30
0.000000
  70
    32
  0
VERTEX
  8
0
  5
500D
 10
327.003
 20
67.6566
 30
0.000000
  70
    32
  0
VERTEX
  8
0
  5
500E
 10
326.999
 20
67.6544
 30
0.000000
  70
    32
  0
VERTEX
  8
0
  5
500F
 10
326.995
 20
67.6523
 30
0.000000
  70
    32
  0
VERTEX
  8
0
  5
5010
 10
326.991
 20
67.6501
 30
0.000000
  70
    32
  0
VERTEX
  8
0
  5
5011
 10
326.987
 20
67.6480
 30
0.000000
  70
    32
  0
VERTEX
  8
0
  5
5012
 10
326.983
 20
67.6458
 30
0.000000
  70
    32
  0
VERTEX
  8
0
  5
5013
 10
326.979
 20
67.6436
 30
0.000000
  70
    32
  0
VERTEX
  8
0
  5
5014
 10
326.975
 20
67.6415
 30
0.000000
  70
    32
  0
VERTEX
  8
0
  5
5015
 10
326.972
 20
67.6393
 30
0.000000
  70
    32
  0
VERTEX
  8
0
  5
5016
 10
326.968
 20
67.6372
 30
0.000000
  70
    32
  0
VERTEX
  8
0
  5
5017
 10
326.964
 20
67.6350
 30
0.000000
  70
    32
  0
VERTEX
  8
0
  5
5018
 10
326.961
 20
67.6328
 30
0.000000
  70
    32
  0
VERTEX
  8
0
  5
5019
 10
326.957
 20
67.6306
 30
0.000000
  70
    32
  0
VERTEX
  8
0
  5
501A
 10
326.954
 20
67.6285
 30
0.000000
  70
    32
  0
VERTEX
  8
0
  5
501B
 10
326.951
 20
67.6263
 30
0.000000
  70
    32
  0
VERTEX
  8
0
  5
501C
 10
326.947
 20
67.6241
 30
0.000000
  70
    32
  0
VERTEX
  8
0
  5
501D
 10
326.944
 20
67.6220
 30
0.000000
  70
    32
  0
VERTEX
  8
0
  5
501E
 10
326.941
 20
67.6198
 30
0.000000
  70
    32
  0
VERTEX
  8
0
  5
501F
 10
326.938
 20
67.6176
 30
0.000000
  70
    32
  0
VERTEX
  8
0
  5
5020
 10
326.935
 20
67.6154
 30
0.000000
  70
    32
  0
VERTEX
  8
0
  5
5021
 10
326.932
 20
67.6132
 30
0.000000
  70
    32
  0
VERTEX
  8
0
  5
5022
 10
326.929
 20
67.6111
 30
0.000000
  70
    32
  0
VERTEX
  8
0
  5
5023
 10
326.926
 20
67.6089
 30
0.000000
  70
    32
  0
VERTEX
  8
0
  5
5024
 10
326.923
 20
67.6067
 30
0.000000
  70
    32
  0
VERTEX
  8
0
  5
5025
 10
326.920
 20
67.6045
 30
0.000000
  70
    32
  0
VERTEX
  8
0
  5
5026
 10
326.918
 20
67.6023
 30
0.000000
  70
    32
  0
VERTEX
  8
0
  5
5027
 10
326.915
 20
67.6002
 30
0.000000
  70
    32
  0
VERTEX
  8
0
  5
5028
 10
326.912
 20
67.5980
 30
0.000000
  70
    32
  0
VERTEX
  8
0
  5
5029
 10
326.910
 20
67.5958
 30
0.000000
  70
    32
  0
VERTEX
  8
0
  5
502A
 10
326.908
 20
67.5936
 30
0.000000
  70
    32
  0
VERTEX
  8
0
  5
502B
 10
326.905
 20
67.5914
 30
0.000000
  70
    32
  0
VERTEX
  8
0
  5
502C
 10
326.903
 20
67.5892
 30
0.000000
  70
    32
  0
VERTEX
  8
0
  5
502D
 10
326.901
 20
67.5870
 30
0.000000
  70
    32
  0
VERTEX
  8
0
  5
502E
 10
326.898
 20
67.5848
 30
0.000000
  70
    32
  0
VERTEX
  8
0
  5
502F
 10
326.896
 20
67.5827
 30
0.000000
  70
    32
  0
VERTEX
  8
0
  5
5030
 10
326.894
 20
67.5805
 30
0.000000
  70
    32
  0
VERTEX
  8
0
  5
5031
 10
326.892
 20
67.5783
 30
0.000000
  70
    32
  0
VERTEX
  8
0
  5
5032
 10
326.890
 20
67.5761
 30
0.000000
  70
    32
  0
VERTEX
  8
0
  5
5033
 10
326.888
 20
67.5739
 30
0.000000
  70
    32
  0
VERTEX
  8
0
  5
5034
 10
326.887
 20
67.5717
 30
0.000000
  70
    32
  0
VERTEX
  8
0
  5
5035
 10
326.885
 20
67.5695
 30
0.000000
  70
    32
  0
VERTEX
  8
0
  5
5036
 10
326.883
 20
67.5673
 30
0.000000
  70
    32
  0
VERTEX
  8
0
  5
5037
 10
326.881
 20
67.5651
 30
0.000000
  70
    32
  0
VERTEX
  8
0
  5
5038
 10
326.880
 20
67.5629
 30
0.000000
  70
    32
  0
VERTEX
  8
0
  5
5039
 10
326.878
 20
67.5607
 30
0.000000
  70
    32
  0
VERTEX
  8
0
  5
503A
 10
326.877
 20
67.5585
 30
0.000000
  70
    32
  0
VERTEX
  8
0
  5
503B
 10
326.876
 20
67.5563
 30
0.000000
  70
    32
  0
VERTEX
  8
0
  5
503C
 10
326.874
 20
67.5541
 30
0.000000
  70
    32
  0
VERTEX
  8
0
  5
503D
 10
326.873
 20
67.5519
 30
0.000000
  70
    32
  0
VERTEX
  8
0
  5
503E
 10
326.872
 20
67.5497
 30
0.000000
  70
    32
  0
VERTEX
  8
0
  5
503F
 10
326.871
 20
67.5475
 30
0.000000
  70
    32
  0
VERTEX
  8
0
  5
5040
 10
326.869
 20
67.5453
 30
0.000000
  70
    32
  0
VERTEX
  8
0
  5
5041
 10
326.868
 20
67.5431
 30
0.000000
  70
    32
  0
VERTEX
  8
0
  5
5042
 10
326.868
 20
67.5409
 30
0.000000
  70
    32
  0
VERTEX
  8
0
  5
5043
 10
326.867
 20
67.5387
 30
0.000000
  70
    32
  0
VERTEX
  8
0
  5
5044
 10
326.866
 20
67.5365
 30
0.000000
  70
    32
  0
VERTEX
  8
0
  5
5045
 10
326.865
 20
67.5343
 30
0.000000
  70
    32
  0
VERTEX
  8
0
  5
5046
 10
326.864
 20
67.5321
 30
0.000000
  70
    32
  0
VERTEX
  8
0
  5
5047
 10
326.864
 20
67.5299
 30
0.000000
  70
    32
  0
VERTEX
  8
0
  5
5048
 10
326.863
 20
67.5277
 30
0.000000
  70
    32
  0
VERTEX
  8
0
  5
5049
 10
326.863
 20
67.5255
 30
0.000000
  70
    32
  0
VERTEX
  8
0
  5
504A
 10
326.862
 20
67.5233
 30
0.000000
  70
    32
  0
VERTEX
  8
0
  5
504B
 10
326.862
 20
67.5211
 30
0.000000
  70
    32
  0
VERTEX
  8
0
  5
504C
 10
326.861
 20
67.5189
 30
0.000000
  70
    32
  0
VERTEX
  8
0
  5
504D
 10
326.861
 20
67.5167
 30
0.000000
  70
    32
  0
VERTEX
  8
0
  5
504E
 10
326.861
 20
67.5145
 30
0.000000
  70
    32
  0
VERTEX
  8
0
  5
504F
 10
326.861
 20
67.5123
 30
0.000000
  70
    32
  0
VERTEX
  8
0
  5
5050
 10
326.861
 20
67.5101
 30
0.000000
  70
    32
  0
VERTEX
  8
0
  5
5051
 10
326.861
 20
67.5079
 30
0.000000
  70
    32
  0
SEQEND
  8
0
  5
5052
  0
LINE
  5
3F51
  8
0
 10
349.3605668671355
 20
91.343050923981224
 30
0.0
 11
349.3605668671355
 21
66.343050923981167
 31
0.0
  0
LINE
  5
3F52
  8
0
 10
317.3605668671355
 20
91.343050923981224
 30
0.0
 11
349.3605668671355
 21
91.343050923981224
 31
0.0
  0
LINE
  5
3F54
  8
0
 10
317.3605668671355
 20
66.343050923981167
 30
0.0
 11
349.36056686713528
 21
66.343050923981167
 31
0.0
  0
LINE
  5
3F55
  8
0
 10
326.8605668671355
 20
66.343050923981167
 30
0.0
 11
326.8605668671355
 21
71.343050923981167
 31
0.0
  0
LINE
  5
3F56
  8
0
 10
326.8605668671355
 20
71.343050923981167
 30
0.0
 11
339.8605668671355
 21
71.343050923981167
 31
0.0
  0
LINE
  5
3F57
  8
0
 10
339.8605668671355
 20
66.343050923981167
 30
0.0
 11
339.8605668671355
 21
71.343050923981167
 31
0.0
  0
LINE
  5
3F58
  8
0
 10
317.3605668671355
 20
91.343050923981224
 30
0.0
 11
317.3605668671355
 21
66.343050923981167
 31
0.0
  0
LINE
  5
3F59
  8
0
 10
320.3605668671355
 20
94.843050923981295
 30
0.0
 11
320.3605668671355
 21
91.843050923981281
 31
0.0
  0
LINE
  5
3F5A
  8
0
 10
346.3605668671359
 20
91.843050923981281
 30
0.0
 11
346.3605668671359
 21
94.843050923981295
 31
0.0
  0
LINE
  5
3F5B
  8
0
 10
345.8605668671359
 20
91.343050923981266
 30
0.0
 11
346.3605668671359
 21
91.843050923981281
 31
0.0
  0
LINE
  5
3F5C
  8
0
 10
320.3605668671355
 20
91.843050923981281
 30
0.0
 11
320.8605668671355
 21
91.343050923981266
 31
0.0
  0
LINE
  5
3F5D
  8
0
 10
320.8605668671355
 20
95.343050923981281
 30
0.0
 11
320.3605668671355
 21
94.843050923981295
 31
0.0
  0
LINE
  5
3F5E
  8
0
 10
346.3605668671359
 20
94.843050923981295
 30
0.0
 11
345.8605668671359
 21
95.343050923981281
 31
0.0
  0
LINE
  5
3F5F
  8
0
 10
324.3605668671355
 20
111.84305092398129
 30
0.0
 11
323.8605668671355
 21
111.5543757893864
 31
0.0
  0
LINE
  5
3F60
  8
0
 10
342.8605668671355
 20
111.5543757893865
 30
0.0
 11
342.3605668671355
 21
111.84305092398129
 31
0.0
  0
LINE
  5
3F61
  8
0
 10
346.3605668671359
 20
95.843050923981281
 30
0.0
 11
346.3605668671359
 21
98.843050923981295
 31
0.0
  0
LINE
  5
3F62
  8
0
 10
320.3605668671355
 20
98.843050923981295
 30
0.0
 11
320.3605668671355
 21
95.843050923981281
 31
0.0
  0
POLYLINE
  5
3F63
  8
0
 66
     1
 10
0.0
 20
0.0
 30
0.0
 70
   128
  0
VERTEX
  5
4ED3
  8
0
 10
320.3605668671355
 20
95.843050923981281
 30
0.0
  0
VERTEX
  5
4ED4
  8
0
 10
321.0204159133898
 20
95.535580984651446
 30
0.0
  0
VERTEX
  5
4ED5
  8
0
 10
321.45624041282491
 20
95.343050923981281
 30
0.0
  0
SEQEND
  5
4ED6
  8
0
  0
POLYLINE
  5
3F64
  8
0
 66
     1
 10
0.0
 20
0.0
 30
0.0
 70
   128
  0
VERTEX
  5
4ED7
  8
0
 10
345.264893321447
 20
95.343050923981281
 30
0.0
  0
VERTEX
  5
4ED8
  8
0
 10
345.70071782088161
 20
95.535580984651446
 30
0.0
  0
VERTEX
  5
4ED9
  8
0
 10
346.3605668671359
 20
95.843050923981281
 30
0.0
  0
SEQEND
  5
4EDA
  8
0
  0
LINE
  5
3F65
  8
0
 10
329.76056686713559
 20
64.95741027792613
 30
0.0
 11
329.76056686713559
 21
64.343050923981224
 31
0.0
  0
LINE
  5
3F66
  8
0
 10
336.96056686713592
 20
64.343050923981224
 30
0.0
 11
336.96056686713592
 21
64.95741027792613
 31
0.0
  0
LINE
  5
3F67
  8
0
 10
327.9379171363255
 20
136.3430509239812
 30
0.0
 11
327.3605668671355
 21
135.3430509239812
 31
0.0
  0
LINE
  5
3F68
  8
0
 10
339.3605668671355
 20
135.3430509239812
 30
0.0
 11
338.78321659794642
 21
136.3430509239812
 31
0.0
  0
LINE
  5
3F69
  8
0
 10
339.3605668671355
 20
91.343050923981266
 30
0.0
 11
339.3605668671355
 21
135.3430509239812
 31
0.0
  0
LINE
  5
3F6A
  8
0
 10
339.3605668671355
 20
66.343050923981167
 30
0.0
 11
339.3605668671355
 21
71.343050923981167
 31
0.0
  0
LINE
  5
3F6B
  8
0
 10
327.3605668671355
 20
71.343050923981167
 30
0.0
 11
327.3605668671355
 21
66.343050923981167
 31
0.0
  0
LINE
  5
3F6C
  8
0
 10
327.3605668671355
 20
135.3430509239812
 30
0.0
 11
327.3605668671355
 21
91.343050923981224
 31
0.0
  0
LINE
  5
3F6D
  8
0
 10
336.96056686713592
 20
64.95741027792613
 30
0.0
 11
339.3605668671355
 21
66.343050923981167
 31
0.0
  0
LINE
  5
3F6E
  8
0
 10
327.3605668671355
 20
66.343050923981167
 30
0.0
 11
329.76056686713559
 21
64.95741027792613
 31
0.0
  0
LINE
  5
3F6F
  8
0
 10
342.3605668671355
 20
57.34305092398116
 30
0.0
 11
342.3605668671355
 21
64.343050923981224
 31
0.0
  0
LINE
  5
3F70
  8
0
 10
324.3605668671355
 20
64.343050923981224
 30
0.0
 11
324.3605668671355
 21
57.34305092398116
 31
0.0
  0
LINE
  5
3F71
  8
0
 10
345.8605668671355
 20
51.343050923981167
 30
0.0
 11
345.8605668671355
 21
57.34305092398116
 31
0.0
  0
LINE
  5
3F72
  8
0
 10
320.8605668671355
 20
57.34305092398116
 30
0.0
 11
320.8605668671355
 21
51.343050923981167
 31
0.0
  0
LINE
  5
3F73
  8
0
 10
328.6105668671355
 20
51.343050923981167
 30
0.0
 11
328.6105668671355
 21
42.26461834047322
 31
0.0
  0
LINE
  5
3F74
  8
0
 10
328.61056686713539
 20
65.621363087494203
 30
0.0
 11
328.6105668671355
 21
64.343050923981224
 31
0.0
  0
LINE
  5
3F75
  8
0
 10
338.1105668671355
 20
64.343050923981224
 30
0.0
 11
338.11056686713539
 21
65.621363087494061
 31
0.0
  0
LINE
  5
3F76
  8
0
 10
338.1105668671355
 20
42.26461834047322
 30
0.0
 11
338.1105668671355
 21
51.343050923981167
 31
0.0
  0
LINE
  5
3F79
  8
0
 10
328.43406686713593
 20
157.34305092398111
 30
0.0
 11
327.3605668671355
 21
156.26955092398109
 31
0.0
  0
LINE
  5
3F7A
  8
0
 10
339.3605668671355
 20
156.26955092398109
 30
0.0
 11
338.28706686713599
 21
157.34305092398111
 31
0.0
  0
LINE
  5
3F7B
  8
0
 10
327.3605668671355
 20
156.26955092398109
 30
0.0
 11
327.3605668671355
 21
135.34305092398139
 31
0.0
  0
LINE
  5
3F7C
  8
0
 10
339.3605668671355
 20
135.343050923981
 30
0.0
 11
339.3605668671355
 21
156.26955092398109
 31
0.0
  0
ARC
  5
3F7D
  8
0
 10
333.3605668671355
 20
32.343050923980712
 30
0.0
 40
11.000000000000449
 50
0.0000000000024427
 51
64.416998022598108
  0
ARC
  5
3F7E
  8
0
 10
333.3605668671355
 20
32.343050923980712
 30
0.0
 40
11.00000000000024
 50
115.5830019773956
 51
179.9999999999975
  0
LINE
  5
3FD7
  8
1
 10
41.360566867135262
 20
162.34305092398111
 30
0.0
 11
41.360566867134821
 21
19.343050923981139
 31
0.0
  0
LINE
  5
3FDA
  8
3
 10
36.235566867135041
 20
157.1445509239812
 30
0.0
 11
36.235566867135283
 21
111.84305092398129
 31
0.0
  0
LINE
  5
3FDB
  8
3
 10
46.485566867135027
 20
157.1445509239812
 30
0.0
 11
46.485566867135041
 21
111.84305092398129
 31
0.0
  0
LINE
  5
3FDD
  8
0
 10
28.860566867135049
 20
95.343050923981281
 30
0.0
 11
53.860566867135049
 21
95.343050923981281
 31
0.0
  0
LINE
  5
3FDE
  8
0
 10
54.360566867135049
 20
94.843050923981295
 30
0.0
 11
28.360566867135049
 21
94.843050923981295
 31
0.0
  0
LINE
  5
3FDF
  8
0
 10
28.360566867135049
 20
91.843050923981281
 30
0.0
 11
54.360566867134821
 21
91.843050923981224
 31
0.0
  0
LINE
  5
3FE1
  8
0
 10
50.860566867135041
 20
98.843050923981338
 30
0.0
 11
50.860566867135041
 21
110.7058700133546
 31
0.0
  0
ARC
  5
3FE2
  8
0
 10
46.110566867135049
 20
97.582804733167364
 30
0.0
 40
13.95626534385379
 50
70.101865707354079
 51
109.89813429264591
  0
LINE
  5
3FE3
  8
0
 10
50.860566867135041
 20
111.5540458619494
 30
0.0
 11
50.860566867135041
 21
110.7058700133546
 31
0.0
  0
LINE
  5
3FE4
  8
0
 10
31.860566867135049
 20
110.7058700133546
 30
0.0
 11
31.860566867135049
 21
111.55433375570441
 31
0.0
  0
LINE
  5
3FE5
  8
0
 10
32.360566867135049
 20
111.84305092398129
 30
0.0
 11
50.360566867135049
 21
111.84305092398129
 31
0.0
  0
LINE
  5
3FE6
  8
0
 10
41.360566867135041
 20
98.843050923981338
 30
0.0
 11
41.360566867135041
 21
110.7058700133546
 31
0.0
  0
ARC
  5
3FE7
  8
0
 10
36.610566867135049
 20
97.582804733167251
 30
0.0
 40
13.95626534385392
 50
70.101865707354079
 51
109.89813429264591
  0
LINE
  5
3FE8
  8
0
 10
31.860566867135049
 20
98.843050923981338
 30
0.0
 11
31.860566867135049
 21
110.7058700133546
 31
0.0
  0
LINE
  5
3FE9
  8
0
 10
28.360566867135049
 20
95.843050923981281
 30
0.0
 11
54.360566867135049
 21
95.843050923981281
 31
0.0
  0
LINE
  5
3FEA
  8
0
 10
28.360566867135049
 20
98.843050923981338
 30
0.0
 11
54.360566867135049
 21
98.843050923981338
 31
0.0
  0
LINE
  5
3FEB
  8
0
 10
46.110566867135049
 20
64.343050923981224
 30
0.0
 11
50.360566867134587
 21
64.343050923981224
 31
0.0
  0
LINE
  5
3FEC
  8
0
 10
32.360566867134587
 20
64.343050923981224
 30
0.0
 11
36.610566867135049
 21
64.343050923981224
 31
0.0
  0
LINE
  5
3FED
  8
0
 10
46.110566867135049
 20
51.343050923981217
 30
0.0
 11
53.860566867134587
 21
51.343050923981217
 31
0.0
  0
LINE
  5
3FEE
  8
0
 10
28.86056686713459
 20
51.343050923981217
 30
0.0
 11
36.610566867135049
 21
51.343050923981217
 31
0.0
  0
LINE
  5
3FEF
  8
0
 10
46.110566867135049
 20
57.343050923981217
 30
0.0
 11
53.860566867134587
 21
57.343050923981217
 31
0.0
  0
LINE
  5
3FF0
  8
0
 10
28.86056686713459
 20
57.343050923981217
 30
0.0
 11
36.610566867135049
 21
57.343050923981217
 31
0.0
  0
LINE
  5
3FF4
  8
0
 10
46.287066867135067
 20
157.3430509239812
 30
0.0
 11
36.434066867135009
 21
157.34305092398111
 31
0.0
  0
LINE
  5
3FF6
  8
0
 10
47.360566867135269
 20
156.269550923981
 30
0.0
 11
35.360566867135041
 21
156.269550923981
 31
0.0
  0
ARC
  5
3FF7
  8
0
 10
41.360566867135503
 20
32.343050923980769
 30
0.0
 40
8.6068286842488533
 50
0.0000000000032569
 51
179.9999999999967
  0
LINE
  5
3FF9
  8
0
 10
46.110566867135049
 20
42.26461834047322
 30
0.0
 11
36.610566867135049
 21
42.26461834047322
 31
0.0
  0
LINE
  5
3FFE
  8
0
 10
52.294920986149229
 20
28.743050923981201
 30
0.0
 11
52.294920986149229
 21
32.343050923981217
 31
0.0
  0
LINE
  5
3FFF
  8
0
 10
52.360566867135731
 20
32.343050923981217
 30
0.0
 11
30.360566867135049
 21
32.343050923981217
 31
0.0
  0
LINE
  5
4000
  8
0
 10
30.426212748120861
 20
32.343050923981217
 30
0.0
 11
30.426212748120861
 21
28.743050923981201
 31
0.0
  0
LINE
  5
4001
  8
0
 10
30.360566867135049
 20
24.343050923981139
 30
0.0
 11
52.360566867135049
 21
24.343050923981231
 31
0.0
  0
LINE
  5
4002
  8
0
 10
52.360566867134821
 20
32.343050923980769
 30
0.0
 11
52.360566867135049
 21
24.343050923981171
 31
0.0
  0
LINE
  5
4003
  8
0
 10
52.360566867135049
 20
28.743050923981201
 30
0.0
 11
52.294920986149229
 21
28.743050923981201
 31
0.0
  0
POLYLINE
  5
4004
  8
0
 66
     1
 10
0.0
 20
0.0
 30
0.0
 70
   128
  0
VERTEX
  5
4EDB
  8
0
 10
42.920086023800422
 20
24.343050923981171
 30
0.0
  0
VERTEX
  5
4EDC
  8
0
 10
45.066145870023092
 20
24.371253673966319
 30
0.0
  0
VERTEX
  5
4EDD
  8
0
 10
47.212205716244853
 20
24.555142739798981
 30
0.0
  0
VERTEX
  5
4EDE
  8
0
 10
48.644522033309158
 20
24.867358473030691
 30
0.0
  0
VERTEX
  5
4EDF
  8
0
 10
50.03823212362272
 20
25.434653676205961
 30
0.0
  0
VERTEX
  5
4EE0
  8
0
 10
51.201539736558288
 20
26.28527179004951
 30
0.0
  0
VERTEX
  5
4EE1
  8
0
 10
51.665729310548841
 20
26.83141379469399
 30
0.0
  0
VERTEX
  5
4EE2
  8
0
 10
52.029976930577277
 20
27.478500876816408
 30
0.0
  0
VERTEX
  5
4EE3
  8
0
 10
52.286960607700848
 20
28.520914085131071
 30
0.0
  0
VERTEX
  5
4EE4
  8
0
 10
52.294920986149229
 20
28.743050923981201
 30
0.0
  0
SEQEND
  5
4EE5
  8
0
  0
LINE
  5
4006
  8
0
 10
30.360566867135049
 20
24.343050923981171
 30
0.0
 11
30.360566867135049
 21
32.343050923980769
 31
0.0
  0
POLYLINE
  5
4008
  8
0
 66
     1
 10
0.0
 20
0.0
 30
0.0
 70
   128
  0
VERTEX
  5
4EE6
  8
0
 10
30.426212748120861
 20
28.743050923981201
 30
0.0
  0
VERTEX
  5
4EE7
  8
0
 10
30.51791889423771
 20
27.99233958200082
 30
0.0
  0
VERTEX
  5
4EE8
  8
0
 10
30.926218878886861
 20
27.027202535163699
 30
0.0
  0
VERTEX
  5
4EE9
  8
0
 10
31.655196246919559
 20
26.156554739966712
 30
0.0
  0
VERTEX
  5
4EEA
  8
0
 10
32.353941088337479
 20
25.627384493178429
 30
0.0
  0
VERTEX
  5
4EEB
  8
0
 10
33.15023425033155
 20
25.205352821052688
 30
0.0
  0
VERTEX
  5
4EEC
  8
0
 10
34.496248600423542
 20
24.753687650766128
 30
0.0
  0
VERTEX
  5
4EED
  8
0
 10
35.929017258263002
 20
24.49814414748008
 30
0.0
  0
VERTEX
  5
4EEE
  8
0
 10
37.858259584971393
 20
24.364516863552719
 30
0.0
  0
VERTEX
  5
4EEF
  8
0
 10
39.801047710469668
 20
24.343050923981171
 30
0.0
  0
SEQEND
  5
4EF0
  8
0
  0
LINE
  5
4009
  8
0
 10
30.426212748120861
 20
28.743050923981201
 30
0.0
 11
30.360566867135049
 21
28.743050923981201
 31
0.0
  0
LINE
  5
400E
  8
0
 10
57.360566867135503
 20
91.343050923981266
 30
0.0
 11
25.3605668671355
 21
91.343050923981266
 31
0.0
  0
LINE
  5
400F
  8
0
 10
25.3605668671355
 20
91.343050923981266
 30
0.0
 11
25.3605668671355
 21
66.343050923981281
 31
0.0
  0
LINE
  5
4010
  8
0
 10
57.360566867135503
 20
67.95074607856796
 30
0.0
 11
25.3605668671355
 21
67.95074607856796
 31
0.0
  0
LINE
  5
4011
  8
0
 10
57.360566867135503
 20
91.343050923981266
 30
0.0
 11
57.360566867135503
 21
66.343050923981281
 31
0.0
  0
LINE
  5
4012
  8
0
 10
28.860566867135049
 20
95.343050923981281
 30
0.0
 11
28.360566867135049
 21
94.843050923981295
 31
0.0
  0
LINE
  5
4013
  8
0
 10
54.360566867135049
 20
94.843050923981295
 30
0.0
 11
53.860566867135049
 21
95.343050923981281
 31
0.0
  0
LINE
  5
4014
  8
0
 10
28.360566867135049
 20
94.843050923981295
 30
0.0
 11
28.360566867135049
 21
91.843050923981281
 31
0.0
  0
LINE
  5
4015
  8
0
 10
54.360566867135049
 20
91.843050923981281
 30
0.0
 11
54.360566867135049
 21
94.843050923981295
 31
0.0
  0
LINE
  5
4016
  8
0
 10
53.860566867135049
 20
91.343050923981266
 30
0.0
 11
54.360566867135049
 21
91.843050923981281
 31
0.0
  0
LINE
  5
4017
  8
0
 10
28.360566867135049
 20
91.843050923981281
 30
0.0
 11
28.860566867135049
 21
91.343050923981266
 31
0.0
  0
LINE
  5
4018
  8
0
 10
32.360566867135049
 20
111.84305092398129
 30
0.0
 11
31.860566867135049
 21
111.5543757893864
 31
0.0
  0
LINE
  5
4019
  8
0
 10
50.860566867135041
 20
111.5543757893864
 30
0.0
 11
50.360566867135049
 21
111.84305092398129
 31
0.0
  0
POLYLINE
  5
401A
  8
0
 66
     1
 10
0.0
 20
0.0
 30
0.0
 70
   128
  0
VERTEX
  5
4EF1
  8
0
 10
28.360566867135049
 20
95.843050923981281
 30
0.0
  0
VERTEX
  5
4EF2
  8
0
 10
29.020415913389339
 20
95.535580984651489
 30
0.0
  0
VERTEX
  5
4EF3
  8
0
 10
29.456240412823949
 20
95.343050923981281
 30
0.0
  0
SEQEND
  5
4EF4
  8
0
  0
POLYLINE
  5
401B
  8
0
 66
     1
 10
0.0
 20
0.0
 30
0.0
 70
   128
  0
VERTEX
  5
4EF5
  8
0
 10
53.264893321446152
 20
95.343050923981281
 30
0.0
  0
VERTEX
  5
4EF6
  8
0
 10
53.700717820880747
 20
95.535580984651489
 30
0.0
  0
VERTEX
  5
4EF7
  8
0
 10
54.360566867135049
 20
95.843050923981281
 30
0.0
  0
SEQEND
  5
4EF8
  8
0
  0
LINE
  5
401C
  8
0
 10
54.360566867135049
 20
95.843050923981281
 30
0.0
 11
54.360566867135049
 21
98.843050923981338
 31
0.0
  0
LINE
  5
401D
  8
0
 10
28.360566867135049
 20
98.843050923981338
 30
0.0
 11
28.360566867135049
 21
95.843050923981281
 31
0.0
  0
LINE
  5
4020
  8
0
 10
50.360566867134587
 20
57.343050923981217
 30
0.0
 11
50.360566867134587
 21
64.343050923981224
 31
0.0
  0
LINE
  5
4021
  8
0
 10
32.360566867134587
 20
64.343050923981224
 30
0.0
 11
32.360566867134587
 21
57.343050923981217
 31
0.0
  0
LINE
  5
4022
  8
0
 10
53.860566867134587
 20
51.343050923981217
 30
0.0
 11
53.860566867134587
 21
57.343050923981217
 31
0.0
  0
LINE
  5
4023
  8
0
 10
28.86056686713459
 20
57.343050923981217
 30
0.0
 11
28.86056686713459
 21
51.343050923981217
 31
0.0
  0
LINE
  5
4024
  8
0
 10
36.610566867135049
 20
66.343050923981281
 30
0.0
 11
36.610566867135049
 21
42.26461834047322
 31
0.0
  0
LINE
  5
4025
  8
0
 10
46.110566867135049
 20
42.26461834047322
 30
0.0
 11
46.110566867135049
 21
66.343050923981281
 31
0.0
  0
LINE
  5
4028
  8
0
 10
36.434066867135009
 20
157.34305092398111
 30
0.0
 11
35.360566867135041
 21
156.269550923981
 31
0.0
  0
LINE
  5
4029
  8
0
 10
47.360566867135041
 20
156.269550923981
 30
0.0
 11
46.287066867135067
 21
157.34305092398111
 31
0.0
  0
LINE
  5
402A
  8
0
 10
35.360566867135041
 20
156.269550923981
 30
0.0
 11
35.360566867135049
 21
111.84305092398129
 31
0.0
  0
LINE
  5
402B
  8
0
 10
47.360566867135049
 20
111.84305092398129
 30
0.0
 11
47.360566867135041
 21
156.269550923981
 31
0.0
  0
ARC
  5
402C
  8
0
 10
41.360566867135503
 20
32.343050923980769
 30
0.0
 40
11.000000000000229
 50
0.0000000000024427
 51
64.416998022604346
  0
ARC
  5
402D
  8
0
 10
41.360566867135503
 20
32.343050923980769
 30
0.0
 40
11.00000000000041
 50
115.58300197740191
 51
179.9999999999975
  0
LINE
  5
402E
  8
0
 10
25.3605668671355
 20
66.343050923981281
 30
0.0
 11
57.360566867135503
 21
66.343050923981281
 31
0.0
  0
LINE
  5
402F
  8
1
 10
102.3605668671355
 20
223.3430509239812
 30
0.0
 11
273.8605668671355
 21
223.3430509239812
 31
0.0
  0
CIRCLE
  5
4030
  8
3
 10
256.3605668671355
 20
223.3430509239812
 30
0.0
 40
5.1249999999999432
  0
CIRCLE
  5
4031
  8
3
 10
187.3605668671355
 20
223.343050923981
 30
0.0
 40
5.125
  0
CIRCLE
  5
403A
  8
0
 10
187.3605668671355
 20
223.34305092398111
 30
0.0
 40
13.0
  0
LINE
  5
403B
  8
0
 10
181.87573930983419
 20
213.843050923981
 30
0.0
 11
176.39091175253239
 21
223.34305092398111
 31
0.0
  0
LINE
  5
403C
  8
0
 10
192.84539442443679
 20
213.843050923981
 30
0.0
 11
181.87573930983419
 21
213.843050923981
 31
0.0
  0
LINE
  5
403D
  8
0
 10
198.33022198173811
 20
223.34305092398111
 30
0.0
 11
192.84539442443679
 21
213.843050923981
 31
0.0
  0
LINE
  5
403E
  8
0
 10
192.84539442443679
 20
232.84305092398111
 30
0.0
 11
198.33022198173811
 21
223.34305092398111
 31
0.0
  0
LINE
  5
403F
  8
0
 10
181.8757393098337
 20
232.84305092398111
 30
0.0
 11
192.84539442443679
 21
232.84305092398111
 31
0.0
  0
LINE
  5
4040
  8
0
 10
176.39091175253239
 20
223.34305092398111
 30
0.0
 11
181.8757393098337
 21
232.84305092398111
 31
0.0
  0
CIRCLE
  5
4042
  8
0
 10
187.3605668671355
 20
223.34305092398111
 30
0.0
 40
9.0
  0
ARC
  5
4043
  8
0
 10
256.3605668671355
 20
223.34305092398131
 30
0.0
 40
12.500000000000091
 50
331.64236342367309
 51
28.357636576326961
  0
LINE
  5
4044
  8
0
 10
259.82466848227318
 20
223.34305092398111
 30
0.0
 11
258.09261767470412
 21
226.34305092398111
 31
0.0
  0
LINE
  5
4045
  8
0
 10
258.09261767470412
 20
220.34305092398111
 30
0.0
 11
259.82466848227318
 21
223.34305092398111
 31
0.0
  0
LINE
  5
4046
  8
0
 10
254.62851605956641
 20
220.34305092398111
 30
0.0
 11
258.09261767470412
 21
220.34305092398111
 31
0.0
  0
LINE
  5
4047
  8
0
 10
252.8964652519978
 20
223.34305092398111
 30
0.0
 11
254.62851605956641
 21
220.34305092398111
 31
0.0
  0
LINE
  5
4048
  8
0
 10
254.62851605956641
 20
226.34305092398111
 30
0.0
 11
252.8964652519978
 21
223.34305092398111
 31
0.0
  0
LINE
  5
4049
  8
0
 10
258.09261767470412
 20
226.34305092398111
 30
0.0
 11
254.62851605956641
 21
226.34305092398111
 31
0.0
  0
CIRCLE
  5
404A
  8
0
 10
256.3605668671355
 20
223.34305092398111
 30
0.0
 40
6.0
  0
CIRCLE
  5
404D
  8
0
 10
187.3605668671355
 20
223.343050923981
 30
0.0
 40
6.0
  0
LINE
  5
404E
  8
0
 10
107.3605668671355
 20
239.34305092398111
 30
0.0
 11
267.3605668671355
 21
239.34305092398111
 31
0.0
  0
LINE
  5
404F
  8
0
 10
176.1022366179379
 20
216.84305092398111
 30
0.0
 11
127.3605668671355
 21
216.84305092398111
 31
0.0
  0
ARC
  5
4050
  8
0
 10
127.3605668671355
 20
223.34305092398111
 30
0.0
 40
6.5
 50
90.0
 51
270.0
  0
LINE
  5
4051
  8
0
 10
127.3605668671355
 20
229.84305092398111
 30
0.0
 11
176.1022366179379
 21
229.84305092398111
 31
0.0
  0
LINE
  5
4052
  8
0
 10
107.3605668671355
 20
207.3430509239812
 30
0.0
 11
107.3605668671355
 21
239.34305092398111
 31
0.0
  0
LINE
  5
4053
  8
0
 10
107.3605668671355
 20
207.3430509239812
 30
0.0
 11
267.3605668671355
 21
207.3430509239812
 31
0.0
  0
LINE
  5
4054
  8
0
 10
267.3605668671355
 20
207.3430509239812
 30
0.0
 11
267.3605668671355
 21
239.34305092398111
 31
0.0
  0
LINE
  5
40B0
  8
1
 10
256.3605668671355
 20
46.343050923981188
 30
0.0
 11
256.3605668671355
 21
141.34305092398111
 31
0.0
  0
LINE
  5
40B5
  8
1
 10
187.3605668671355
 20
19.343050923981171
 30
0.0
 11
187.3605668671355
 21
162.3430509239812
 31
0.0
  0
LINE
  5
40B6
  8
3
 10
251.2355668671355
 20
136.3430509239812
 30
0.0
 11
251.2355668671357
 21
91.343050923981224
 31
0.0
  0
LINE
  5
40B7
  8
3
 10
261.4855668671355
 20
136.3430509239812
 30
0.0
 11
261.4855668671355
 21
91.343050923981224
 31
0.0
  0
LINE
  5
40B8
  8
3
 10
182.2355668671355
 20
157.14455092398109
 30
0.0
 11
182.2355668671355
 21
111.8430509239812
 31
0.0
  0
LINE
  5
40B9
  8
3
 10
192.4855668671355
 20
157.14455092398109
 30
0.0
 11
192.4855668671355
 21
111.8430509239812
 31
0.0
  0
LINE
  5
40D1
  8
1
 10
127.3605668671353
 20
94.343050923981224
 30
0.0
 11
127.3605668671355
 21
64.489827929157542
 31
0.0
  0
LINE
  5
40D2
  8
0
 10
174.8605668671355
 20
95.343050923981281
 30
0.0
 11
199.8605668671355
 21
95.343050923981281
 31
0.0
  0
LINE
  5
40D3
  8
0
 10
200.3605668671355
 20
94.843050923981295
 30
0.0
 11
174.3605668671355
 21
94.843050923981295
 31
0.0
  0
LINE
  5
40D4
  8
0
 10
174.3605668671355
 20
91.843050923981281
 30
0.0
 11
200.3605668671355
 21
91.843050923981281
 31
0.0
  0
LINE
  5
40D5
  8
0
 10
198.33022198173811
 20
98.843050923981295
 30
0.0
 11
198.33022198173811
 21
110.7058700133546
 31
0.0
  0
LINE
  5
40D6
  8
0
 10
192.84539442443679
 20
98.843050923981295
 30
0.0
 11
192.84539442443679
 21
110.7058700133545
 31
0.0
  0
ARC
  5
40D7
  8
0
 10
187.3605668671355
 20
93.010296177510185
 30
0.0
 40
18.526107705428931
 50
72.778928004650751
 51
107.22107199534921
  0
ARC
  5
40D8
  8
0
 10
195.58780820308789
 20
106.5626810163307
 30
0.0
 40
4.968586156885304
 50
56.499069126498263
 51
123.5009308735017
  0
LINE
  5
40D9
  8
0
 10
178.3605668671355
 20
111.84305092398129
 30
0.0
 11
196.3605668671355
 21
111.84305092398129
 31
0.0
  0
LINE
  5
40DB
  8
0
 10
181.87573930983419
 20
98.843050923981295
 30
0.0
 11
181.87573930983419
 21
110.7058700133545
 31
0.0
  0
ARC
  5
40DC
  8
0
 10
179.13332553118309
 20
106.5626810163307
 30
0.0
 40
4.9685861568853591
 50
56.49906912649805
 51
123.5009308735017
  0
LINE
  5
40DD
  8
0
 10
176.39091175253239
 20
98.843050923981295
 30
0.0
 11
176.39091175253239
 21
110.7058700133545
 31
0.0
  0
LINE
  5
40DE
  8
0
 10
174.3605668671355
 20
95.843050923981281
 30
0.0
 11
200.3605668671355
 21
95.843050923981224
 31
0.0
  0
LINE
  5
40E0
  8
0
 10
174.3605668671355
 20
98.843050923981295
 30
0.0
 11
200.3605668671355
 21
98.843050923981224
 31
0.0
  0
LINE
  5
40E2
  8
0
 10
259.96056686713541
 20
64.95741027792613
 30
0.0
 11
252.76056686713559
 21
64.95741027792613
 31
0.0
  0
LINE
  5
40E3
  8
0
 10
250.93791713632501
 20
136.3430509239812
 30
0.0
 11
261.78321659794602
 21
136.3430509239812
 31
0.0
  0
LINE
  5
40E4
  8
0
 10
262.3605668671355
 20
135.3430509239812
 30
0.0
 11
250.3605668671355
 21
135.3430509239812
 31
0.0
  0
LINE
  5
40E5
  8
0
 10
247.3605668671355
 20
64.343050923981224
 30
0.0
 11
265.3605668671355
 21
64.343050923981224
 31
0.0
  0
LINE
  5
40E7
  8
0
 10
243.8605668671355
 20
57.34305092398116
 30
0.0
 11
268.8605668671355
 21
57.34305092398116
 31
0.0
  0
LINE
  5
40E9
  8
0
 10
243.8605668671355
 20
51.343050923981167
 30
0.0
 11
268.8605668671355
 21
51.343050923981188
 31
0.0
  0
LINE
  5
40EB
  8
0
 10
192.28706686713551
 20
157.34305092398111
 30
0.0
 11
182.4340668671355
 21
157.34305092398111
 31
0.0
  0
LINE
  5
40EC
  8
0
 10
193.3605668671355
 20
156.26955092398109
 30
0.0
 11
181.3605668671355
 21
156.26955092398109
 31
0.0
  0
LINE
  5
40F1
  8
0
 10
198.3605668671355
 20
32.343050923981217
 30
0.0
 11
187.3605668671355
 21
32.343050923981217
 31
0.0
  0
LINE
  5
40F2
  8
0
 10
187.3605668671355
 20
32.343050923981217
 30
0.0
 11
176.3605668671355
 21
32.343050923981259
 31
0.0
  0
LINE
  5
40F3
  8
0
 10
176.42621274812129
 20
32.343050923981217
 30
0.0
 11
176.42621274812129
 21
28.743050923981201
 31
0.0
  0
LINE
  5
40F6
  8
0
 10
198.29492098614969
 20
28.743050923981201
 30
0.0
 11
198.29492098614969
 21
32.343050923981217
 31
0.0
  0
LINE
  5
40F7
  8
0
 10
194.21056686713541
 20
40.949879608229558
 30
0.0
 11
194.2105668671349
 21
32.343050923981217
 31
0.0
  0
LINE
  5
40F8
  8
0
 10
180.51056686713559
 20
32.343050923981217
 30
0.0
 11
180.51056686713559
 21
40.949879608229558
 31
0.0
  0
LINE
  5
40F9
  8
0
 10
192.1105668671355
 20
42.26461834047322
 30
0.0
 11
182.6105668671355
 21
42.26461834047322
 31
0.0
  0
LINE
  5
40FA
  8
0
 10
198.3605668671355
 20
32.343050923981217
 30
0.0
 11
198.3605668671355
 21
24.343050923981171
 31
0.0
  0
LINE
  5
40FB
  8
0
 10
198.3605668671355
 20
28.743050923981201
 30
0.0
 11
198.29492098614969
 21
28.743050923981201
 31
0.0
  0
POLYLINE
  5
40FC
  8
0
 66
     1
 10
0.0
 20
0.0
 30
0.0
 70
   128
  0
VERTEX
  5
4EF9
  8
0
 10
188.92008602380091
 20
24.343050923981171
 30
0.0
  0
VERTEX
  5
4EFA
  8
0
 10
191.06614587002309
 20
24.371253673966319
 30
0.0
  0
VERTEX
  5
4EFB
  8
0
 10
193.21220571624531
 20
24.555142739799042
 30
0.0
  0
VERTEX
  5
4EFC
  8
0
 10
194.6445220333091
 20
24.867358473030691
 30
0.0
  0
VERTEX
  5
4EFD
  8
0
 10
196.03823212362309
 20
25.434653676206011
 30
0.0
  0
VERTEX
  5
4EFE
  8
0
 10
197.20153973655869
 20
26.28527179004957
 30
0.0
  0
VERTEX
  5
4EFF
  8
0
 10
197.66572931054881
 20
26.83141379469393
 30
0.0
  0
VERTEX
  5
4F00
  8
0
 10
198.0299769305777
 20
27.478500876816469
 30
0.0
  0
VERTEX
  5
4F01
  8
0
 10
198.2869606077013
 20
28.520914085131011
 30
0.0
  0
VERTEX
  5
4F02
  8
0
 10
198.29492098614969
 20
28.743050923981201
 30
0.0
  0
SEQEND
  5
4F03
  8
0
  0
LINE
  5
40FD
  8
0
 10
198.3605668671355
 20
24.343050923981171
 30
0.0
 11
176.3605668671355
 21
24.343050923981171
 31
0.0
  0
LINE
  5
40FE
  8
0
 10
176.3605668671355
 20
24.343050923981171
 30
0.0
 11
176.3605668671355
 21
32.343050923981259
 31
0.0
  0
POLYLINE
  5
40FF
  8
0
 66
     1
 10
0.0
 20
0.0
 30
0.0
 70
   128
  0
VERTEX
  5
4F04
  8
0
 10
176.42621274812129
 20
28.743050923981201
 30
0.0
  0
VERTEX
  5
4F05
  8
0
 10
176.51791889423811
 20
27.992339582000881
 30
0.0
  0
VERTEX
  5
4F06
  8
0
 10
176.92621887888731
 20
27.027202535163699
 30
0.0
  0
VERTEX
  5
4F07
  8
0
 10
177.6551962469195
 20
26.156554739966712
 30
0.0
  0
VERTEX
  5
4F08
  8
0
 10
178.3539410883379
 20
25.627384493178429
 30
0.0
  0
VERTEX
  5
4F09
  8
0
 10
179.15023425033149
 20
25.205352821052632
 30
0.0
  0
VERTEX
  5
4F0A
  8
0
 10
180.496248600424
 20
24.753687650766128
 30
0.0
  0
VERTEX
  5
4F0B
  8
0
 10
181.929017258263
 20
24.49814414748008
 30
0.0
  0
VERTEX
  5
4F0C
  8
0
 10
183.85825958497139
 20
24.36451686355278
 30
0.0
  0
VERTEX
  5
4F0D
  8
0
 10
185.8010477104701
 20
24.343050923981171
 30
0.0
  0
SEQEND
  5
4F0E
  8
0
  0
LINE
  5
4100
  8
0
 10
176.42621274812129
 20
28.743050923981201
 30
0.0
 11
176.3605668671355
 21
28.743050923981201
 31
0.0
  0
LINE
  5
4102
  8
0
 10
267.3605668671355
 20
66.343050923981224
 30
0.0
 11
137.96056686713541
 21
66.343050923981281
 31
0.0
  0
LINE
  5
4103
  8
0
 10
267.3605668671355
 20
91.343050923981224
 30
0.0
 11
267.3605668671355
 21
66.343050923981224
 31
0.0
  0
LINE
  5
4104
  8
0
 10
107.3605668671355
 20
91.343050923981224
 30
0.0
 11
107.3605668671355
 21
67.950746078568017
 31
0.0
  0
ARC
  5
4105
  8
0
 10
113.3605668671355
 20
78.343050923981281
 30
0.0
 40
12.00000000000003
 50
240.0000000000002
 51
303.3670129692353
  0
LINE
  5
4106
  8
0
 10
107.3605668671355
 20
91.343050923981224
 30
0.0
 11
267.3605668671355
 21
91.343050923981224
 31
0.0
  0
LINE
  5
4107
  8
0
 10
119.9605668671354
 20
68.32107507088719
 30
0.0
 11
137.96056686713541
 21
66.343050923981281
 31
0.0
  0
LINE
  5
4108
  8
0
 10
174.8605668671355
 20
95.343050923981281
 30
0.0
 11
174.3605668671355
 21
94.843050923981295
 31
0.0
  0
LINE
  5
4109
  8
0
 10
200.3605668671355
 20
94.843050923981295
 30
0.0
 11
199.8605668671355
 21
95.343050923981281
 31
0.0
  0
LINE
  5
410A
  8
0
 10
174.3605668671355
 20
94.843050923981295
 30
0.0
 11
174.3605668671355
 21
91.843050923981281
 31
0.0
  0
LINE
  5
410B
  8
0
 10
200.3605668671355
 20
91.843050923981281
 30
0.0
 11
200.3605668671355
 21
94.843050923981295
 31
0.0
  0
LINE
  5
410C
  8
0
 10
199.8605668671355
 20
91.343050923981266
 30
0.0
 11
200.3605668671355
 21
91.843050923981281
 31
0.0
  0
LINE
  5
410D
  8
0
 10
174.3605668671355
 20
91.843050923981281
 30
0.0
 11
174.8605668671355
 21
91.343050923981266
 31
0.0
  0
LINE
  5
410E
  8
0
 10
178.3605668671355
 20
111.84305092398129
 30
0.0
 11
176.39091175253239
 21
110.7058700133545
 31
0.0
  0
LINE
  5
410F
  8
0
 10
198.33022198173811
 20
110.7058700133546
 30
0.0
 11
196.3605668671355
 21
111.84305092398129
 31
0.0
  0
POLYLINE
  5
4110
  8
0
 66
     1
 10
0.0
 20
0.0
 30
0.0
 70
   128
  0
VERTEX
  5
4F0F
  8
0
 10
199.26489332144661
 20
95.343050923981281
 30
0.0
  0
VERTEX
  5
4F10
  8
0
 10
199.70071782088121
 20
95.535580984651446
 30
0.0
  0
VERTEX
  5
4F11
  8
0
 10
200.3605668671355
 20
95.843050923981281
 30
0.0
  0
SEQEND
  5
4F12
  8
0
  0
POLYLINE
  5
4111
  8
0
 66
     1
 10
0.0
 20
0.0
 30
0.0
 70
   128
  0
VERTEX
  5
4F13
  8
0
 10
174.3605668671355
 20
95.843050923981281
 30
0.0
  0
VERTEX
  5
4F14
  8
0
 10
175.02041591338929
 20
95.535580984651446
 30
0.0
  0
VERTEX
  5
4F15
  8
0
 10
175.4562404128244
 20
95.343050923981281
 30
0.0
  0
SEQEND
  5
4F16
  8
0
  0
LINE
  5
4112
  8
0
 10
200.3605668671355
 20
95.843050923981281
 30
0.0
 11
200.3605668671355
 21
98.843050923981295
 31
0.0
  0
LINE
  5
4113
  8
0
 10
174.3605668671355
 20
98.843050923981295
 30
0.0
 11
174.3605668671355
 21
95.843050923981281
 31
0.0
  0
LINE
  5
4114
  8
0
 10
252.76056686713559
 20
64.95741027792613
 30
0.0
 11
252.76056686713559
 21
64.343050923981224
 31
0.0
  0
LINE
  5
4115
  8
0
 10
259.96056686713541
 20
64.343050923981224
 30
0.0
 11
259.96056686713541
 21
64.95741027792613
 31
0.0
  0
LINE
  5
4116
  8
0
 10
259.96056686713541
 20
64.95741027792613
 30
0.0
 11
262.3605668671355
 21
66.343050923981167
 31
0.0
  0
LINE
  5
4117
  8
0
 10
250.3605668671355
 20
66.343050923981167
 30
0.0
 11
252.76056686713559
 21
64.95741027792613
 31
0.0
  0
LINE
  5
4118
  8
0
 10
250.93791713632501
 20
136.3430509239812
 30
0.0
 11
250.3605668671355
 21
135.3430509239812
 31
0.0
  0
LINE
  5
4119
  8
0
 10
262.3605668671355
 20
135.3430509239812
 30
0.0
 11
261.78321659794602
 21
136.3430509239812
 31
0.0
  0
LINE
  5
411A
  8
0
 10
262.3605668671355
 20
91.343050923981224
 30
0.0
 11
262.3605668671355
 21
135.3430509239812
 31
0.0
  0
LINE
  5
411B
  8
0
 10
250.3605668671355
 20
135.3430509239812
 30
0.0
 11
250.3605668671355
 21
91.343050923981224
 31
0.0
  0
LINE
  5
411C
  8
0
 10
265.3605668671355
 20
57.34305092398116
 30
0.0
 11
265.3605668671355
 21
64.343050923981224
 31
0.0
  0
LINE
  5
411D
  8
0
 10
247.3605668671355
 20
64.343050923981224
 30
0.0
 11
247.3605668671355
 21
57.34305092398116
 31
0.0
  0
LINE
  5
411E
  8
0
 10
268.8605668671355
 20
51.343050923981167
 30
0.0
 11
268.8605668671355
 21
57.34305092398116
 31
0.0
  0
LINE
  5
411F
  8
0
 10
243.8605668671355
 20
57.34305092398116
 30
0.0
 11
243.8605668671355
 21
51.343050923981167
 31
0.0
  0
LINE
  5
4120
  8
0
 10
182.6105668671355
 20
66.343050923981252
 30
0.0
 11
182.6105668671355
 21
42.26461834047322
 31
0.0
  0
LINE
  5
4121
  8
0
 10
192.1105668671355
 20
42.26461834047322
 30
0.0
 11
192.1105668671355
 21
66.343050923981238
 31
0.0
  0
LINE
  5
4122
  8
0
 10
182.4340668671355
 20
157.34305092398111
 30
0.0
 11
181.3605668671355
 21
156.26955092398109
 31
0.0
  0
LINE
  5
4123
  8
0
 10
193.3605668671355
 20
156.26955092398109
 30
0.0
 11
192.28706686713551
 21
157.34305092398111
 31
0.0
  0
LINE
  5
4124
  8
0
 10
181.3605668671355
 20
156.26955092398109
 30
0.0
 11
181.3605668671355
 21
111.84305092398129
 31
0.0
  0
LINE
  5
4125
  8
0
 10
193.3605668671355
 20
111.84305092398129
 30
0.0
 11
193.3605668671355
 21
156.26955092398109
 31
0.0
  0
ARC
  5
4128
  8
0
 10
187.3605668671355
 20
32.343050923980712
 30
0.0
 40
11.00000000000038
 50
51.484430947522519
 51
64.416998022598293
  0
ARC
  5
4129
  8
0
 10
187.3605668671355
 20
32.343050923980712
 30
0.0
 40
11.000000000000419
 50
115.58300197740169
 51
128.51556905247739
  0
LINE
  5
487D
  8
1
 10
333.36056686713619
 20
162.343050923981
 30
0.0
 11
333.36056686713567
 21
19.343050923981021
 31
0.0
  0
LINE
  5
4883
  8
1
 10
127.3605668671355
 20
232.84305092398111
 30
0.0
 11
127.3605668671355
 21
213.84305092398111
 31
0.0
  0
LINE
  5
4884
  8
1
 10
187.3605668671355
 20
239.34305092398111
 30
0.0
 11
187.3605668671359
 21
207.34305092398111
 31
0.0
  0
LINE
  5
4885
  8
1
 10
256.36056686713567
 20
232.34305092398111
 30
0.0
 11
256.36056686713567
 21
214.34305092398111
 31
0.0
  0
LINE
  5
488F
  8
3
 10
261.4855668671355
 20
66.343050923981281
 30
0.0
 11
261.4855668671355
 21
65.837869438440265
 31
0.0
  0
LINE
  5
4890
  8
3
 10
251.2355668671355
 20
66.343050923981281
 30
0.0
 11
251.2355668671355
 21
65.837869438440265
 31
0.0
  0
LINE
  5
4893
  8
3
 10
338.48556686713619
 20
157.14455092398109
 30
0.0
 11
338.48556686713619
 21
91.343050923981224
 31
0.0
  0
LINE
  5
4894
  8
3
 10
328.23556686713619
 20
157.14455092398109
 30
0.0
 11
328.23556686713619
 21
91.343050923981224
 31
0.0
  0
LINE
  5
4895
  8
3
 10
338.48556686713619
 20
71.34305092398111
 30
0.0
 11
338.48556686713619
 21
65.827506467358518
 31
0.0
  0
LINE
  5
4896
  8
3
 10
328.23556686713391
 20
71.34305092398111
 30
0.0
 11
328.23556686713619
 21
65.827506467358518
 31
0.0
  0
ARC
  5
4941
  8
2
 10
187.3605668671355
 20
223.3430509239812
 30
0.0
 40
6.5
 50
270.0
 51
90.0
  0
LINE
  5
4949
  8
2
 10
176.1022366179379
 20
229.8430509239812
 30
0.0
 11
267.3605668671355
 21
229.8430509239812
 31
0.0
  0
LINE
  5
494A
  8
2
 10
176.10223661793771
 20
216.8430509239812
 30
0.0
 11
267.3605668671355
 21
216.8430509239812
 31
0.0
  0
LINE
  5
4955
  8
2
 10
187.3605668671355
 20
71.343050923981224
 30
0.0
 11
267.3605668671355
 21
71.343050923981224
 31
0.0
  0
LINE
  5
4956
  8
2
 10
193.8605668671355
 20
91.343050923981224
 30
0.0
 11
193.8605668671355
 21
71.343050923981224
 31
0.0
  0
LINE
  5
4957
  8
2
 10
120.8605668671355
 20
91.343050923981224
 30
0.0
 11
120.8605668671355
 21
68.246744923981254
 31
0.0
  0
LINE
  5
4DB4
  8
3
 10
36.235566867134963
 20
66.343050923981323
 30
0.0
 11
36.235566867134963
 21
65.837869438440322
 31
0.0
  0
LINE
  5
4DB5
  8
3
 10
46.485566867134963
 20
66.343050923981323
 30
0.0
 11
46.485566867134963
 21
65.837869438440322
 31
0.0
  0
LINE
  5
4DB6
  8
0
 10
35.36056686713497
 20
66.343050923981224
 30
0.0
 11
36.610566867135041
 21
65.621363087494188
 31
0.0
  0
LINE
  5
4DB7
  8
0
 10
46.110566867135041
 20
65.621363087494288
 30
0.0
 11
47.360566867134963
 21
66.343050923981224
 31
0.0
  0
TEXT
  5
4E5E
  8
0
 62
     3
 10
0.0
 20
0.0
 30
0.0
 40
10.0
  1
BJ156-12160B2-T
  7
STANDARD1
  0
ENDSEC
  0
EOF
