  0
SECTION
  2
HEADER
  9
$ACADVER
  1
AC1009
  9
$INSBASE
 10
82.638099999999994
 20
103.82319099999999
 30
0.0
  9
$EXTMIN
 10
0.0
 20
-2.960436562073669
 30
0.0
  9
$EXTMAX
 10
301.00000000000011
 20
252.0
 30
0.0
  9
$LIMMIN
 10
0.0
 20
0.0
  9
$LIMMAX
 10
375.0
 20
270.0
  9
$ORTHOMODE
 70
     1
  9
$REGENMODE
 70
     1
  9
$FILLMODE
 70
     1
  9
$QTEXTMODE
 70
     0
  9
$MIRRTEXT
 70
     0
  9
$DRAGMODE
 70
     2
  9
$LTSCALE
 40
10.0
  9
$OSMODE
 70
  3071
  9
$ATTMODE
 70
     1
  9
$TEXTSIZE
 40
0.06
  9
$TRACEWID
 40
0.05
  9
$TEXTSTYLE
  7
STANDARD
  9
$CLAYER
  8
0
  9
$CELTYPE
  6
BYLAYER
  9
$CECOLOR
 62
   256
  9
$DIMSCALE
 40
1.0
  9
$DIMASZ
 40
3.0
  9
$DIMEXO
 40
2.0
  9
$DIMDLI
 40
10.0
  9
$DIMRND
 40
0.0
  9
$DIMDLE
 40
0.0
  9
$DIMEXE
 40
2.0
  9
$DIMTP
 40
0.0
  9
$DIMTM
 40
0.0
  9
$DIMTXT
 40
3.0
  9
$DIMCEN
 40
0.0
  9
$DIMTSZ
 40
0.0
  9
$DIMTOL
 70
     0
  9
$DIMLIM
 70
     0
  9
$DIMTIH
 70
     0
  9
$DIMTOH
 70
     0
  9
$DIMSE1
 70
     0
  9
$DIMSE2
 70
     0
  9
$DIMTAD
 70
     1
  9
$DIMZIN
 70
     0
  9
$DIMBLK
  1

  9
$DIMASO
 70
     0
  9
$DIMSHO
 70
     0
  9
$DIMPOST
  1

  9
$DIMAPOST
  1

  9
$DIMALT
 70
     0
  9
$DIMALTD
 70
     2
  9
$DIMALTF
 40
25.399999999999999
  9
$DIMLFAC
 40
1.0
  9
$DIMTOFL
 70
     1
  9
$DIMTVP
 40
1.6000000000000001
  9
$DIMTIX
 70
     1
  9
$DIMSOXD
 70
     0
  9
$DIMSAH
 70
     0
  9
$DIMBLK1
  1

  9
$DIMBLK2
  1

  9
$DIMSTYLE
  2
STANDARD
  9
$DIMCLRD
 70
     0
  9
$DIMCLRE
 70
     0
  9
$DIMCLRT
 70
     0
  9
$DIMTFAC
 40
1.0
  9
$DIMGAP
 40
0.09
  9
$LUNITS
 70
     2
  9
$LUPREC
 70
     4
  9
$SKETCHINC
 40
0.1
  9
$FILLETRAD
 40
0.0
  9
$AUNITS
 70
     0
  9
$AUPREC
 70
     4
  9
$MENU
  1
E:\r13\win\SUPPORT\ACAD
  9
$ELEVATION
 40
0.0
  9
$PELEVATION
 40
0.0
  9
$THICKNESS
 40
0.0
  9
$LIMCHECK
 70
     0
  9
$BLIPMODE
 70
     0
  9
$CHAMFERA
 40
0.0
  9
$CHAMFERB
 40
0.0
  9
$SKPOLY
 70
     0
  9
$TDCREATE
 40
2449840.348136574
  9
$TDUPDATE
 40
2456597.6472383682
  9
$TDINDWG
 40
0.0132823611
  9
$TDUSRTIMER
 40
0.0132823611
  9
$USRTIMER
 70
     1
  9
$ANGBASE
 50
0.0
  9
$ANGDIR
 70
     0
  9
$PDMODE
 70
     1
  9
$PDSIZE
 40
0.0
  9
$PLINEWID
 40
0.0
  9
$COORDS
 70
     1
  9
$SPLFRAME
 70
     0
  9
$SPLINETYPE
 70
     6
  9
$SPLINESEGS
 70
     8
  9
$ATTDIA
 70
     0
  9
$ATTREQ
 70
     1
  9
$HANDLING
 70
     1
  9
$HANDSEED
  5
8F2
  9
$SURFTAB1
 70
     6
  9
$SURFTAB2
 70
     6
  9
$SURFTYPE
 70
     6
  9
$SURFU
 70
     6
  9
$SURFV
 70
     6
  9
$UCSNAME
  2

  9
$UCSORG
 10
0.0
 20
0.0
 30
0.0
  9
$UCSXDIR
 10
1.0
 20
0.0
 30
0.0
  9
$UCSYDIR
 10
0.0
 20
1.0
 30
0.0
  9
$PUCSNAME
  2

  9
$PUCSORG
 10
0.0
 20
0.0
 30
0.0
  9
$PUCSXDIR
 10
1.0
 20
0.0
 30
0.0
  9
$PUCSYDIR
 10
0.0
 20
1.0
 30
0.0
  9
$USERI1
 70
     3
  9
$USERI2
 70
     1
  9
$USERI3
 70
     0
  9
$USERI4
 70
     0
  9
$USERI5
 70
     0
  9
$USERR1
 40
1.0
  9
$USERR2
 40
3.0
  9
$USERR3
 40
3.0
  9
$USERR4
 40
3.0
  9
$USERR5
 40
10.0
  9
$WORLDVIEW
 70
     1
  9
$SHADEDGE
 70
     3
  9
$SHADEDIF
 70
    70
  9
$TILEMODE
 70
     1
  9
$MAXACTVP
 70
    16
  9
$PLIMCHECK
 70
     0
  9
$PEXTMIN
 10
1.0000000000000000E+020
 20
1.0000000000000000E+020
 30
1.0000000000000000E+020
  9
$PEXTMAX
 10
-1.0000000000000000E+020
 20
-1.0000000000000000E+020
 30
-1.0000000000000000E+020
  9
$PLIMMIN
 10
0.0
 20
0.0
  9
$PLIMMAX
 10
12.0
 20
9.0
  9
$UNITMODE
 70
     0
  9
$VISRETAIN
 70
     0
  9
$PLINEGEN
 70
     0
  9
$PSLTSCALE
 70
     0
  0
ENDSEC
  0
SECTION
  2
TABLES
  0
TABLE
  2
VPORT
 70
     1
  0
VPORT
  2
*ACTIVE
 70
     0
 10
0.0
 20
0.0
 11
1.0
 21
1.0
 12
195.0581083320873
 22
133.5127261426681
 13
0.0
 23
0.0
 14
5.0
 24
5.0
 15
10.0
 25
10.0
 16
0.0
 26
0.0
 36
1.0
 17
0.0
 27
0.0
 37
0.0
 40
275.42274993631997
 41
1.831871345029239
 42
50.0
 43
0.0
 44
0.0
 50
0.0
 51
0.0
 71
     0
 72
   100
 73
     1
 74
     0
 75
     0
 76
     0
 77
     0
 78
     0
  0
ENDTAB
  0
TABLE
  2
LTYPE
 70
     4
  0
LTYPE
  2
CONTINUOUS
 70
     0
  3
Solid Line
 72
    65
 73
     0
 40
0.0
  0
LTYPE
  2
CENTER
 70
     0
  3
____ _ ____ _ ____ _ ____ _ ____ _ ____ _ ____
 72
    65
 73
     4
 40
2.0
 49
1.25
 49
-0.25
 49
0.25
 49
-0.25
  0
LTYPE
  2
HIDDEN
 70
     0
  3
__ __ __ __ __ __ __ __ __ __ __ __ __ __ __ __
 72
    65
 73
     2
 40
0.375
 49
0.25
 49
-0.125
  0
LTYPE
  2
PHANTOM2
 70
     0
  3
___ _ _ ___ _ _ ___ _ _ ___ _ _
 72
    65
 73
     6
 40
1.25
 49
0.625
 49
-0.125
 49
0.125
 49
-0.125
 49
0.125
 49
-0.125
  0
ENDTAB
  0
TABLE
  2
LAYER
 70
     4
  0
LAYER
  2
0
 70
     0
 62
     7
  6
CONTINUOUS
  0
LAYER
  2
1
 70
     0
 62
     1
  6
CENTER
  0
LAYER
  2
2
 70
     0
 62
     2
  6
HIDDEN
  0
LAYER
  2
3
 70
     0
 62
     3
  6
CONTINUOUS
  0
ENDTAB
  0
TABLE
  2
STYLE
 70
     2
  0
STYLE
  2
STANDARD
 70
     0
 40
0.0
 41
1.0
 50
0.0
 71
     0
 42
0.06
  3
TXT
  4
BIGFONT
  0
STYLE
  2
STANDARD1
 70
     0
 40
0.0
 41
1.0
 50
0.0
 71
     0
 42
3.0
  3
txt
  4

  0
ENDTAB
  0
TABLE
  2
VIEW
 70
     0
  0
ENDTAB
  0
TABLE
  2
UCS
 70
     0
  0
ENDTAB
  0
TABLE
  2
APPID
 70
     3
  0
APPID
  2
ACAD
 70
     0
  0
APPID
  2
ACAD_MLEADERVER
 70
     0
  0
APPID
  2
ACAD_NAV_VCDISPLAY
 70
     0
  0
ENDTAB
  0
TABLE
  2
DIMSTYLE
 70
     1
  0
DIMSTYLE
  2
STANDARD
 70
     0
  3

  4

  5

  6

  7

 40
1.0
 41
0.18
 42
0.0625
 43
0.38
 44
0.18
 45
0.0
 46
0.0
 47
0.0
 48
0.0
140
0.18
141
0.09
142
0.0
143
25.399999999999999
144
1.0
145
0.0
146
1.0
147
0.09
 71
     0
 72
     0
 73
     1
 74
     1
 75
     0
 76
     0
 77
     0
 78
     0
170
     0
171
     2
172
     0
173
     0
174
     0
175
     0
176
     0
177
     0
178
     0
  0
ENDTAB
  0
ENDSEC
  0
SECTION
  2
BLOCKS
  0
BLOCK
  8
0
  2
$MODEL_SPACE
 70
     0
 10
0.0
 20
0.0
 30
0.0
  3
$MODEL_SPACE
  1

  0
ENDBLK
  5
223
  8
0
  0
BLOCK
 67
     1
  8
0
  2
$PAPER_SPACE
 70
     0
 10
0.0
 20
0.0
 30
0.0
  3
$PAPER_SPACE
  1

  0
ENDBLK
  5
221
 67
     1
  8
0
  0
ENDSEC
  0
SECTION
  2
ENTITIES
  0
CIRCLE
  5
5EC
  8
0
 10
190.0
 20
230.0
 30
0.0
 40
5.0999999999999988
  0
CIRCLE
  5
5ED
  8
3
 10
190.0
 20
230.0
 30
0.0
 40
6.0
  0
LINE
  5
5EE
  8
0
 10
195.71166500000001
 20
220.89289400000001
 30
0.0
 11
200.742818
 21
229.60710599999999
 31
0.0
  0
ARC
  5
5EF
  8
0
 10
190.0
 20
230.0
 30
0.0
 40
10.75
 50
357.9054729999998
 51
2.094527000000157
  0
LINE
  5
5F0
  8
0
 10
200.742818
 20
230.39289400000001
 30
0.0
 11
195.71166500000001
 21
239.10710599999999
 31
0.0
  0
ARC
  5
5F1
  8
0
 10
190.0
 20
230.0
 30
0.0
 40
10.75
 50
57.905473000002161
 51
62.094527000002202
  0
LINE
  5
5F2
  8
0
 10
195.0311529999999
 20
239.5
 30
0.0
 11
184.96884700000001
 21
239.5
 31
0.0
  0
ARC
  5
5F3
  8
0
 10
190.0
 20
230.0
 30
0.0
 40
10.75
 50
117.9054729999978
 51
122.0945269999978
  0
LINE
  5
5F4
  8
0
 10
184.28833499999999
 20
239.10710599999999
 30
0.0
 11
179.257182
 21
230.39289400000001
 31
0.0
  0
ARC
  5
5F5
  8
0
 10
190.0
 20
230.0
 30
0.0
 40
10.75
 50
177.9054729999998
 51
182.09452700000011
  0
LINE
  5
5F6
  8
0
 10
179.257182
 20
229.60710599999999
 30
0.0
 11
184.28833499999999
 21
220.89289400000001
 31
0.0
  0
ARC
  5
5F7
  8
0
 10
190.0
 20
230.0
 30
0.0
 40
10.75
 50
237.9054730000021
 51
242.09452700000219
  0
LINE
  5
5F8
  8
0
 10
184.96884700000001
 20
220.5
 30
0.0
 11
195.0311529999999
 21
220.5
 31
0.0
  0
ARC
  5
5F9
  8
0
 10
190.0
 20
230.0
 30
0.0
 40
10.75
 50
297.90547299999781
 51
302.09452699999792
  0
CIRCLE
  5
5FA
  8
0
 10
190.0
 20
230.0
 30
0.0
 40
13.0
  0
CIRCLE
  5
5FB
  8
0
 10
190.0
 20
230.0
 30
0.0
 40
9.0
  0
LINE
  5
5FC
  8
1
 10
190.0
 20
251.729613160464
 30
0.0
 11
190.0
 21
208.270386839536
 31
0.0
  0
LINE
  5
5FD
  8
0
 10
203.0
 20
139.5
 30
0.0
 11
202.5
 21
140.0
 31
0.0
  0
LINE
  5
5FE
  8
0
 10
202.5
 20
136.0
 30
0.0
 11
203.0
 21
136.5
 31
0.0
  0
LINE
  5
5FF
  8
0
 10
177.0
 20
139.5
 30
0.0
 11
177.5
 21
140.0
 31
0.0
  0
LINE
  5
600
  8
0
 10
177.5
 20
136.0
 30
0.0
 11
177.0
 21
136.5
 31
0.0
  0
LINE
  5
601
  8
0
 10
177.0
 20
136.5
 30
0.0
 11
177.0
 21
139.5
 31
0.0
  0
LINE
  5
602
  8
0
 10
202.5
 20
136.0
 30
0.0
 11
177.5
 21
136.0
 31
0.0
  0
LINE
  5
603
  8
0
 10
203.0
 20
139.5
 30
0.0
 11
203.0
 21
136.5
 31
0.0
  0
LINE
  5
604
  8
0
 10
177.5
 20
140.0
 30
0.0
 11
202.5
 21
140.0
 31
0.0
  0
ARC
  5
605
  8
0
 10
198.0625
 20
152.44278199999999
 30
0.0
 40
4.0794689999999996
 50
71.207402000000911
 51
131.20740200000211
  0
ARC
  5
606
  8
0
 10
190.0
 20
141.52225100000001
 30
0.0
 40
14.98668
 50
68.982576999998983
 51
90.0
  0
LINE
  5
607
  8
0
 10
195.375
 20
155.511888
 30
0.0
 11
195.375
 21
143.52225100000001
 31
0.0
  0
LINE
  5
608
  8
0
 10
184.625
 20
155.511888
 30
0.0
 11
184.625
 21
143.52225100000001
 31
0.0
  0
LINE
  5
609
  8
0
 10
177.5
 20
143.52225100000001
 30
0.0
 11
202.5
 21
143.52225100000001
 31
0.0
  0
LINE
  5
60A
  8
0
 10
177.5
 20
143.52225100000001
 30
0.0
 11
177.0
 21
143.02225100000001
 31
0.0
  0
LINE
  5
60B
  8
0
 10
177.0
 20
143.02225100000001
 30
0.0
 11
177.0
 21
140.52225100000001
 31
0.0
  0
ARC
  5
60C
  8
0
 10
178.84999999999991
 20
143.92225099999999
 30
0.0
 40
0.4
 50
270.0
 51
0.0
  0
LINE
  5
60D
  8
0
 10
179.25
 20
155.511888
 30
0.0
 11
179.25
 21
143.92225099999999
 31
0.0
  0
ARC
  5
60E
  8
0
 10
201.15000000000001
 20
143.92225099999999
 30
0.0
 40
0.4
 50
180.0
 51
270.0
  0
LINE
  5
60F
  8
0
 10
202.5
 20
143.52225100000001
 30
0.0
 11
203.0
 21
143.02225100000001
 31
0.0
  0
LINE
  5
610
  8
0
 10
200.75
 20
155.511888
 30
0.0
 11
200.75
 21
143.92225099999999
 31
0.0
  0
LINE
  5
611
  8
0
 10
199.0
 20
156.52225100000001
 30
0.0
 11
181.0
 21
156.52225100000001
 31
0.0
  0
ARC
  5
612
  8
0
 10
190.0
 20
141.52225100000001
 30
0.0
 40
14.98668
 50
90.0
 51
111.017423000001
  0
ARC
  5
613
  8
0
 10
181.9375
 20
152.44278199999999
 30
0.0
 40
4.0794689999999996
 50
48.792597999997881
 51
108.7925979999991
  0
LINE
  5
614
  8
0
 10
179.25
 20
155.511888
 30
0.0
 11
181.0
 21
156.52225100000001
 31
0.0
  0
LINE
  5
615
  8
0
 10
200.75
 20
155.511888
 30
0.0
 11
199.0
 21
156.52225100000001
 31
0.0
  0
LINE
  5
616
  8
0
 10
203.0
 20
140.52225100000001
 30
0.0
 11
177.0
 21
140.52225100000001
 31
0.0
  0
LINE
  5
617
  8
0
 10
203.0
 20
143.02225100000001
 30
0.0
 11
203.0
 21
140.52225100000001
 31
0.0
  0
ARC
  5
618
  8
0
 10
190.0
 20
167.55926299999999
 30
0.0
 40
30.0
 50
244.3207110000013
 51
246.72836665509021
  0
ARC
  5
619
  8
0
 10
190.0
 20
167.55926299999999
 30
0.0
 40
30.0
 50
293.27163334490967
 51
295.67928899999879
  0
LINE
  5
61A
  8
1
 10
190.0
 20
183.5
 30
0.0
 11
190.0
 21
43.5
 31
0.0
  0
LINE
  5
61B
  8
0
 10
194.0
 20
51.0
 30
0.0
 11
186.0
 21
51.0
 31
0.0
  0
LINE
  5
61C
  8
0
 10
184.0
 20
53.0
 30
0.0
 11
184.0
 21
75.0
 31
0.0
  0
LINE
  5
61D
  8
0
 10
184.0
 20
82.0
 30
0.0
 11
184.0
 21
120.95925
 31
0.0
  0
LINE
  5
61E
  8
0
 10
184.0
 20
156.52225100000001
 30
0.0
 11
184.0
 21
174.0
 31
0.0
  0
LINE
  5
61F
  8
0
 10
186.0
 20
176.0
 30
0.0
 11
194.0
 21
176.0
 31
0.0
  0
LINE
  5
620
  8
0
 10
196.0
 20
174.0
 30
0.0
 11
196.0
 21
156.52225100000001
 31
0.0
  0
LINE
  5
621
  8
0
 10
196.0
 20
120.0
 30
0.0
 11
196.0
 21
82.0
 31
0.0
  0
LINE
  5
622
  8
0
 10
196.0
 20
75.0
 30
0.0
 11
196.0
 21
53.0
 31
0.0
  0
LINE
  5
623
  8
0
 10
184.0
 20
174.0
 30
0.0
 11
186.0
 21
176.0
 31
0.0
  0
LINE
  5
624
  8
0
 10
196.0
 20
174.0
 30
0.0
 11
194.0
 21
176.0
 31
0.0
  0
LINE
  5
625
  8
0
 10
194.0
 20
51.0
 30
0.0
 11
196.0
 21
53.0
 31
0.0
  0
LINE
  5
626
  8
0
 10
186.0
 20
51.0
 30
0.0
 11
184.0
 21
53.0
 31
0.0
  0
LINE
  5
627
  8
0
 10
184.0
 20
53.0
 30
0.0
 11
196.0
 21
53.0
 31
0.0
  0
LINE
  5
62A
  8
3
 10
184.90000000000001
 20
75.0
 30
0.0
 11
184.90000000000001
 21
52.099999999999987
 31
0.0
  0
LINE
  5
62B
  8
0
 10
192.63325000000009
 20
120.0
 30
0.0
 11
196.0
 21
120.0
 31
0.0
  0
LINE
  5
62D
  8
3
 10
195.09999999999991
 20
75.0
 30
0.0
 11
195.09999999999991
 21
52.099999999999987
 31
0.0
  0
LINE
  5
62E
  8
3
 10
195.09999999999999
 20
156.52225100000001
 30
0.0
 11
195.09999999999991
 21
174.90000000000001
 31
0.0
  0
LINE
  5
62F
  8
3
 10
184.90000000000001
 20
156.52225100000001
 30
0.0
 11
184.90000000000001
 21
174.90000000000001
 31
0.0
  0
LINE
  5
630
  8
0
 10
184.0
 20
174.0
 30
0.0
 11
196.0
 21
174.0
 31
0.0
  0
LINE
  5
631
  8
1
 10
220.00000000000011
 20
208.0
 30
0.0
 11
220.00000000000011
 21
252.0
 31
0.0
  0
ARC
  5
632
  8
0
 10
220.00000000000011
 20
230.0
 30
0.0
 40
12.5
 50
331.26020500000061
 51
343.73979499999888
  0
ARC
  5
633
  8
0
 10
220.00000000000011
 20
230.0
 30
0.0
 40
12.5
 50
293.57817847820041
 51
298.73979499999763
  0
ARC
  5
634
  8
0
 10
220.00000000000011
 20
230.0
 30
0.0
 40
12.5
 50
16.260205000001079
 51
28.739794999999351
  0
LINE
  5
635
  8
0
 10
226.01040800000001
 20
219.03984500000001
 30
0.0
 11
230.96015499999999
 21
223.98959199999999
 31
0.0
  0
LINE
  5
636
  8
0
 10
226.01040800000001
 20
240.96015499999999
 30
0.0
 11
230.96015499999999
 21
236.01040800000001
 31
0.0
  0
LINE
  5
637
  8
0
 10
232.00000000000011
 20
233.5
 30
0.0
 11
232.00000000000011
 21
226.5
 31
0.0
  0
ARC
  5
638
  8
0
 10
220.00000000000011
 20
230.0
 30
0.0
 40
12.5
 50
61.260205000002401
 51
66.421821521799586
  0
ARC
  5
639
  8
0
 10
220.00000000000011
 20
230.0
 30
0.0
 40
11.0
 50
297.03569178941137
 51
62.964308210588662
  0
ARC
  5
63A
  8
0
 10
220.00000000000011
 20
230.0
 30
0.0
 40
6.0
 50
130.75136329567121
 51
229.24863670432879
  0
ARC
  5
63B
  8
0
 10
220.00000000000011
 20
230.0
 30
0.0
 40
6.0
 50
326.44269023807811
 51
33.557309761921928
  0
LINE
  5
63C
  8
1
 10
152.33623511062689
 20
230.0
 30
0.0
 11
242.00000000000011
 21
230.0
 31
0.0
  0
LINE
  5
63D
  8
1
 10
220.00000000000011
 20
126.5
 30
0.0
 11
220.00000000000011
 21
44.35241861532154
 31
0.0
  0
LINE
  5
63E
  8
0
 10
224.00000000000011
 20
52.0
 30
0.0
 11
216.00000000000011
 21
52.0
 31
0.0
  0
LINE
  5
63F
  8
0
 10
214.00000000000011
 20
54.0
 30
0.0
 11
226.00000000000011
 21
54.0
 31
0.0
  0
LINE
  5
640
  8
0
 10
214.00000000000011
 20
107.725055
 30
0.0
 11
226.00000000000011
 21
107.725055
 31
0.0
  0
LINE
  5
641
  8
0
 10
226.00000199999999
 20
120.0
 30
0.0
 11
226.00000199999999
 21
123.5
 31
0.0
  0
LINE
  5
642
  8
0
 10
225.50000200000011
 20
124.0
 30
0.0
 11
225.0
 21
124.0
 31
0.0
  0
LINE
  5
643
  8
0
 10
225.50000200000011
 20
124.0
 30
0.0
 11
226.00000199999999
 21
123.5
 31
0.0
  0
LINE
  5
644
  8
0
 10
226.00000000000011
 20
54.0
 30
0.0
 11
226.00000000000011
 21
75.0
 31
0.0
  0
LINE
  5
645
  8
0
 10
226.00000000000011
 20
82.0
 30
0.0
 11
226.00000000000011
 21
109.59999999999999
 31
0.0
  0
LINE
  5
646
  8
3
 10
225.05299999999991
 20
53.05299999999999
 30
0.0
 11
225.05299999999991
 21
75.0
 31
0.0
  0
LINE
  5
647
  8
3
 10
225.05299999999991
 20
82.0
 30
0.0
 11
225.05299999999991
 21
107.725055
 31
0.0
  0
LINE
  5
648
  8
0
 10
226.00000000000011
 20
54.0
 30
0.0
 11
224.00000000000011
 21
52.0
 31
0.0
  0
LINE
  5
649
  8
3
 10
225.05299999999991
 20
107.725055
 30
0.0
 11
226.00000000000011
 21
109.365307
 31
0.0
  0
ARC
  5
64A
  8
0
 10
226.40000000000001
 20
109.59999999999999
 30
0.0
 40
0.4
 50
90.0
 51
180.0
  0
ARC
  5
64B
  8
0
 10
213.59999999999999
 20
109.59999999999999
 30
0.0
 40
0.4
 50
0.0
 51
90.0
  0
LINE
  5
64C
  8
3
 10
214.94699999999989
 20
107.725055
 30
0.0
 11
214.00000000000011
 21
109.365307
 31
0.0
  0
LINE
  5
64D
  8
0
 10
214.00000000000011
 20
54.0
 30
0.0
 11
216.00000000000011
 21
52.0
 31
0.0
  0
LINE
  5
64E
  8
3
 10
214.94699999999989
 20
53.05299999999999
 30
0.0
 11
214.94699999999989
 21
75.0
 31
0.0
  0
LINE
  5
64F
  8
3
 10
214.94699999999989
 20
82.0
 30
0.0
 11
214.94699999999989
 21
107.725055
 31
0.0
  0
LINE
  5
650
  8
0
 10
214.00000000000011
 20
54.0
 30
0.0
 11
214.00000000000011
 21
75.0
 31
0.0
  0
LINE
  5
651
  8
0
 10
214.00000000000011
 20
82.0
 30
0.0
 11
214.00000000000011
 21
109.59999999999999
 31
0.0
  0
LINE
  5
652
  8
0
 10
209.00000700000001
 20
120.0
 30
0.0
 11
231.00000700000001
 21
120.0
 31
0.0
  0
LINE
  5
653
  8
0
 10
231.00000700000001
 20
120.0
 30
0.0
 11
232.00000700000001
 21
119.42265
 31
0.0
  0
LINE
  5
654
  8
0
 10
232.00000700000001
 20
119.13397500000001
 30
0.0
 11
230.960162
 21
119.13397500000001
 31
0.0
  0
ARC
  5
655
  8
0
 10
228.48528799999991
 20
108.669501
 30
0.0
 40
10.753149000000001
 50
76.693896999997563
 51
103.30610300000239
  0
ARC
  5
656
  8
0
 10
220.0000070000001
 20
98.060689999999994
 30
0.0
 40
21.36196
 50
80.569992000000141
 51
99.430007999999845
  0
LINE
  5
657
  8
0
 10
226.01041499999999
 20
119.13397500000001
 30
0.0
 11
223.50000700000001
 21
119.13397500000001
 31
0.0
  0
LINE
  5
658
  8
0
 10
216.50000700000001
 20
119.13397500000001
 30
0.0
 11
213.98959900000011
 21
119.13397500000001
 31
0.0
  0
LINE
  5
659
  8
0
 10
213.98959900000011
 20
119.13397500000001
 30
0.0
 11
216.50000700000001
 21
119.13397500000001
 31
0.0
  0
ARC
  5
65A
  8
0
 10
211.514726
 20
108.669501
 30
0.0
 40
10.753149000000001
 50
76.693896999997563
 51
103.30610300000239
  0
LINE
  5
65B
  8
0
 10
208.00000700000001
 20
119.13397500000001
 30
0.0
 11
209.039852
 21
119.13397500000001
 31
0.0
  0
LINE
  5
65C
  8
0
 10
209.00000700000001
 20
120.0
 30
0.0
 11
208.00000700000001
 21
119.42265
 31
0.0
  0
LINE
  5
65D
  8
0
 10
209.039852
 20
119.13397500000001
 30
0.0
 11
208.00000700000001
 21
119.13397500000001
 31
0.0
  0
LINE
  5
65E
  8
0
 10
209.039852
 20
110.86602499999999
 30
0.0
 11
208.00000700000001
 21
110.86602499999999
 31
0.0
  0
LINE
  5
65F
  8
0
 10
213.98959900000011
 20
110.86602499999999
 30
0.0
 11
213.98959900000011
 21
119.13397500000001
 31
0.0
  0
LINE
  5
660
  8
0
 10
208.00000700000001
 20
110.57735
 30
0.0
 11
208.00000700000001
 21
119.42265
 31
0.0
  0
LINE
  5
661
  8
0
 10
209.039852
 20
110.86602499999999
 30
0.0
 11
209.039852
 21
119.13397500000001
 31
0.0
  0
LINE
  5
662
  8
0
 10
209.00000700000001
 20
110.0
 30
0.0
 11
208.00000700000001
 21
110.57735
 31
0.0
  0
LINE
  5
663
  8
0
 10
208.00000700000001
 20
110.86602499999999
 30
0.0
 11
209.039852
 21
110.86602499999999
 31
0.0
  0
ARC
  5
664
  8
0
 10
211.514726
 20
121.330499
 30
0.0
 40
10.753149000000001
 50
256.69389699999749
 51
283.3061029999991
  0
LINE
  5
665
  8
0
 10
213.98959900000011
 20
110.86602499999999
 30
0.0
 11
216.50000700000001
 21
110.86602499999999
 31
0.0
  0
LINE
  5
666
  8
0
 10
216.50000700000001
 20
110.86602499999999
 30
0.0
 11
213.98959900000011
 21
110.86602499999999
 31
0.0
  0
LINE
  5
667
  8
0
 10
226.01041499999999
 20
110.86602499999999
 30
0.0
 11
223.50000700000001
 21
110.86602499999999
 31
0.0
  0
ARC
  5
668
  8
0
 10
220.0000070000001
 20
131.93931000000001
 30
0.0
 40
21.36196
 50
260.56999200000013
 51
279.43000799999987
  0
LINE
  5
669
  8
0
 10
216.50000700000001
 20
110.86602499999999
 30
0.0
 11
216.50000700000001
 21
119.13397500000001
 31
0.0
  0
ARC
  5
66A
  8
0
 10
228.48528799999991
 20
121.330499
 30
0.0
 40
10.753149000000001
 50
256.69389699999749
 51
283.3061029999991
  0
LINE
  5
66B
  8
0
 10
232.00000700000001
 20
110.86602499999999
 30
0.0
 11
230.960162
 21
110.86602499999999
 31
0.0
  0
LINE
  5
66C
  8
0
 10
230.960162
 20
110.86602499999999
 30
0.0
 11
230.960162
 21
119.13397500000001
 31
0.0
  0
LINE
  5
66D
  8
0
 10
231.00000700000001
 20
110.0
 30
0.0
 11
232.00000700000001
 21
110.57735
 31
0.0
  0
LINE
  5
66E
  8
0
 10
226.01041499999999
 20
110.86602499999999
 30
0.0
 11
226.01041499999999
 21
119.13397500000001
 31
0.0
  0
LINE
  5
66F
  8
0
 10
223.50000700000001
 20
110.86602499999999
 30
0.0
 11
223.50000700000001
 21
119.13397500000001
 31
0.0
  0
LINE
  5
670
  8
0
 10
232.00000700000001
 20
110.57735
 30
0.0
 11
232.00000700000001
 21
119.42265
 31
0.0
  0
LINE
  5
671
  8
0
 10
209.00000700000001
 20
110.0
 30
0.0
 11
230.960162
 21
110.0
 31
0.0
  0
LINE
  5
672
  8
0
 10
225.48482799999999
 20
80.862819000000016
 30
0.0
 11
225.48482799999999
 21
76.137180999999984
 31
0.0
  0
LINE
  5
673
  8
0
 10
230.9696549999999
 20
80.862819000000016
 30
0.0
 11
230.9696549999999
 21
76.137180999999984
 31
0.0
  0
LINE
  5
674
  8
0
 10
214.51517199999989
 20
80.862819000000016
 30
0.0
 11
214.51517199999989
 21
76.137180999999984
 31
0.0
  0
LINE
  5
675
  8
0
 10
209.03034500000001
 20
80.862819000000016
 30
0.0
 11
209.03034500000001
 21
76.137180999999984
 31
0.0
  0
LINE
  5
676
  8
0
 10
209.03034500000001
 20
76.137180999999984
 30
0.0
 11
211.0
 21
75.0
 31
0.0
  0
ARC
  5
677
  8
0
 10
211.77275900000001
 20
80.14473799999999
 30
0.0
 40
4.8560629999999989
 50
244.3842470000001
 51
304.3842470000003
  0
ARC
  5
678
  8
0
 10
220.00000000000011
 20
93.440168999999983
 30
0.0
 40
18.151494
 50
252.412046000001
 51
287.58795399999912
  0
ARC
  5
679
  8
0
 10
228.22724099999999
 20
80.14473799999999
 30
0.0
 40
4.8560629999999989
 50
235.6157529999997
 51
295.61575299999993
  0
LINE
  5
67A
  8
0
 10
230.9696549999999
 20
76.137180999999984
 30
0.0
 11
229.0
 21
75.0
 31
0.0
  0
LINE
  5
67B
  8
0
 10
211.0
 20
75.0
 30
0.0
 11
229.0
 21
75.0
 31
0.0
  0
LINE
  5
67C
  8
0
 10
211.0
 20
82.0
 30
0.0
 11
229.0
 21
82.0
 31
0.0
  0
LINE
  5
67D
  8
0
 10
230.9696549999999
 20
80.862819000000016
 30
0.0
 11
229.0
 21
82.0
 31
0.0
  0
ARC
  5
67E
  8
0
 10
228.22724099999999
 20
76.85526200000001
 30
0.0
 40
4.8560629999999989
 50
64.384247000000045
 51
124.3842470000003
  0
ARC
  5
67F
  8
0
 10
220.00000000000011
 20
63.559831000000003
 30
0.0
 40
18.151494
 50
72.412046000000956
 51
107.587953999999
  0
ARC
  5
680
  8
0
 10
211.77275900000001
 20
76.85526200000001
 30
0.0
 40
4.8560629999999989
 50
55.615752999999721
 51
115.6157529999999
  0
LINE
  5
681
  8
0
 10
209.03034500000001
 20
80.862819000000016
 30
0.0
 11
211.0
 21
82.0
 31
0.0
  0
LINE
  5
682
  8
0
 10
195.48482799999999
 20
80.862819000000016
 30
0.0
 11
195.48482799999999
 21
76.137180999999984
 31
0.0
  0
LINE
  5
683
  8
0
 10
200.96965499999999
 20
80.862819000000016
 30
0.0
 11
200.96965499999999
 21
76.137180999999984
 31
0.0
  0
LINE
  5
684
  8
0
 10
184.51517200000001
 20
80.862819000000016
 30
0.0
 11
184.51517200000001
 21
76.137180999999984
 31
0.0
  0
LINE
  5
685
  8
0
 10
179.03034500000001
 20
80.862819000000016
 30
0.0
 11
179.03034500000001
 21
76.137180999999984
 31
0.0
  0
LINE
  5
686
  8
0
 10
179.03034500000001
 20
76.137180999999984
 30
0.0
 11
181.0
 21
75.0
 31
0.0
  0
ARC
  5
687
  8
0
 10
181.77275900000001
 20
80.14473799999999
 30
0.0
 40
4.8560629999999989
 50
244.3842470000001
 51
304.3842470000003
  0
ARC
  5
688
  8
0
 10
190.0
 20
93.440168999999983
 30
0.0
 40
18.151494
 50
252.412046000001
 51
287.58795399999912
  0
ARC
  5
689
  8
0
 10
198.22724099999999
 20
80.14473799999999
 30
0.0
 40
4.8560629999999989
 50
235.6157529999997
 51
295.61575299999993
  0
LINE
  5
68A
  8
0
 10
200.96965499999999
 20
76.137180999999984
 30
0.0
 11
199.0
 21
75.0
 31
0.0
  0
LINE
  5
68B
  8
0
 10
181.0
 20
75.0
 30
0.0
 11
199.0
 21
75.0
 31
0.0
  0
LINE
  5
68C
  8
0
 10
181.0
 20
82.0
 30
0.0
 11
199.0
 21
82.0
 31
0.0
  0
LINE
  5
68D
  8
0
 10
200.96965499999999
 20
80.862819000000016
 30
0.0
 11
199.0
 21
82.0
 31
0.0
  0
ARC
  5
68E
  8
0
 10
198.22724099999999
 20
76.85526200000001
 30
0.0
 40
4.8560629999999989
 50
64.384247000000045
 51
124.3842470000003
  0
ARC
  5
68F
  8
0
 10
190.0
 20
63.559831000000003
 30
0.0
 40
18.151494
 50
72.412046000000956
 51
107.587953999999
  0
ARC
  5
690
  8
0
 10
181.77275900000001
 20
76.85526200000001
 30
0.0
 40
4.8560629999999989
 50
55.615752999999721
 51
115.6157529999999
  0
LINE
  5
691
  8
0
 10
179.03034500000001
 20
80.862819000000016
 30
0.0
 11
181.0
 21
82.0
 31
0.0
  0
LINE
  5
692
  8
0
 10
294.50000000000011
 20
81.711325000000016
 30
0.0
 11
294.00000000000011
 21
82.0
 31
0.0
  0
ARC
  5
693
  8
0
 10
289.75
 20
67.991640999999973
 30
0.0
 40
13.719684000000001
 50
69.743841999999802
 51
110.2561580000002
  0
LINE
  5
694
  8
0
 10
294.00000000000011
 20
75.0
 30
0.0
 11
294.50000000000011
 21
75.360471999999973
 31
0.0
  0
LINE
  5
695
  8
0
 10
294.50000000000011
 20
75.360471999999973
 30
0.0
 11
294.50000000000011
 21
81.711325000000016
 31
0.0
  0
ARC
  5
696
  8
0
 10
289.75
 20
89.008359000000027
 30
0.0
 40
13.719684000000001
 50
249.7438419999998
 51
290.2561580000002
  0
ARC
  5
697
  8
0
 10
280.25000000000011
 20
89.008359000000027
 30
0.0
 40
13.719684000000001
 50
249.7438419999998
 51
290.2561580000002
  0
LINE
  5
698
  8
0
 10
275.50000000000011
 20
75.360471999999973
 30
0.0
 11
275.50000000000011
 21
81.711325000000016
 31
0.0
  0
LINE
  5
699
  8
0
 10
276.00000000000011
 20
75.0
 30
0.0
 11
275.50000000000011
 21
75.360471999999973
 31
0.0
  0
ARC
  5
69A
  8
0
 10
280.25000000000011
 20
67.991640999999973
 30
0.0
 40
13.719684000000001
 50
69.743841999999802
 51
110.2561580000002
  0
LINE
  5
69B
  8
0
 10
275.50000000000011
 20
81.711325000000016
 30
0.0
 11
276.00000000000011
 21
82.0
 31
0.0
  0
LINE
  5
69C
  8
0
 10
276.00000000000011
 20
82.0
 30
0.0
 11
294.00000000000011
 21
82.0
 31
0.0
  0
LINE
  5
69D
  8
0
 10
294.00000000000011
 20
75.0
 30
0.0
 11
276.00000000000011
 21
75.0
 31
0.0
  0
LINE
  5
69E
  8
0
 10
285.00000000000011
 20
80.862819000000016
 30
0.0
 11
285.00000000000011
 21
76.137180999999984
 31
0.0
  0
LINE
  5
69F
  8
1
 10
105.0
 20
183.5
 30
0.0
 11
105.0
 21
44.35241861532154
 31
0.0
  0
LINE
  5
6A0
  8
0
 10
109.0
 20
51.0
 30
0.0
 11
101.0
 21
51.0
 31
0.0
  0
LINE
  5
6A1
  8
0
 10
99.0
 20
53.0
 30
0.0
 11
99.0
 21
75.0
 31
0.0
  0
LINE
  5
6A2
  8
0
 10
99.0
 20
82.0
 30
0.0
 11
99.0
 21
120.0
 31
0.0
  0
LINE
  5
6A3
  8
0
 10
99.0
 20
156.52225100000001
 30
0.0
 11
99.0
 21
174.0
 31
0.0
  0
LINE
  5
6A4
  8
0
 10
101.0
 20
176.0
 30
0.0
 11
109.0
 21
176.0
 31
0.0
  0
LINE
  5
6A5
  8
0
 10
111.0
 20
174.0
 30
0.0
 11
111.0
 21
156.52225100000001
 31
0.0
  0
LINE
  5
6A6
  8
0
 10
111.0
 20
120.0
 30
0.0
 11
111.0
 21
82.0
 31
0.0
  0
LINE
  5
6A7
  8
0
 10
111.0
 20
75.0
 30
0.0
 11
111.0
 21
53.0
 31
0.0
  0
LINE
  5
6A8
  8
0
 10
99.0
 20
174.0
 30
0.0
 11
101.0
 21
176.0
 31
0.0
  0
LINE
  5
6A9
  8
0
 10
111.0
 20
174.0
 30
0.0
 11
109.0
 21
176.0
 31
0.0
  0
LINE
  5
6AA
  8
0
 10
109.0
 20
51.0
 30
0.0
 11
111.0
 21
53.0
 31
0.0
  0
LINE
  5
6AB
  8
0
 10
101.0
 20
51.0
 30
0.0
 11
99.0
 21
53.0
 31
0.0
  0
LINE
  5
6AC
  8
0
 10
99.0
 20
53.0
 30
0.0
 11
111.0
 21
53.0
 31
0.0
  0
LINE
  5
6AE
  8
3
 10
99.900000000000034
 20
75.0
 30
0.0
 11
99.900000000000034
 21
52.099999999999987
 31
0.0
  0
LINE
  5
6B0
  8
3
 10
110.09999999999989
 20
75.0
 30
0.0
 11
110.09999999999989
 21
52.099999999999987
 31
0.0
  0
LINE
  5
6B1
  8
3
 10
110.09999999999989
 20
156.52225100000001
 30
0.0
 11
110.09999999999989
 21
174.90000000000001
 31
0.0
  0
LINE
  5
6B2
  8
3
 10
99.900000000000034
 20
156.52225100000001
 30
0.0
 11
99.900000000000034
 21
174.90000000000001
 31
0.0
  0
LINE
  5
6B3
  8
0
 10
99.0
 20
174.0
 30
0.0
 11
111.0
 21
174.0
 31
0.0
  0
LINE
  5
6B4
  8
0
 10
114.5
 20
81.711325000000016
 30
0.0
 11
114.0
 21
82.0
 31
0.0
  0
ARC
  5
6B5
  8
0
 10
109.75
 20
67.991640999999973
 30
0.0
 40
13.719684000000001
 50
69.743841999999802
 51
110.2561580000002
  0
LINE
  5
6B6
  8
0
 10
114.0
 20
75.0
 30
0.0
 11
114.5
 21
75.360471999999973
 31
0.0
  0
LINE
  5
6B7
  8
0
 10
114.5
 20
75.360471999999973
 30
0.0
 11
114.5
 21
81.711325000000016
 31
0.0
  0
ARC
  5
6B8
  8
0
 10
109.75
 20
89.008359000000027
 30
0.0
 40
13.719684000000001
 50
249.7438419999998
 51
290.2561580000002
  0
ARC
  5
6B9
  8
0
 10
100.25
 20
89.008359000000027
 30
0.0
 40
13.719684000000001
 50
249.7438419999998
 51
290.2561580000002
  0
LINE
  5
6BA
  8
0
 10
95.5
 20
75.360471999999973
 30
0.0
 11
95.5
 21
81.711325000000016
 31
0.0
  0
LINE
  5
6BB
  8
0
 10
96.0
 20
75.0
 30
0.0
 11
95.5
 21
75.360471999999973
 31
0.0
  0
ARC
  5
6BC
  8
0
 10
100.25
 20
67.991640999999973
 30
0.0
 40
13.719684000000001
 50
69.743841999999802
 51
110.2561580000002
  0
LINE
  5
6BD
  8
0
 10
95.5
 20
81.711325000000016
 30
0.0
 11
96.0
 21
82.0
 31
0.0
  0
LINE
  5
6BE
  8
0
 10
96.0
 20
82.0
 30
0.0
 11
114.0
 21
82.0
 31
0.0
  0
LINE
  5
6BF
  8
0
 10
114.0
 20
75.0
 30
0.0
 11
96.0
 21
75.0
 31
0.0
  0
LINE
  5
6C0
  8
0
 10
105.0
 20
80.862819000000016
 30
0.0
 11
105.0
 21
76.137180999999984
 31
0.0
  0
LINE
  5
6C1
  8
0
 10
162.0
 20
214.5
 30
0.0
 11
162.5
 21
214.0
 31
0.0
  0
LINE
  5
6C2
  8
0
 10
225.0
 20
214.5
 30
0.0
 11
224.5
 21
214.0
 31
0.0
  0
LINE
  5
6C3
  8
0
 10
224.5
 20
246.0
 30
0.0
 11
225.0
 21
245.5
 31
0.0
  0
LINE
  5
6C4
  8
0
 10
162.5
 20
246.0
 30
0.0
 11
162.0
 21
245.5
 31
0.0
  0
LINE
  5
6C5
  8
0
 10
162.5
 20
214.0
 30
0.0
 11
224.5
 21
214.0
 31
0.0
  0
LINE
  5
6C6
  8
0
 10
162.5
 20
246.0
 30
0.0
 11
224.5
 21
246.0
 31
0.0
  0
LINE
  5
6C7
  8
0
 10
225.0
 20
245.5
 30
0.0
 11
225.0
 21
214.5
 31
0.0
  0
LINE
  5
6C8
  8
0
 10
162.0
 20
245.5
 30
0.0
 11
162.0
 21
214.5
 31
0.0
  0
LINE
  5
6C9
  8
2
 10
174.63325
 20
214.0
 30
0.0
 11
174.63325
 21
223.64531700000001
 31
0.0
  0
LINE
  5
6CA
  8
2
 10
192.63325
 20
214.0
 30
0.0
 11
192.63325
 21
223.5
 31
0.0
  0
LINE
  5
6CB
  8
2
 10
192.63325
 20
236.5
 30
0.0
 11
192.63325
 21
246.0
 31
0.0
  0
LINE
  5
6CC
  8
2
 10
174.63325
 20
236.35468299999999
 30
0.0
 11
174.63325
 21
246.0
 31
0.0
  0
ARC
  5
6CD
  8
0
 10
176.0
 20
230.0
 30
0.0
 40
6.5
 50
90.0
 51
270.0
  0
ARC
  5
6CE
  8
2
 10
190.0
 20
230.0
 30
0.0
 40
6.5
 50
270.0
 51
90.0
  0
LINE
  5
6CF
  8
0
 10
176.0
 20
236.5
 30
0.0
 11
178.7416697508022
 21
236.5
 31
0.0
  0
LINE
  5
6D0
  8
0
 10
176.0
 20
223.5
 30
0.0
 11
178.7416697508022
 21
223.5
 31
0.0
  0
LINE
  5
6D1
  8
1
 10
176.0
 20
239.5
 30
0.0
 11
176.0
 21
220.5
 31
0.0
  0
CIRCLE
  5
6D2
  8
0
 10
214.00000000000011
 20
230.0
 30
0.0
 40
5.0
  0
CIRCLE
  5
6D3
  8
3
 10
214.00000000000011
 20
230.0
 30
0.0
 40
6.0
  0
LINE
  5
6D4
  8
1
 10
214.00000000000011
 20
220.0
 30
0.0
 11
214.00000000000011
 21
240.0
 31
0.0
  0
LINE
  5
6D5
  8
2
 10
178.7416697508022
 20
236.5
 30
0.0
 11
225.0
 21
236.5
 31
0.0
  0
LINE
  5
6D6
  8
2
 10
178.7416697508022
 20
223.5
 30
0.0
 11
225.0
 21
223.5
 31
0.0
  0
LINE
  5
6D7
  8
1
 10
176.0
 20
139.0
 30
0.0
 11
176.0
 21
117.0
 31
0.0
  0
LINE
  5
6D8
  8
0
 10
225.0
 20
120.5
 30
0.0
 11
224.5
 21
120.0
 31
0.0
  0
LINE
  5
6D9
  8
0
 10
224.5
 20
136.0
 30
0.0
 11
225.0
 21
135.5
 31
0.0
  0
LINE
  5
6DA
  8
0
 10
162.5
 20
136.0
 30
0.0
 11
162.0
 21
135.5
 31
0.0
  0
LINE
  5
6DB
  8
0
 10
225.0
 20
135.5
 30
0.0
 11
225.0
 21
120.5
 31
0.0
  0
LINE
  5
6DC
  8
0
 10
162.0
 20
135.5
 30
0.0
 11
162.0
 21
121.60769500000001
 31
0.0
  0
LINE
  5
6DD
  8
0
 10
192.63325
 20
120.0
 30
0.0
 11
224.5
 21
120.0
 31
0.0
  0
LINE
  5
6DE
  8
0
 10
162.5
 20
136.0
 30
0.0
 11
224.5
 21
136.0
 31
0.0
  0
LINE
  5
6DF
  8
1
 10
214.00000000000011
 20
139.0
 30
0.0
 11
214.00000000000011
 21
117.0
 31
0.0
  0
LINE
  5
6E0
  8
2
 10
190.0
 20
125.0
 30
0.0
 11
225.0
 21
125.0
 31
0.0
  0
LINE
  5
6E1
  8
2
 10
196.5
 20
136.0
 30
0.0
 11
196.5
 21
125.0
 31
0.0
  0
LINE
  5
6E2
  8
2
 10
169.5
 20
136.0
 30
0.0
 11
169.5
 21
120.09411900000001
 31
0.0
  0
LINE
  5
6E3
  8
2
 10
208.0
 20
135.0
 30
0.0
 11
208.0
 21
125.0
 31
0.0
  0
LINE
  5
6E4
  8
2
 10
209.0
 20
134.0
 30
0.0
 11
209.0
 21
125.0
 31
0.0
  0
LINE
  5
6E5
  8
2
 10
207.0
 20
136.0
 30
0.0
 11
209.0
 21
134.0
 31
0.0
  0
LINE
  5
6E6
  8
2
 10
221.0
 20
136.0
 30
0.0
 11
219.00000000000011
 21
134.0
 31
0.0
  0
LINE
  5
6E7
  8
2
 10
219.00000000000011
 20
134.0
 30
0.0
 11
219.00000000000011
 21
125.0
 31
0.0
  0
LINE
  5
6E8
  8
2
 10
220.00000000000011
 20
135.0
 30
0.0
 11
220.00000000000011
 21
125.0
 31
0.0
  0
LINE
  5
6E9
  8
2
 10
209.0
 20
134.0
 30
0.0
 11
219.00000000000011
 21
134.0
 31
0.0
  0
ARC
  5
6EA
  8
0
 10
168.0
 20
132.0
 30
0.0
 40
12.0
 50
240.0
 51
303.55730999999912
  0
LINE
  5
6EB
  8
0
 10
192.63325
 20
120.0
 30
0.0
 11
174.63325
 21
122.0
 31
0.0
  0
LINE
  5
6EC
  8
0
 10
269.50000000000011
 20
136.0
 30
0.0
 11
269.00000000000011
 21
135.5
 31
0.0
  0
LINE
  5
6ED
  8
0
 10
300.50000000000011
 20
136.0
 30
0.0
 11
269.50000000000011
 21
136.0
 31
0.0
  0
LINE
  5
6EE
  8
0
 10
301.00000000000011
 20
135.5
 30
0.0
 11
300.50000000000011
 21
136.0
 31
0.0
  0
LINE
  5
6EF
  8
0
 10
301.00000000000011
 20
120.5
 30
0.0
 11
301.00000000000011
 21
135.5
 31
0.0
  0
LINE
  5
6F0
  8
0
 10
300.50000000000011
 20
120.0
 30
0.0
 11
301.00000000000011
 21
120.5
 31
0.0
  0
LINE
  5
6F1
  8
0
 10
269.50000000000011
 20
120.0
 30
0.0
 11
300.50000000000011
 21
120.0
 31
0.0
  0
LINE
  5
6F2
  8
0
 10
269.00000000000011
 20
120.5
 30
0.0
 11
269.50000000000011
 21
120.0
 31
0.0
  0
LINE
  5
6F3
  8
0
 10
269.00000000000011
 20
135.5
 30
0.0
 11
269.00000000000011
 21
120.5
 31
0.0
  0
LINE
  5
6F4
  8
0
 10
278.50000000000011
 20
120.0
 30
0.0
 11
278.50000000000011
 21
125.0
 31
0.0
  0
LINE
  5
6F5
  8
0
 10
278.50000000000011
 20
125.0
 30
0.0
 11
291.5
 21
125.0
 31
0.0
  0
LINE
  5
6F6
  8
0
 10
291.5
 20
125.0
 30
0.0
 11
291.5
 21
120.0
 31
0.0
  0
LINE
  5
6F7
  8
1
 10
285.00000000000011
 20
183.5
 30
0.0
 11
285.00000000000011
 21
44.35241861532154
 31
0.0
  0
LINE
  5
6F8
  8
0
 10
279.00000199999999
 20
120.0
 30
0.0
 11
279.00000199999999
 21
123.5
 31
0.0
  0
LINE
  5
6F9
  8
0
 10
289.0
 20
52.0
 30
0.0
 11
281.0
 21
52.0
 31
0.0
  0
LINE
  5
6FA
  8
0
 10
279.0
 20
54.0
 30
0.0
 11
291.00000000000011
 21
54.0
 31
0.0
  0
LINE
  5
6FB
  8
0
 10
279.0
 20
107.725055
 30
0.0
 11
291.00000000000011
 21
107.725055
 31
0.0
  0
LINE
  5
6FC
  8
0
 10
291.00000199999999
 20
120.0
 30
0.0
 11
291.00000199999999
 21
123.5
 31
0.0
  0
LINE
  5
6FD
  8
0
 10
290.50000200000011
 20
124.0
 30
0.0
 11
279.50000200000011
 21
124.0
 31
0.0
  0
LINE
  5
6FE
  8
0
 10
279.50000200000011
 20
124.0
 30
0.0
 11
279.00000199999999
 21
123.5
 31
0.0
  0
LINE
  5
6FF
  8
0
 10
290.50000200000011
 20
124.0
 30
0.0
 11
291.00000199999999
 21
123.5
 31
0.0
  0
LINE
  5
700
  8
0
 10
291.00000000000011
 20
54.0
 30
0.0
 11
291.00000000000011
 21
75.0
 31
0.0
  0
LINE
  5
701
  8
0
 10
291.00000000000011
 20
82.0
 30
0.0
 11
291.00000000000011
 21
109.59999999999999
 31
0.0
  0
LINE
  5
702
  8
3
 10
290.05299999999988
 20
53.05299999999999
 30
0.0
 11
290.05299999999988
 21
75.0
 31
0.0
  0
LINE
  5
703
  8
3
 10
290.05299999999988
 20
82.0
 30
0.0
 11
290.05299999999988
 21
107.725055
 31
0.0
  0
LINE
  5
704
  8
0
 10
291.00000000000011
 20
54.0
 30
0.0
 11
289.0
 21
52.0
 31
0.0
  0
LINE
  5
705
  8
3
 10
290.05299999999988
 20
107.725055
 30
0.0
 11
291.00000000000011
 21
109.365307
 31
0.0
  0
ARC
  5
706
  8
0
 10
291.39999999999992
 20
109.59999999999999
 30
0.0
 40
0.4
 50
90.0
 51
180.0
  0
ARC
  5
707
  8
0
 10
278.60000000000002
 20
109.59999999999999
 30
0.0
 40
0.4
 50
0.0
 51
90.0
  0
LINE
  5
708
  8
3
 10
279.94699999999989
 20
107.725055
 30
0.0
 11
279.0
 21
109.365307
 31
0.0
  0
LINE
  5
709
  8
0
 10
279.0
 20
54.0
 30
0.0
 11
281.0
 21
52.0
 31
0.0
  0
LINE
  5
70A
  8
3
 10
279.94699999999989
 20
53.05299999999999
 30
0.0
 11
279.94699999999989
 21
75.0
 31
0.0
  0
LINE
  5
70B
  8
3
 10
279.94699999999989
 20
82.0
 30
0.0
 11
279.94699999999989
 21
107.725055
 31
0.0
  0
LINE
  5
70C
  8
0
 10
279.0
 20
54.0
 30
0.0
 11
279.0
 21
75.0
 31
0.0
  0
LINE
  5
70D
  8
0
 10
279.0
 20
82.0
 30
0.0
 11
279.0
 21
109.59999999999999
 31
0.0
  0
LINE
  5
70E
  8
0
 10
296.00000699999993
 20
120.0
 30
0.0
 11
297.00000699999993
 21
119.42265
 31
0.0
  0
LINE
  5
70F
  8
0
 10
297.00000699999993
 20
119.13397500000001
 30
0.0
 11
295.96016200000003
 21
119.13397500000001
 31
0.0
  0
ARC
  5
710
  8
0
 10
293.48528799999991
 20
108.669501
 30
0.0
 40
10.753149000000001
 50
76.693896999997563
 51
103.30610300000239
  0
ARC
  5
711
  8
0
 10
285.00000699999993
 20
98.060689999999994
 30
0.0
 40
21.36196
 50
80.569992000000141
 51
99.430007999999845
  0
LINE
  5
712
  8
0
 10
291.01041500000002
 20
119.13397500000001
 30
0.0
 11
288.50000699999993
 21
119.13397500000001
 31
0.0
  0
LINE
  5
713
  8
0
 10
281.50000699999993
 20
119.13397500000001
 30
0.0
 11
278.98959900000011
 21
119.13397500000001
 31
0.0
  0
LINE
  5
714
  8
0
 10
278.98959900000011
 20
119.13397500000001
 30
0.0
 11
281.50000699999993
 21
119.13397500000001
 31
0.0
  0
ARC
  5
715
  8
0
 10
276.51472599999988
 20
108.669501
 30
0.0
 40
10.753149000000001
 50
76.693896999997563
 51
103.30610300000239
  0
LINE
  5
716
  8
0
 10
273.00000699999993
 20
119.13397500000001
 30
0.0
 11
274.03985199999988
 21
119.13397500000001
 31
0.0
  0
LINE
  5
717
  8
0
 10
274.00000699999993
 20
120.0
 30
0.0
 11
273.00000699999993
 21
119.42265
 31
0.0
  0
LINE
  5
718
  8
0
 10
274.03985199999988
 20
119.13397500000001
 30
0.0
 11
273.00000699999993
 21
119.13397500000001
 31
0.0
  0
LINE
  5
719
  8
0
 10
274.03985199999988
 20
110.86602499999999
 30
0.0
 11
273.00000699999993
 21
110.86602499999999
 31
0.0
  0
LINE
  5
71A
  8
0
 10
278.98959900000011
 20
110.86602499999999
 30
0.0
 11
278.98959900000011
 21
119.13397500000001
 31
0.0
  0
LINE
  5
71B
  8
0
 10
273.00000699999993
 20
110.57735
 30
0.0
 11
273.00000699999993
 21
119.42265
 31
0.0
  0
LINE
  5
71C
  8
0
 10
274.03985199999988
 20
110.86602499999999
 30
0.0
 11
274.03985199999988
 21
119.13397500000001
 31
0.0
  0
LINE
  5
71D
  8
0
 10
274.00000699999993
 20
110.0
 30
0.0
 11
273.00000699999993
 21
110.57735
 31
0.0
  0
LINE
  5
71E
  8
0
 10
273.00000699999993
 20
110.86602499999999
 30
0.0
 11
274.03985199999988
 21
110.86602499999999
 31
0.0
  0
ARC
  5
71F
  8
0
 10
276.51472599999988
 20
121.330499
 30
0.0
 40
10.753149000000001
 50
256.69389699999749
 51
283.3061029999991
  0
LINE
  5
720
  8
0
 10
278.98959900000011
 20
110.86602499999999
 30
0.0
 11
281.50000699999993
 21
110.86602499999999
 31
0.0
  0
LINE
  5
721
  8
0
 10
281.50000699999993
 20
110.86602499999999
 30
0.0
 11
278.98959900000011
 21
110.86602499999999
 31
0.0
  0
LINE
  5
722
  8
0
 10
291.01041500000002
 20
110.86602499999999
 30
0.0
 11
288.50000699999993
 21
110.86602499999999
 31
0.0
  0
ARC
  5
723
  8
0
 10
285.00000699999993
 20
131.93931000000001
 30
0.0
 40
21.36196
 50
260.56999200000013
 51
279.43000799999987
  0
LINE
  5
724
  8
0
 10
281.50000699999993
 20
110.86602499999999
 30
0.0
 11
281.50000699999993
 21
119.13397500000001
 31
0.0
  0
ARC
  5
725
  8
0
 10
293.48528799999991
 20
121.330499
 30
0.0
 40
10.753149000000001
 50
256.69389699999749
 51
283.3061029999991
  0
LINE
  5
726
  8
0
 10
297.00000699999993
 20
110.86602499999999
 30
0.0
 11
295.96016200000003
 21
110.86602499999999
 31
0.0
  0
LINE
  5
727
  8
0
 10
295.96016200000003
 20
110.86602499999999
 30
0.0
 11
295.96016200000003
 21
119.13397500000001
 31
0.0
  0
LINE
  5
728
  8
0
 10
296.00000699999993
 20
110.0
 30
0.0
 11
297.00000699999993
 21
110.57735
 31
0.0
  0
LINE
  5
729
  8
0
 10
291.01041500000002
 20
110.86602499999999
 30
0.0
 11
291.01041500000002
 21
119.13397500000001
 31
0.0
  0
LINE
  5
72A
  8
0
 10
288.50000699999993
 20
110.86602499999999
 30
0.0
 11
288.50000699999993
 21
119.13397500000001
 31
0.0
  0
LINE
  5
72B
  8
0
 10
297.00000699999993
 20
110.57735
 30
0.0
 11
297.00000699999993
 21
119.42265
 31
0.0
  0
LINE
  5
72C
  8
0
 10
274.00000699999993
 20
110.0
 30
0.0
 11
295.96016200000003
 21
110.0
 31
0.0
  0
LINE
  5
72D
  8
0
 10
298.0
 20
139.5
 30
0.0
 11
297.50000000000011
 21
140.0
 31
0.0
  0
LINE
  5
72E
  8
0
 10
297.50000000000011
 20
136.0
 30
0.0
 11
298.0
 21
136.5
 31
0.0
  0
LINE
  5
72F
  8
0
 10
272.00000000000011
 20
139.5
 30
0.0
 11
272.5
 21
140.0
 31
0.0
  0
LINE
  5
730
  8
0
 10
272.5
 20
136.0
 30
0.0
 11
272.00000000000011
 21
136.5
 31
0.0
  0
LINE
  5
731
  8
0
 10
272.00000000000011
 20
136.5
 30
0.0
 11
272.00000000000011
 21
139.5
 31
0.0
  0
LINE
  5
732
  8
0
 10
297.50000000000011
 20
136.0
 30
0.0
 11
272.5
 21
136.0
 31
0.0
  0
LINE
  5
733
  8
0
 10
298.0
 20
139.5
 30
0.0
 11
298.0
 21
136.5
 31
0.0
  0
LINE
  5
734
  8
0
 10
272.5
 20
140.0
 30
0.0
 11
297.50000000000011
 21
140.0
 31
0.0
  0
ARC
  5
735
  8
0
 10
294.89999999999992
 20
143.92225099999999
 30
0.0
 40
0.4
 50
180.0
 51
270.0
  0
ARC
  5
736
  8
0
 10
280.25000000000011
 20
146.03329500000001
 30
0.0
 40
10.488956
 50
63.072847000000273
 51
116.92715299999971
  0
ARC
  5
737
  8
0
 10
289.75
 20
146.03329500000001
 30
0.0
 40
10.488956
 50
63.072847000000273
 51
116.92715299999971
  0
LINE
  5
738
  8
0
 10
276.00000000000011
 20
156.52225100000001
 30
0.0
 11
275.50000000000011
 21
156.233576
 31
0.0
  0
LINE
  5
739
  8
0
 10
294.00000000000011
 20
156.52225100000001
 30
0.0
 11
294.50000000000011
 21
156.233576
 31
0.0
  0
LINE
  5
73A
  8
0
 10
294.50000000000011
 20
156.233576
 30
0.0
 11
294.50000000000011
 21
143.92225099999999
 31
0.0
  0
LINE
  5
73B
  8
0
 10
276.00000000000011
 20
156.52225100000001
 30
0.0
 11
294.00000000000011
 21
156.52225100000001
 31
0.0
  0
LINE
  5
73C
  8
0
 10
285.00000000000011
 20
155.38507000000001
 30
0.0
 11
285.00000000000011
 21
143.52225100000001
 31
0.0
  0
LINE
  5
73D
  8
0
 10
275.50000000000011
 20
156.233576
 30
0.0
 11
275.50000000000011
 21
143.92225099999999
 31
0.0
  0
ARC
  5
73E
  8
0
 10
285.00000000000011
 20
167.55926299999999
 30
0.0
 40
30.0
 50
293.27163334490967
 51
295.67928899999851
  0
LINE
  5
73F
  8
0
 10
298.0
 20
143.02225100000001
 30
0.0
 11
298.0
 21
140.52225100000001
 31
0.0
  0
LINE
  5
740
  8
0
 10
297.50000000000011
 20
143.52225100000001
 30
0.0
 11
298.0
 21
143.02225100000001
 31
0.0
  0
ARC
  5
741
  8
0
 10
275.10000000000002
 20
143.92225099999999
 30
0.0
 40
0.4
 50
270.0
 51
0.0
  0
ARC
  5
742
  8
0
 10
285.00000000000011
 20
167.55926299999999
 30
0.0
 40
30.0
 50
244.32071100000149
 51
246.72836665509021
  0
LINE
  5
743
  8
0
 10
298.0
 20
140.52225100000001
 30
0.0
 11
272.00000000000011
 21
140.52225100000001
 31
0.0
  0
LINE
  5
744
  8
0
 10
272.00000000000011
 20
143.02225100000001
 30
0.0
 11
272.00000000000011
 21
140.52225100000001
 31
0.0
  0
LINE
  5
745
  8
0
 10
272.5
 20
143.52225100000001
 30
0.0
 11
272.00000000000011
 21
143.02225100000001
 31
0.0
  0
LINE
  5
746
  8
0
 10
272.5
 20
143.52225100000001
 30
0.0
 11
297.50000000000011
 21
143.52225100000001
 31
0.0
  0
LINE
  5
747
  8
0
 10
120.5
 20
136.0
 30
0.0
 11
121.0
 21
135.5
 31
0.0
  0
LINE
  5
748
  8
0
 10
89.500000000000014
 20
136.0
 30
0.0
 11
120.5
 21
136.0
 31
0.0
  0
LINE
  5
749
  8
0
 10
89.0
 20
135.5
 30
0.0
 11
89.500000000000014
 21
136.0
 31
0.0
  0
LINE
  5
74A
  8
0
 10
89.0
 20
120.5
 30
0.0
 11
89.0
 21
135.5
 31
0.0
  0
LINE
  5
74B
  8
0
 10
89.500000000000014
 20
120.0
 30
0.0
 11
89.0
 21
120.5
 31
0.0
  0
LINE
  5
74C
  8
0
 10
120.5
 20
120.0
 30
0.0
 11
89.500000000000014
 21
120.0
 31
0.0
  0
LINE
  5
74D
  8
0
 10
121.0
 20
120.5
 30
0.0
 11
120.5
 21
120.0
 31
0.0
  0
LINE
  5
74E
  8
0
 10
121.0
 20
135.5
 30
0.0
 11
121.0
 21
120.5
 31
0.0
  0
LINE
  5
74F
  8
0
 10
121.0
 20
121.60769500000001
 30
0.0
 11
89.0
 21
121.60769500000001
 31
0.0
  0
LINE
  5
750
  8
0
 10
118.0
 20
139.5
 30
0.0
 11
117.5
 21
140.0
 31
0.0
  0
LINE
  5
751
  8
0
 10
117.5
 20
136.0
 30
0.0
 11
118.0
 21
136.5
 31
0.0
  0
LINE
  5
752
  8
0
 10
92.0
 20
139.5
 30
0.0
 11
92.5
 21
140.0
 31
0.0
  0
LINE
  5
753
  8
0
 10
92.5
 20
136.0
 30
0.0
 11
92.0
 21
136.5
 31
0.0
  0
LINE
  5
754
  8
0
 10
92.0
 20
136.5
 30
0.0
 11
92.0
 21
139.5
 31
0.0
  0
LINE
  5
755
  8
0
 10
117.5
 20
136.0
 30
0.0
 11
92.5
 21
136.0
 31
0.0
  0
LINE
  5
756
  8
0
 10
118.0
 20
139.5
 30
0.0
 11
118.0
 21
136.5
 31
0.0
  0
LINE
  5
757
  8
0
 10
92.5
 20
140.0
 30
0.0
 11
117.5
 21
140.0
 31
0.0
  0
ARC
  5
758
  8
0
 10
114.90000000000001
 20
143.92225099999999
 30
0.0
 40
0.4
 50
180.0
 51
270.0
  0
ARC
  5
759
  8
0
 10
100.25
 20
146.03329500000001
 30
0.0
 40
10.488956
 50
63.072847000000273
 51
116.92715299999971
  0
ARC
  5
75A
  8
0
 10
109.75
 20
146.03329500000001
 30
0.0
 40
10.488956
 50
63.072847000000273
 51
116.92715299999971
  0
LINE
  5
75B
  8
0
 10
96.0
 20
156.52225100000001
 30
0.0
 11
95.5
 21
156.233576
 31
0.0
  0
LINE
  5
75C
  8
0
 10
114.0
 20
156.52225100000001
 30
0.0
 11
114.5
 21
156.233576
 31
0.0
  0
LINE
  5
75D
  8
0
 10
114.5
 20
156.233576
 30
0.0
 11
114.5
 21
143.92225099999999
 31
0.0
  0
LINE
  5
75E
  8
0
 10
96.0
 20
156.52225100000001
 30
0.0
 11
114.0
 21
156.52225100000001
 31
0.0
  0
LINE
  5
75F
  8
0
 10
105.0
 20
155.38507000000001
 30
0.0
 11
105.0
 21
143.52225100000001
 31
0.0
  0
LINE
  5
760
  8
0
 10
95.5
 20
156.233576
 30
0.0
 11
95.5
 21
143.92225099999999
 31
0.0
  0
ARC
  5
761
  8
0
 10
105.0
 20
167.55926299999999
 30
0.0
 40
30.0
 50
293.27163334490967
 51
295.67928899999879
  0
LINE
  5
762
  8
0
 10
118.0
 20
143.02225100000001
 30
0.0
 11
118.0
 21
140.52225100000001
 31
0.0
  0
LINE
  5
763
  8
0
 10
117.5
 20
143.52225100000001
 30
0.0
 11
118.0
 21
143.02225100000001
 31
0.0
  0
ARC
  5
764
  8
0
 10
95.099999999999966
 20
143.92225099999999
 30
0.0
 40
0.4
 50
270.0
 51
0.0
  0
ARC
  5
765
  8
0
 10
105.0
 20
167.55926299999999
 30
0.0
 40
30.0
 50
244.3207110000013
 51
246.72836665509021
  0
LINE
  5
766
  8
0
 10
118.0
 20
140.52225100000001
 30
0.0
 11
92.0
 21
140.52225100000001
 31
0.0
  0
LINE
  5
767
  8
0
 10
92.0
 20
143.02225100000001
 30
0.0
 11
92.0
 21
140.52225100000001
 31
0.0
  0
LINE
  5
768
  8
0
 10
92.5
 20
143.52225100000001
 30
0.0
 11
92.0
 21
143.02225100000001
 31
0.0
  0
LINE
  5
769
  8
0
 10
92.5
 20
143.52225100000001
 30
0.0
 11
117.5
 21
143.52225100000001
 31
0.0
  0
LINE
  5
772
  8
0
 10
94.0
 20
120.0
 30
0.0
 11
116.0
 21
120.0
 31
0.0
  0
LINE
  5
773
  8
0
 10
116.0
 20
120.0
 30
0.0
 11
117.0
 21
119.42265
 31
0.0
  0
LINE
  5
774
  8
0
 10
117.0
 20
119.13397500000001
 30
0.0
 11
115.960155
 21
119.13397500000001
 31
0.0
  0
ARC
  5
775
  8
0
 10
113.485281
 20
108.669501
 30
0.0
 40
10.753149000000001
 50
76.693897000000874
 51
103.3061029999991
  0
LINE
  5
776
  8
0
 10
111.010408
 20
119.13397500000001
 30
0.0
 11
111.0
 21
119.13397500000001
 31
0.0
  0
LINE
  5
777
  8
0
 10
99.0
 20
119.13397500000001
 30
0.0
 11
98.989592000000016
 21
119.13397500000001
 31
0.0
  0
LINE
  5
778
  8
0
 10
98.989592000000016
 20
119.13397500000001
 30
0.0
 11
99.0
 21
119.13397500000001
 31
0.0
  0
ARC
  5
779
  8
0
 10
96.514719000000014
 20
108.669501
 30
0.0
 40
10.753149000000001
 50
76.693897000000874
 51
103.3061029999991
  0
LINE
  5
77A
  8
0
 10
93.0
 20
119.13397500000001
 30
0.0
 11
94.039845000000014
 21
119.13397500000001
 31
0.0
  0
LINE
  5
77B
  8
0
 10
94.0
 20
120.0
 30
0.0
 11
93.0
 21
119.42265
 31
0.0
  0
LINE
  5
77C
  8
0
 10
94.039845000000014
 20
119.13397500000001
 30
0.0
 11
93.0
 21
119.13397500000001
 31
0.0
  0
LINE
  5
77D
  8
0
 10
94.039845000000014
 20
110.86602499999999
 30
0.0
 11
93.0
 21
110.86602499999999
 31
0.0
  0
LINE
  5
77E
  8
0
 10
98.989592000000016
 20
110.86602499999999
 30
0.0
 11
98.989592000000016
 21
119.13397500000001
 31
0.0
  0
LINE
  5
77F
  8
0
 10
93.0
 20
110.57735
 30
0.0
 11
93.0
 21
119.42265
 31
0.0
  0
LINE
  5
780
  8
0
 10
94.039845000000014
 20
110.86602499999999
 30
0.0
 11
94.039845000000014
 21
119.13397500000001
 31
0.0
  0
LINE
  5
781
  8
0
 10
94.0
 20
110.0
 30
0.0
 11
93.0
 21
110.57735
 31
0.0
  0
LINE
  5
782
  8
0
 10
93.0
 20
110.86602499999999
 30
0.0
 11
94.039845000000014
 21
110.86602499999999
 31
0.0
  0
ARC
  5
783
  8
0
 10
96.514719000000014
 20
121.330499
 30
0.0
 40
10.753149000000001
 50
256.6938970000009
 51
283.3061029999991
  0
LINE
  5
784
  8
0
 10
98.989592000000016
 20
110.86602499999999
 30
0.0
 11
99.0
 21
110.86602499999999
 31
0.0
  0
LINE
  5
785
  8
0
 10
99.0
 20
110.86602499999999
 30
0.0
 11
98.989592000000016
 21
110.86602499999999
 31
0.0
  0
LINE
  5
786
  8
0
 10
111.010408
 20
110.86602499999999
 30
0.0
 11
111.0
 21
110.86602499999999
 31
0.0
  0
ARC
  5
787
  8
0
 10
113.485281
 20
121.330499
 30
0.0
 40
10.753149000000001
 50
256.6938970000009
 51
283.3061029999991
  0
LINE
  5
788
  8
0
 10
117.0
 20
110.86602499999999
 30
0.0
 11
115.960155
 21
110.86602499999999
 31
0.0
  0
LINE
  5
789
  8
0
 10
115.960155
 20
110.86602499999999
 30
0.0
 11
115.960155
 21
119.13397500000001
 31
0.0
  0
LINE
  5
78A
  8
0
 10
116.0
 20
110.0
 30
0.0
 11
117.0
 21
110.57735
 31
0.0
  0
LINE
  5
78B
  8
0
 10
111.010408
 20
110.86602499999999
 30
0.0
 11
111.010408
 21
119.13397500000001
 31
0.0
  0
LINE
  5
78C
  8
0
 10
117.0
 20
110.57735
 30
0.0
 11
117.0
 21
119.42265
 31
0.0
  0
LINE
  5
78D
  8
0
 10
94.0
 20
110.0
 30
0.0
 11
99.0
 21
109.9999999999999
 31
0.0
  0
LINE
  5
78E
  8
0
 10
111.0
 20
109.9999999999999
 30
0.0
 11
115.960155
 21
110.0
 31
0.0
  0
LINE
  5
78F
  8
0
 10
279.0
 20
156.52225100000001
 30
0.0
 11
279.0
 21
174.0
 31
0.0
  0
LINE
  5
790
  8
0
 10
281.0
 20
176.0
 30
0.0
 11
289.0
 21
176.0
 31
0.0
  0
LINE
  5
791
  8
0
 10
291.00000000000011
 20
174.0
 30
0.0
 11
291.00000000000011
 21
156.52225100000001
 31
0.0
  0
LINE
  5
792
  8
0
 10
279.0
 20
174.0
 30
0.0
 11
281.0
 21
176.0
 31
0.0
  0
LINE
  5
793
  8
0
 10
291.00000000000011
 20
174.0
 30
0.0
 11
289.0
 21
176.0
 31
0.0
  0
LINE
  5
794
  8
3
 10
290.10000000000002
 20
156.52225100000001
 30
0.0
 11
290.10000000000002
 21
174.90000000000001
 31
0.0
  0
LINE
  5
795
  8
3
 10
279.89999999999998
 20
156.52225100000001
 30
0.0
 11
279.89999999999992
 21
174.90000000000001
 31
0.0
  0
LINE
  5
796
  8
0
 10
279.0
 20
174.0
 30
0.0
 11
291.00000000000011
 21
174.0
 31
0.0
  0
LINE
  5
7A1
  8
0
 10
289.0
 20
51.0
 30
0.0
 11
281.0
 21
51.0
 31
0.0
  0
LINE
  5
7A2
  8
0
 10
279.0
 20
53.0
 30
0.0
 11
279.0
 21
54.0
 31
0.0
  0
LINE
  5
7A3
  8
0
 10
291.00000000000011
 20
54.0
 30
0.0
 11
291.00000000000011
 21
53.0
 31
0.0
  0
LINE
  5
7A4
  8
0
 10
289.0
 20
51.0
 30
0.0
 11
291.00000000000011
 21
53.0
 31
0.0
  0
LINE
  5
7A5
  8
0
 10
281.0
 20
51.0
 30
0.0
 11
279.0
 21
53.0
 31
0.0
  0
LINE
  5
7A6
  8
0
 10
279.0
 20
53.0
 30
0.0
 11
280.00000000000011
 21
53.0
 31
0.0
  0
LINE
  5
7A7
  8
3
 10
279.9000000000002
 20
53.099999999999937
 30
0.0
 11
279.9000000000002
 21
52.099999999999987
 31
0.0
  0
LINE
  5
7A8
  8
3
 10
290.10000000000002
 20
53.099999999999881
 30
0.0
 11
290.10000000000002
 21
52.099999999999987
 31
0.0
  0
LINE
  5
7AC
  8
0
 10
290.00000000000011
 20
53.0
 30
0.0
 11
291.00000000000011
 21
53.0
 31
0.0
  0
LINE
  5
820
  8
3
 10
99.0
 20
92.558845999999988
 30
0.0
 11
99.900000000000034
 21
91.0
 31
0.0
  0
LINE
  5
821
  8
3
 10
99.900000000000034
 20
91.0
 30
0.0
 11
99.900000000000034
 21
82.000000000000014
 31
0.0
  0
LINE
  5
822
  8
0
 10
99.0
 20
91.0
 30
0.0
 11
111.0
 21
91.0
 31
0.0
  0
LINE
  5
823
  8
3
 10
111.0
 20
92.558845999999988
 30
0.0
 11
110.09999999999989
 21
91.0
 31
0.0
  0
LINE
  5
824
  8
3
 10
110.09999999999989
 20
91.0
 30
0.0
 11
110.09999999999989
 21
82.000000000000014
 31
0.0
  0
LINE
  5
825
  8
3
 10
184.0
 20
92.558845999999988
 30
0.0
 11
184.90000000000001
 21
91.0
 31
0.0
  0
LINE
  5
826
  8
3
 10
184.90000000000001
 20
91.0
 30
0.0
 11
184.90000000000001
 21
82.000000000000014
 31
0.0
  0
LINE
  5
827
  8
0
 10
184.0
 20
91.0
 30
0.0
 11
196.0
 21
91.0
 31
0.0
  0
LINE
  5
828
  8
3
 10
196.0
 20
92.558845999999988
 30
0.0
 11
195.09999999999991
 21
91.0
 31
0.0
  0
LINE
  5
829
  8
3
 10
195.09999999999991
 20
91.0
 30
0.0
 11
195.09999999999991
 21
82.000000000000014
 31
0.0
  0
TEXT
  5
88D
  8
0
 62
     3
 10
0.0
 20
0.0
 30
0.0
 40
10.0
  1
BJ156-12063A2
  7
STANDARD1
  0
ENDSEC
  0
EOF
