  0
SECTION
  2
HEADER
  9
$ACADVER
  1
AC1009
  9
$INSBASE
 10
82.638099999999994
 20
103.82319099999999
 30
0.0
  9
$EXTMIN
 10
0.0
 20
-2.960436562073669
 30
0.0
  9
$EXTMAX
 10
277.5
 20
236.0
 30
0.0
  9
$LIMMIN
 10
0.0
 20
0.0
  9
$LIMMAX
 10
375.0
 20
270.0
  9
$ORTHOMODE
 70
     1
  9
$REGENMODE
 70
     1
  9
$FILLMODE
 70
     1
  9
$QTEXTMODE
 70
     0
  9
$MIRRTEXT
 70
     0
  9
$DRAGMODE
 70
     2
  9
$LTSCALE
 40
10.0
  9
$OSMODE
 70
  3071
  9
$ATTMODE
 70
     1
  9
$TEXTSIZE
 40
0.06
  9
$TRACEWID
 40
0.05
  9
$TEXTSTYLE
  7
STANDARD
  9
$CLAYER
  8
0
  9
$CELTYPE
  6
BYLAYER
  9
$CECOLOR
 62
   256
  9
$DIMSCALE
 40
1.0
  9
$DIMASZ
 40
3.0
  9
$DIMEXO
 40
2.0
  9
$DIMDLI
 40
10.0
  9
$DIMRND
 40
0.0
  9
$DIMDLE
 40
0.0
  9
$DIMEXE
 40
2.0
  9
$DIMTP
 40
0.0
  9
$DIMTM
 40
0.0
  9
$DIMTXT
 40
3.0
  9
$DIMCEN
 40
0.0
  9
$DIMTSZ
 40
0.0
  9
$DIMTOL
 70
     0
  9
$DIMLIM
 70
     0
  9
$DIMTIH
 70
     0
  9
$DIMTOH
 70
     0
  9
$DIMSE1
 70
     0
  9
$DIMSE2
 70
     0
  9
$DIMTAD
 70
     1
  9
$DIMZIN
 70
     0
  9
$DIMBLK
  1

  9
$DIMASO
 70
     0
  9
$DIMSHO
 70
     0
  9
$DIMPOST
  1

  9
$DIMAPOST
  1

  9
$DIMALT
 70
     0
  9
$DIMALTD
 70
     2
  9
$DIMALTF
 40
25.399999999999999
  9
$DIMLFAC
 40
1.0
  9
$DIMTOFL
 70
     1
  9
$DIMTVP
 40
1.6000000000000001
  9
$DIMTIX
 70
     1
  9
$DIMSOXD
 70
     0
  9
$DIMSAH
 70
     0
  9
$DIMBLK1
  1

  9
$DIMBLK2
  1

  9
$DIMSTYLE
  2
STANDARD
  9
$DIMCLRD
 70
     0
  9
$DIMCLRE
 70
     0
  9
$DIMCLRT
 70
     0
  9
$DIMTFAC
 40
1.0
  9
$DIMGAP
 40
0.09
  9
$LUNITS
 70
     2
  9
$LUPREC
 70
     4
  9
$SKETCHINC
 40
0.1
  9
$FILLETRAD
 40
0.0
  9
$AUNITS
 70
     0
  9
$AUPREC
 70
     4
  9
$MENU
  1
E:\r13\win\SUPPORT\ACAD
  9
$ELEVATION
 40
0.0
  9
$PELEVATION
 40
0.0
  9
$THICKNESS
 40
0.0
  9
$LIMCHECK
 70
     0
  9
$BLIPMODE
 70
     0
  9
$CHAMFERA
 40
0.0
  9
$CHAMFERB
 40
0.0
  9
$SKPOLY
 70
     0
  9
$TDCREATE
 40
2449840.3487847219
  9
$TDUPDATE
 40
2456597.6468841671
  9
$TDINDWG
 40
0.0001048495
  9
$TDUSRTIMER
 40
0.0001048495
  9
$USRTIMER
 70
     1
  9
$ANGBASE
 50
0.0
  9
$ANGDIR
 70
     0
  9
$PDMODE
 70
     1
  9
$PDSIZE
 40
0.0
  9
$PLINEWID
 40
0.0
  9
$COORDS
 70
     1
  9
$SPLFRAME
 70
     0
  9
$SPLINETYPE
 70
     6
  9
$SPLINESEGS
 70
     8
  9
$ATTDIA
 70
     0
  9
$ATTREQ
 70
     1
  9
$HANDLING
 70
     1
  9
$HANDSEED
  5
35E
  9
$SURFTAB1
 70
     6
  9
$SURFTAB2
 70
     6
  9
$SURFTYPE
 70
     6
  9
$SURFU
 70
     6
  9
$SURFV
 70
     6
  9
$UCSNAME
  2

  9
$UCSORG
 10
0.0
 20
0.0
 30
0.0
  9
$UCSXDIR
 10
1.0
 20
0.0
 30
0.0
  9
$UCSYDIR
 10
0.0
 20
1.0
 30
0.0
  9
$PUCSNAME
  2

  9
$PUCSORG
 10
0.0
 20
0.0
 30
0.0
  9
$PUCSXDIR
 10
1.0
 20
0.0
 30
0.0
  9
$PUCSYDIR
 10
0.0
 20
1.0
 30
0.0
  9
$USERI1
 70
     3
  9
$USERI2
 70
     1
  9
$USERI3
 70
     0
  9
$USERI4
 70
     0
  9
$USERI5
 70
     0
  9
$USERR1
 40
1.0
  9
$USERR2
 40
3.0
  9
$USERR3
 40
3.0
  9
$USERR4
 40
3.0
  9
$USERR5
 40
10.0
  9
$WORLDVIEW
 70
     1
  9
$SHADEDGE
 70
     3
  9
$SHADEDIF
 70
    70
  9
$TILEMODE
 70
     1
  9
$MAXACTVP
 70
    16
  9
$PLIMCHECK
 70
     0
  9
$PEXTMIN
 10
1.0000000000000000E+020
 20
1.0000000000000000E+020
 30
1.0000000000000000E+020
  9
$PEXTMAX
 10
-1.0000000000000000E+020
 20
-1.0000000000000000E+020
 30
-1.0000000000000000E+020
  9
$PLIMMIN
 10
0.0
 20
0.0
  9
$PLIMMAX
 10
12.0
 20
9.0
  9
$UNITMODE
 70
     0
  9
$VISRETAIN
 70
     0
  9
$PLINEGEN
 70
     0
  9
$PSLTSCALE
 70
     0
  0
ENDSEC
  0
SECTION
  2
TABLES
  0
TABLE
  2
VPORT
 70
     1
  0
VPORT
  2
*ACTIVE
 70
     0
 10
0.0
 20
0.0
 11
1.0
 21
1.0
 12
195.0581083320873
 22
133.5127261426681
 13
0.0
 23
0.0
 14
5.0
 24
5.0
 15
10.0
 25
10.0
 16
0.0
 26
0.0
 36
1.0
 17
0.0
 27
0.0
 37
0.0
 40
275.42274993631997
 41
1.831871345029239
 42
50.0
 43
0.0
 44
0.0
 50
0.0
 51
0.0
 71
     0
 72
   100
 73
     1
 74
     0
 75
     0
 76
     0
 77
     0
 78
     0
  0
ENDTAB
  0
TABLE
  2
LTYPE
 70
     4
  0
LTYPE
  2
CONTINUOUS
 70
     0
  3
Solid Line
 72
    65
 73
     0
 40
0.0
  0
LTYPE
  2
CENTER
 70
     0
  3
____ _ ____ _ ____ _ ____ _ ____ _ ____ _ ____
 72
    65
 73
     4
 40
2.0
 49
1.25
 49
-0.25
 49
0.25
 49
-0.25
  0
LTYPE
  2
HIDDEN
 70
     0
  3
__ __ __ __ __ __ __ __ __ __ __ __ __ __ __ __
 72
    65
 73
     2
 40
0.375
 49
0.25
 49
-0.125
  0
LTYPE
  2
PHANTOM2
 70
     0
  3
___ _ _ ___ _ _ ___ _ _ ___ _ _
 72
    65
 73
     6
 40
1.25
 49
0.625
 49
-0.125
 49
0.125
 49
-0.125
 49
0.125
 49
-0.125
  0
ENDTAB
  0
TABLE
  2
LAYER
 70
     4
  0
LAYER
  2
0
 70
     0
 62
     7
  6
CONTINUOUS
  0
LAYER
  2
1
 70
     0
 62
     1
  6
CENTER
  0
LAYER
  2
2
 70
     0
 62
     2
  6
HIDDEN
  0
LAYER
  2
3
 70
     0
 62
     3
  6
CONTINUOUS
  0
ENDTAB
  0
TABLE
  2
STYLE
 70
     2
  0
STYLE
  2
STANDARD
 70
     0
 40
0.0
 41
1.0
 50
0.0
 71
     0
 42
0.06
  3
TXT
  4
BIGFONT
  0
STYLE
  2
STANDARD1
 70
     0
 40
0.0
 41
1.0
 50
0.0
 71
     0
 42
3.0
  3
txt
  4

  0
ENDTAB
  0
TABLE
  2
VIEW
 70
     0
  0
ENDTAB
  0
TABLE
  2
UCS
 70
     0
  0
ENDTAB
  0
TABLE
  2
APPID
 70
     3
  0
APPID
  2
ACAD
 70
     0
  0
APPID
  2
ACAD_MLEADERVER
 70
     0
  0
APPID
  2
ACAD_NAV_VCDISPLAY
 70
     0
  0
ENDTAB
  0
TABLE
  2
DIMSTYLE
 70
     1
  0
DIMSTYLE
  2
STANDARD
 70
     0
  3

  4

  5

  6

  7

 40
1.0
 41
0.18
 42
0.0625
 43
0.38
 44
0.18
 45
0.0
 46
0.0
 47
0.0
 48
0.0
140
0.18
141
0.09
142
0.0
143
25.399999999999999
144
1.0
145
0.0
146
1.0
147
0.09
 71
     0
 72
     0
 73
     1
 74
     1
 75
     0
 76
     0
 77
     0
 78
     0
170
     0
171
     2
172
     0
173
     0
174
     0
175
     0
176
     0
177
     0
178
     0
  0
ENDTAB
  0
ENDSEC
  0
SECTION
  2
BLOCKS
  0
BLOCK
  8
0
  2
$MODEL_SPACE
 70
     0
 10
0.0
 20
0.0
 30
0.0
  3
$MODEL_SPACE
  1

  0
ENDBLK
  5
216
  8
0
  0
BLOCK
 67
     1
  8
0
  2
$PAPER_SPACE
 70
     0
 10
0.0
 20
0.0
 30
0.0
  3
$PAPER_SPACE
  1

  0
ENDBLK
  5
214
 67
     1
  8
0
  0
BLOCK
  8
0
  2
STDGX5
 70
     0
 10
0.0
 20
0.0
 30
0.0
  3
STDGX5
  1

  0
ENDBLK
  5
3F
  8
0
  0
BLOCK
  8
0
  2
B739118B
 70
     0
 10
0.0
 20
0.0
 30
0.0
  3
B739118B
  1

  0
INSERT
  5
4C
  8
0
  2
742B01B2
 10
0.0
 20
0.0
 30
0.0
  0
INSERT
  5
4D
  8
0
  2
B741118B
 10
0.0
 20
2.0282459999999989
 30
0.0
  0
ENDBLK
  5
4E
  8
0
  0
BLOCK
  8
0
  2
742B01B2
 70
     0
 10
85.0
 20
96.726104000000007
 30
0.0
  3
742B01B2
  1

  0
LINE
  5
50
  8
1
 10
85.0
 20
103.22610400000001
 30
0.0
 11
85.0
 21
93.726104000000007
 31
0.0
  0
LINE
  5
51
  8
2
 10
79.0
 20
98.679231000000001
 30
0.0
 11
91.0
 21
98.679231000000001
 31
0.0
  0
LINE
  5
52
  8
2
 10
79.0
 20
97.226104000000007
 30
0.0
 11
91.0
 21
97.226104000000007
 31
0.0
  0
LINE
  5
53
  8
2
 10
79.0
 20
97.226104000000007
 30
0.0
 11
78.5
 21
96.726104000000007
 31
0.0
  0
LINE
  5
54
  8
2
 10
79.0
 20
97.226104000000007
 30
0.0
 11
79.0
 21
98.679231000000001
 31
0.0
  0
LINE
  5
55
  8
2
 10
74.75
 20
100.22610400000001
 30
0.0
 11
79.0
 21
98.679231000000001
 31
0.0
  0
LINE
  5
56
  8
2
 10
91.0
 20
97.226104000000007
 30
0.0
 11
91.5
 21
96.726104000000007
 31
0.0
  0
LINE
  5
57
  8
2
 10
95.25
 20
100.22610400000001
 30
0.0
 11
91.0
 21
98.679231000000001
 31
0.0
  0
LINE
  5
58
  8
2
 10
91.0
 20
97.226104000000007
 30
0.0
 11
91.0
 21
98.679231000000001
 31
0.0
  0
LINE
  5
59
  8
0
 10
74.0
 20
99.726104000000007
 30
0.0
 11
74.5
 21
100.22610400000001
 31
0.0
  0
LINE
  5
5A
  8
0
 10
74.5
 20
96.726104000000007
 30
0.0
 11
74.0
 21
97.226104000000007
 31
0.0
  0
LINE
  5
5B
  8
0
 10
96.0
 20
99.726104000000007
 30
0.0
 11
95.5
 21
100.22610400000001
 31
0.0
  0
LINE
  5
5C
  8
0
 10
95.5
 20
96.726104000000007
 30
0.0
 11
96.0
 21
97.226104000000007
 31
0.0
  0
LINE
  5
5D
  8
0
 10
74.0
 20
97.226104000000007
 30
0.0
 11
74.0
 21
99.726104000000007
 31
0.0
  0
LINE
  5
5E
  8
0
 10
95.5
 20
96.726104000000007
 30
0.0
 11
74.5
 21
96.726104000000007
 31
0.0
  0
LINE
  5
5F
  8
0
 10
96.0
 20
99.726104000000007
 30
0.0
 11
96.0
 21
97.226104000000007
 31
0.0
  0
LINE
  5
60
  8
0
 10
74.5
 20
100.22610400000001
 30
0.0
 11
95.5
 21
100.22610400000001
 31
0.0
  0
ENDBLK
  5
61
  8
0
  0
BLOCK
  8
0
  2
B741118B
 70
     0
 10
0.0
 20
0.0
 30
0.0
  3
B741118B
  1

  0
LINE
  5
63
  8
0
 10
11.0
 20
3.5
 30
0.0
 11
11.0
 21
1.8999999999999999
 31
0.0
  0
LINE
  5
64
  8
0
 10
4.7750000000000004
 20
14.105107
 30
0.0
 11
4.7750000000000004
 21
4.0
 31
0.0
  0
ARC
  5
65
  8
0
 10
0.0
 20
1.81325
 30
0.0
 40
13.18675
 50
68.770417000000009
 51
90.0
  0
ARC
  5
66
  8
0
 10
7.1624999999999988
 20
11.375
 30
0.0
 40
3.6267949999999991
 50
71.16995
 51
131.16995
  0
ARC
  5
67
  8
0
 10
0.0
 20
24.349944000000001
 30
0.0
 40
25.0
 50
243.896119
 51
256.90551299999998
  0
ARC
  5
68
  8
0
 10
0.0
 20
24.349944000000001
 30
0.0
 40
25.0
 50
283.09448700000002
 51
296.103881
  0
LINE
  5
69
  8
0
 10
11.0
 20
1.8999999999999999
 30
0.0
 11
-11.0
 21
1.8999999999999999
 31
0.0
  0
LINE
  5
6A
  8
0
 10
9.5500000000000007
 20
14.105107
 30
0.0
 11
9.5500000000000007
 21
4.4000000000000004
 31
0.0
  0
LINE
  5
6B
  8
0
 10
5.6639400000000002
 20
0.0
 30
0.0
 11
-5.6639400000000002
 21
0.0
 31
0.0
  0
LINE
  5
6C
  8
0
 10
9.5500000000000007
 20
14.105107
 30
0.0
 11
8.0
 21
15.0
 31
0.0
  0
LINE
  5
6D
  8
0
 10
-9.5500000000000007
 20
14.105107
 30
0.0
 11
-8.0
 21
15.0
 31
0.0
  0
ARC
  5
6E
  8
0
 10
-7.1624999999999988
 20
11.375
 30
0.0
 40
3.6267949999999991
 50
48.83005
 51
108.83005
  0
ARC
  5
6F
  8
0
 10
-7.1624999999999988
 20
11.375
 30
0.0
 40
3.6267949999999991
 50
131.16995
 51
131.16995
  0
ARC
  5
70
  8
0
 10
0.0
 20
1.81325
 30
0.0
 40
13.18675
 50
90.0
 51
111.22958300000001
  0
LINE
  5
71
  8
0
 10
8.0
 20
15.0
 30
0.0
 11
-8.0
 21
15.0
 31
0.0
  0
LINE
  5
72
  8
0
 10
-4.7750000000000004
 20
14.105107
 30
0.0
 11
-4.7750000000000004
 21
4.0
 31
0.0
  0
LINE
  5
73
  8
0
 10
-9.5500000000000007
 20
14.105107
 30
0.0
 11
-9.5500000000000007
 21
4.4382190000000001
 31
0.0
  0
ARC
  5
74
  8
0
 10
9.9499999999999993
 20
4.4000000000000004
 30
0.0
 40
0.4
 50
180.0
 51
270.0
  0
LINE
  5
75
  8
0
 10
10.5
 20
4.0
 30
0.0
 11
11.0
 21
3.5
 31
0.0
  0
ARC
  5
76
  8
0
 10
-9.9499999999999993
 20
4.4000000000000004
 30
0.0
 40
0.4
 50
270.0
 51
360.0
  0
LINE
  5
77
  8
0
 10
-11.0
 20
3.5
 30
0.0
 11
-11.0
 21
1.8999999999999999
 31
0.0
  0
LINE
  5
78
  8
0
 10
-10.5
 20
4.0
 30
0.0
 11
-11.0
 21
3.5
 31
0.0
  0
LINE
  5
79
  8
0
 10
-10.5
 20
4.0
 30
0.0
 11
10.5
 21
4.0
 31
0.0
  0
LINE
  5
7A
  8
1
 10
0.0
 20
-5.0
 30
0.0
 11
0.0
 21
20.0
 31
0.0
  0
ENDBLK
  5
7B
  8
0
  0
BLOCK
  8
0
  2
B739118C
 70
     0
 10
0.0
 20
0.0
 30
0.0
  3
B739118C
  1

  0
INSERT
  5
7D
  8
0
  2
742B01B2
 10
0.0
 20
0.0
 30
0.0
  0
INSERT
  5
7E
  8
0
  2
B741118C
 10
0.0
 20
2.0282459999999989
 30
0.0
  0
ENDBLK
  5
7F
  8
0
  0
BLOCK
  8
0
  2
B741118C
 70
     0
 10
0.0
 20
0.0
 30
0.0
  3
B741118C
  1

  0
LINE
  5
81
  8
1
 10
0.0
 20
-5.0
 30
0.0
 11
0.0
 21
20.0
 31
0.0
  0
LINE
  5
82
  8
0
 10
8.5
 20
14.550000000000001
 30
0.0
 11
8.5
 21
4.4000000000000004
 31
0.0
  0
ARC
  5
83
  8
0
 10
8.9000000000000004
 20
4.4000000000000004
 30
0.0
 40
0.4
 50
180.0
 51
270.0
  0
LINE
  5
84
  8
0
 10
0.0
 20
14.096473
 30
0.0
 11
0.0
 21
4.0
 31
0.0
  0
LINE
  5
85
  8
0
 10
-8.5
 20
14.550000000000001
 30
0.0
 11
-8.5
 21
4.4000000000000004
 31
0.0
  0
LINE
  5
86
  8
0
 10
8.0500000000000007
 20
15.0
 30
0.0
 11
-8.0500000000000007
 21
15.0
 31
0.0
  0
LINE
  5
87
  8
0
 10
-8.0500000000000007
 20
15.0
 30
0.0
 11
-8.5
 21
14.550000000000001
 31
0.0
  0
LINE
  5
88
  8
0
 10
8.5
 20
14.550000000000001
 30
0.0
 11
8.0500000000000007
 21
15.0
 31
0.0
  0
ARC
  5
89
  8
0
 10
-4.25
 20
4.5526849999999994
 30
0.0
 40
10.447315
 50
65.995831999999993
 51
114.00416800000001
  0
ARC
  5
8A
  8
0
 10
4.25
 20
4.5526849999999994
 30
0.0
 40
10.447315
 50
65.995831999999993
 51
114.00416800000001
  0
LINE
  5
8B
  8
0
 10
0.0
 20
14.096473
 30
0.0
 11
0.0
 21
9.9035270000000004
 31
0.0
  0
ARC
  5
8C
  8
0
 10
-8.9000000000000004
 20
4.4000000000000004
 30
0.0
 40
0.4
 50
270.0
 51
360.0
  0
LINE
  5
8D
  8
0
 10
-10.5
 20
4.0
 30
0.0
 11
10.5
 21
4.0
 31
0.0
  0
LINE
  5
8E
  8
0
 10
-10.5
 20
4.0
 30
0.0
 11
-11.0
 21
3.5
 31
0.0
  0
LINE
  5
8F
  8
0
 10
-11.0
 20
3.5
 30
0.0
 11
-11.0
 21
1.8999999999999999
 31
0.0
  0
LINE
  5
90
  8
0
 10
10.5
 20
4.0
 30
0.0
 11
11.0
 21
3.5
 31
0.0
  0
LINE
  5
91
  8
0
 10
5.6639400000000002
 20
0.0
 30
0.0
 11
-5.6639400000000002
 21
0.0
 31
0.0
  0
LINE
  5
92
  8
0
 10
11.0
 20
1.8999999999999999
 30
0.0
 11
-11.0
 21
1.8999999999999999
 31
0.0
  0
ARC
  5
93
  8
0
 10
0.0
 20
24.349944000000001
 30
0.0
 40
25.0
 50
283.09448700000002
 51
296.103881
  0
ARC
  5
94
  8
0
 10
0.0
 20
24.349944000000001
 30
0.0
 40
25.0
 50
243.896119
 51
256.90551299999998
  0
LINE
  5
95
  8
0
 10
11.0
 20
3.5
 30
0.0
 11
11.0
 21
1.8999999999999999
 31
0.0
  0
ENDBLK
  5
96
  8
0
  0
BLOCK
  8
0
  2
B740118A
 70
     0
 10
0.0
 20
0.0
 30
0.0
  3
B740118A
  1

  0
CIRCLE
  5
98
  8
0
 10
0.0
 20
0.0
 30
0.0
 40
4.25
  0
CIRCLE
  5
99
  8
3
 10
0.0
 20
0.0
 30
0.0
 40
5.0
  0
LINE
  5
9A
  8
0
 10
9.5379389999999997
 20
-0.4798040000000001
 30
0.0
 11
5.1844919999999988
 21
-8.0201960000000003
 31
0.0
  0
ARC
  5
9B
  8
0
 10
0.0
 20
0.0
 30
0.0
 40
9.5500000000000007
 50
357.12017300000002
 51
2.8798270000000001
  0
ARC
  5
9C
  8
0
 10
0.0
 20
0.0
 30
0.0
 40
9.5500000000000007
 50
57.120173000000001
 51
62.879826999999999
  0
LINE
  5
9D
  8
0
 10
5.1844919999999988
 20
8.0201960000000003
 30
0.0
 11
9.5379389999999997
 21
0.4798040000000001
 31
0.0
  0
ARC
  5
9E
  8
0
 10
0.0
 20
0.0
 30
0.0
 40
9.5500000000000007
 50
117.12017299999999
 51
122.87982700000001
  0
LINE
  5
9F
  8
0
 10
-4.3534470000000001
 20
8.5
 30
0.0
 11
4.3534470000000001
 21
8.5
 31
0.0
  0
ARC
  5
A0
  8
0
 10
0.0
 20
0.0
 30
0.0
 40
9.5500000000000007
 50
177.12017299999999
 51
182.87982700000001
  0
LINE
  5
A1
  8
0
 10
-9.5379389999999997
 20
0.4798040000000001
 30
0.0
 11
-5.1844919999999988
 21
8.0201960000000003
 31
0.0
  0
ARC
  5
A2
  8
0
 10
0.0
 20
0.0
 30
0.0
 40
9.5500000000000007
 50
237.12017299999999
 51
242.87982700000001
  0
LINE
  5
A3
  8
0
 10
-5.1844919999999988
 20
-8.0201960000000003
 30
0.0
 11
-9.5379389999999997
 21
-0.4798040000000001
 31
0.0
  0
ARC
  5
A4
  8
0
 10
0.0
 20
0.0
 30
0.0
 40
9.5500000000000007
 50
297.12017300000002
 51
302.87982699999998
  0
LINE
  5
A5
  8
0
 10
4.3534470000000001
 20
-8.5
 30
0.0
 11
-4.3534470000000001
 21
-8.5
 31
0.0
  0
CIRCLE
  5
A6
  8
0
 10
0.0
 20
0.0
 30
0.0
 40
8.0
  0
CIRCLE
  5
A7
  8
0
 10
0.0
 20
0.0
 30
0.0
 40
11.0
  0
LINE
  5
A8
  8
1
 10
0.0
 20
16.0
 30
0.0
 11
0.0
 21
-16.0
 31
0.0
  0
LINE
  5
A9
  8
1
 10
-16.0
 20
0.0
 30
0.0
 11
16.0
 21
0.0
 31
0.0
  0
ENDBLK
  5
AA
  8
0
  0
BLOCK
  8
0
  2
B746118A
 70
     0
 10
0.0
 20
0.0
 30
0.0
  3
B746118A
  1

  0
LINE
  5
AC
  8
0
 10
-1.4433759999999991
 20
-2.5
 30
0.0
 11
1.4433759999999991
 21
-2.5
 31
0.0
  0
LINE
  5
AD
  8
0
 10
1.4433759999999991
 20
-2.5
 30
0.0
 11
2.886750999999999
 21
0.0
 31
0.0
  0
LINE
  5
AE
  8
0
 10
2.886750999999999
 20
0.0
 30
0.0
 11
1.4433759999999991
 21
2.5
 31
0.0
  0
LINE
  5
AF
  8
0
 10
1.4433759999999991
 20
2.5
 30
0.0
 11
-1.4433759999999991
 21
2.5
 31
0.0
  0
LINE
  5
B0
  8
0
 10
-1.4433759999999991
 20
2.5
 30
0.0
 11
-2.886750999999999
 21
0.0
 31
0.0
  0
LINE
  5
B1
  8
0
 10
-2.886750999999999
 20
0.0
 30
0.0
 11
-1.4433759999999991
 21
-2.5
 31
0.0
  0
LINE
  5
B2
  8
1
 10
0.0
 20
12.5
 30
0.0
 11
0.0
 21
-12.5
 31
0.0
  0
LINE
  5
B3
  8
1
 10
12.5
 20
0.0
 30
0.0
 11
-12.5
 21
0.0
 31
0.0
  0
CIRCLE
  5
B4
  8
0
 10
0.0
 20
0.0
 30
0.0
 40
5.0
  0
CIRCLE
  5
B5
  8
3
 10
0.0
 20
0.0
 30
0.0
 40
4.3235000000000001
  0
CIRCLE
  5
B6
  8
0
 10
0.0
 20
0.0
 30
0.0
 40
7.5
  0
CIRCLE
  5
B7
  8
0
 10
0.0
 20
0.0
 30
0.0
 40
10.0
  0
ENDBLK
  5
B8
  8
0
  0
BLOCK
  8
0
  2
NM10B
 70
     0
 10
0.0
 20
0.0
 30
0.0
  3
NM10B
  1

  0
LINE
  5
BA
  8
0
 10
0.0
 20
8.25
 30
0.0
 11
0.0
 21
-8.25
 31
0.0
  0
LINE
  5
BB
  8
0
 10
-6.0
 20
-8.25
 30
0.0
 11
-6.0
 21
8.25
 31
0.0
  0
ARC
  5
BC
  8
0
 10
-1.5107639999999991
 20
7.3612159999999998
 30
0.0
 40
4.344898999999999
 50
154.38424699999999
 51
214.38424699999999
  0
LINE
  5
BD
  8
0
 10
-5.0964729999999996
 20
9.8149549999999994
 30
0.0
 11
-6.0
 21
8.25
 31
0.0
  0
LINE
  5
BE
  8
0
 10
-0.903527
 20
9.8149549999999994
 30
0.0
 11
0.0
 21
8.25
 31
0.0
  0
ARC
  5
BF
  8
0
 10
-4.489236
 20
7.3612159999999998
 30
0.0
 40
4.344898999999999
 50
325.61575299999998
 51
25.615753000000002
  0
LINE
  5
C0
  8
0
 10
-5.0964729999999996
 20
9.8149549999999994
 30
0.0
 11
-0.903527
 21
9.8149549999999994
 31
0.0
  0
LINE
  5
C1
  8
0
 10
-5.0964729999999996
 20
4.9074770000000001
 30
0.0
 11
-0.903527
 21
4.9074770000000001
 31
0.0
  0
LINE
  5
C2
  8
0
 10
-5.0964729999999996
 20
-4.9074770000000001
 30
0.0
 11
-0.903527
 21
-4.9074770000000001
 31
0.0
  0
LINE
  5
C3
  8
0
 10
-5.0964729999999996
 20
-9.8149549999999994
 30
0.0
 11
-0.903527
 21
-9.8149549999999994
 31
0.0
  0
ARC
  5
C4
  8
0
 10
-16.385148000000001
 20
0.0
 30
0.0
 40
16.24081099999999
 50
342.41204599999998
 51
17.587954
  0
ARC
  5
C5
  8
0
 10
-4.489236
 20
-7.3612159999999998
 30
0.0
 40
4.344898999999999
 50
334.38424700000002
 51
34.384247000000002
  0
LINE
  5
C6
  8
0
 10
-0.903527
 20
-9.8149549999999994
 30
0.0
 11
0.0
 21
-8.25
 31
0.0
  0
LINE
  5
C7
  8
0
 10
-5.0964729999999996
 20
-9.8149549999999994
 30
0.0
 11
-6.0
 21
-8.25
 31
0.0
  0
ARC
  5
C8
  8
0
 10
10.385147999999999
 20
0.0
 30
0.0
 40
16.24081099999999
 50
162.412046
 51
197.587954
  0
ARC
  5
C9
  8
0
 10
-1.5107639999999991
 20
-7.3612159999999998
 30
0.0
 40
4.344898999999999
 50
145.61575300000001
 51
205.61575300000001
  0
ENDBLK
  5
CA
  8
0
  0
BLOCK
  8
0
  2
NM10C
 70
     0
 10
0.0
 20
0.0
 30
0.0
  3
NM10C
  1

  0
ARC
  5
CC
  8
0
 10
4.25
 20
-6.4198440000000003
 30
0.0
 40
12.275506999999999
 50
69.743842000000001
 51
110.256158
  0
LINE
  5
CD
  8
0
 10
8.5
 20
5.8556619999999997
 30
0.0
 11
8.25
 21
6.0
 31
0.0
  0
LINE
  5
CE
  8
0
 10
8.5
 20
0.144338
 30
0.0
 11
8.25
 21
0.0
 31
0.0
  0
ARC
  5
CF
  8
0
 10
4.25
 20
12.419843999999999
 30
0.0
 40
12.275506999999999
 50
249.743842
 51
290.25615800000003
  0
LINE
  5
D0
  8
0
 10
8.5
 20
5.8556619999999997
 30
0.0
 11
8.5
 21
0.144338
 31
0.0
  0
LINE
  5
D1
  8
0
 10
0.0
 20
5.0964729999999996
 30
0.0
 11
0.0
 21
0.903527
 31
0.0
  0
LINE
  5
D2
  8
0
 10
-8.5
 20
5.8556619999999997
 30
0.0
 11
-8.5
 21
0.144338
 31
0.0
  0
LINE
  5
D3
  8
0
 10
-8.5
 20
0.144338
 30
0.0
 11
-8.25
 21
0.0
 31
0.0
  0
ARC
  5
D4
  8
0
 10
-4.25
 20
12.419843999999999
 30
0.0
 40
12.275506999999999
 50
249.743842
 51
290.25615800000003
  0
LINE
  5
D5
  8
0
 10
-8.5
 20
5.8556619999999997
 30
0.0
 11
-8.25
 21
6.0
 31
0.0
  0
ARC
  5
D6
  8
0
 10
-4.25
 20
-6.4198440000000003
 30
0.0
 40
12.275506999999999
 50
69.743842000000001
 51
110.256158
  0
LINE
  5
D7
  8
0
 10
8.25
 20
6.0
 30
0.0
 11
-8.25
 21
6.0
 31
0.0
  0
LINE
  5
D8
  8
0
 10
-8.25
 20
0.0
 30
0.0
 11
8.25
 21
0.0
 31
0.0
  0
ENDBLK
  5
D9
  8
0
  0
BLOCK
  8
0
  2
B745158B
 70
     0
 10
0.0
 20
0.0
 30
0.0
  3
B745158B
  1

  0
LINE
  5
DB
  8
3
 10
-4.25
 20
85.0
 30
0.0
 11
-5.0
 21
83.700962000000004
 31
0.0
  0
LINE
  5
DC
  8
3
 10
4.25
 20
85.0
 30
0.0
 11
5.0
 21
83.700962000000004
 31
0.0
  0
LINE
  5
DD
  8
1
 10
0.0
 20
132.5
 30
0.0
 11
0.0
 21
-7.5
 31
0.0
  0
LINE
  5
DE
  8
0
 10
5.0
 20
85.0
 30
0.0
 11
-5.0
 21
85.0
 31
0.0
  0
LINE
  5
DF
  8
0
 10
-5.0
 20
123.5
 30
0.0
 11
5.0
 21
123.5
 31
0.0
  0
LINE
  5
E0
  8
3
 10
-5.0
 20
67.5
 30
0.0
 11
-5.0
 21
66.200962000000004
 31
0.0
  0
LINE
  5
E1
  8
3
 10
-4.25
 20
85.0
 30
0.0
 11
-4.25
 21
124.25
 31
0.0
  0
LINE
  5
E2
  8
3
 10
4.25
 20
85.0
 30
0.0
 11
4.25
 21
124.25
 31
0.0
  0
LINE
  5
E3
  8
3
 10
4.25
 20
40.0
 30
0.0
 11
5.0
 21
41.299038000000003
 31
0.0
  0
LINE
  5
E4
  8
3
 10
4.25
 20
40.0
 30
0.0
 11
4.25
 21
0.75
 31
0.0
  0
LINE
  5
E5
  8
3
 10
-4.25
 20
40.0
 30
0.0
 11
-5.0
 21
41.299038000000003
 31
0.0
  0
LINE
  5
E6
  8
0
 10
-5.0
 20
1.5
 30
0.0
 11
5.0
 21
1.5
 31
0.0
  0
LINE
  5
E7
  8
3
 10
-4.25
 20
40.0
 30
0.0
 11
-4.25
 21
0.75
 31
0.0
  0
LINE
  5
E8
  8
0
 10
5.0
 20
40.0
 30
0.0
 11
-5.0
 21
40.0
 31
0.0
  0
LINE
  5
E9
  8
0
 10
3.5
 20
125.0
 30
0.0
 11
5.0
 21
123.5
 31
0.0
  0
LINE
  5
EA
  8
0
 10
-5.0
 20
123.5
 30
0.0
 11
-3.5
 21
125.0
 31
0.0
  0
LINE
  5
EB
  8
0
 10
-3.5
 20
0.0
 30
0.0
 11
-5.0
 21
1.5
 31
0.0
  0
LINE
  5
EC
  8
0
 10
3.5
 20
0.0
 30
0.0
 11
5.0
 21
1.5
 31
0.0
  0
LINE
  5
ED
  8
0
 10
5.0
 20
123.5
 30
0.0
 11
5.0
 21
1.5
 31
0.0
  0
LINE
  5
EE
  8
0
 10
-3.5
 20
125.0
 30
0.0
 11
3.5
 21
125.0
 31
0.0
  0
LINE
  5
EF
  8
0
 10
-5.0
 20
1.5
 30
0.0
 11
-5.0
 21
123.5
 31
0.0
  0
LINE
  5
F0
  8
0
 10
3.5
 20
0.0
 30
0.0
 11
-3.5
 21
0.0
 31
0.0
  0
ENDBLK
  5
F1
  8
0
  0
BLOCK
  8
0
  2
B746138B
 70
     0
 10
0.0
 20
0.0
 30
0.0
  3
B746138B
  1

  0
LINE
  5
F3
  8
0
 10
-9.5
 20
5.0
 30
0.0
 11
9.5
 21
5.0
 31
0.0
  0
LINE
  5
F4
  8
0
 10
-9.5
 20
0.0
 30
0.0
 11
9.5
 21
0.0
 31
0.0
  0
LINE
  5
F5
  8
0
 10
7.0
 20
11.0
 30
0.0
 11
-7.0
 21
11.0
 31
0.0
  0
LINE
  5
F6
  8
0
 10
-7.5
 20
10.5
 30
0.0
 11
-7.5
 21
7.0
 31
0.0
  0
LINE
  5
F7
  8
0
 10
-9.5
 20
5.0
 30
0.0
 11
-9.5
 21
5.0
 31
0.0
  0
LINE
  5
F8
  8
0
 10
-10.0
 20
4.5
 30
0.0
 11
-10.0
 21
0.5
 31
0.0
  0
LINE
  5
F9
  8
0
 10
-9.5
 20
0.0
 30
0.0
 11
-10.0
 21
0.5
 31
0.0
  0
LINE
  5
FA
  8
0
 10
-10.0
 20
4.5
 30
0.0
 11
-9.5
 21
5.0
 31
0.0
  0
LINE
  5
FB
  8
0
 10
-7.5
 20
10.5
 30
0.0
 11
-7.0
 21
11.0
 31
0.0
  0
ARC
  5
FC
  8
0
 10
-9.5
 20
7.0
 30
0.0
 40
2.0
 50
270.0
 51
360.0
  0
ARC
  5
FD
  8
0
 10
9.5
 20
7.0
 30
0.0
 40
2.0
 50
180.0
 51
270.0
  0
LINE
  5
FE
  8
0
 10
9.5
 20
5.0
 30
0.0
 11
9.5
 21
5.0
 31
0.0
  0
LINE
  5
FF
  8
0
 10
7.5
 20
10.5
 30
0.0
 11
7.5
 21
7.0
 31
0.0
  0
LINE
  5
100
  8
0
 10
7.5
 20
10.5
 30
0.0
 11
7.0
 21
11.0
 31
0.0
  0
LINE
  5
101
  8
0
 10
10.0
 20
4.5
 30
0.0
 11
9.5
 21
5.0
 31
0.0
  0
LINE
  5
102
  8
0
 10
10.0
 20
4.5
 30
0.0
 11
10.0
 21
0.5
 31
0.0
  0
LINE
  5
103
  8
0
 10
9.5
 20
0.0
 30
0.0
 11
10.0
 21
0.5
 31
0.0
  0
LINE
  5
104
  8
3
 10
-4.1879999999999988
 20
102.878336
 30
0.0
 11
-4.1879999999999988
 21
12.097528000000001
 31
0.0
  0
LINE
  5
105
  8
0
 10
-9.5
 20
4.5663359999999988
 30
0.0
 11
-9.5
 21
4.5663359999999988
 31
0.0
  0
LINE
  5
106
  8
0
 10
9.5
 20
4.5663359999999988
 30
0.0
 11
9.5
 21
4.5663359999999988
 31
0.0
  0
LINE
  5
107
  8
1
 10
0.0
 20
107.56633600000001
 30
0.0
 11
0.0
 21
-4.4336640000000003
 31
0.0
  0
LINE
  5
108
  8
0
 10
-5.0
 20
102.06633600000001
 30
0.0
 11
-5.0
 21
12.566336
 31
0.0
  0
LINE
  5
109
  8
3
 10
4.1879999999999988
 20
102.878336
 30
0.0
 11
4.1879999999999988
 21
12.097528000000001
 31
0.0
  0
ARC
  5
10A
  8
0
 10
-4.0
 20
11.527105000000001
 30
0.0
 40
0.4
 50
0.0
 51
60.0
  0
ARC
  5
10B
  8
0
 10
4.0
 20
11.527105000000001
 30
0.0
 40
0.4
 50
120.0
 51
180.0
  0
LINE
  5
10C
  8
0
 10
3.5499999999999989
 20
11.758046
 30
0.0
 11
-3.5499999999999989
 21
11.758046
 31
0.0
  0
LINE
  5
10D
  8
0
 10
-3.6000000000000001
 20
11.527105000000001
 30
0.0
 11
-3.6000000000000001
 21
11.0
 31
0.0
  0
LINE
  5
10E
  8
0
 10
3.6000000000000001
 20
11.527105000000001
 30
0.0
 11
3.6000000000000001
 21
11.0
 31
0.0
  0
LINE
  5
10F
  8
0
 10
5.0
 20
12.566336
 30
0.0
 11
3.7999999999999989
 21
11.873516
 31
0.0
  0
LINE
  5
110
  8
0
 10
-5.0
 20
12.566336
 30
0.0
 11
-3.7999999999999989
 21
11.873516
 31
0.0
  0
LINE
  5
111
  8
0
 10
5.0
 20
102.06633600000001
 30
0.0
 11
-5.0
 21
102.06633600000001
 31
0.0
  0
LINE
  5
112
  8
0
 10
3.5
 20
103.56633600000001
 30
0.0
 11
5.0
 21
102.06633600000001
 31
0.0
  0
LINE
  5
113
  8
0
 10
-3.5
 20
103.56633600000001
 30
0.0
 11
-5.0
 21
102.06633600000001
 31
0.0
  0
LINE
  5
114
  8
0
 10
5.0
 20
12.566336
 30
0.0
 11
5.0
 21
102.06633600000001
 31
0.0
  0
LINE
  5
115
  8
0
 10
-5.0
 20
12.566336
 30
0.0
 11
5.0
 21
12.566336
 31
0.0
  0
LINE
  5
116
  8
0
 10
3.5
 20
103.56633600000001
 30
0.0
 11
-3.5
 21
103.56633600000001
 31
0.0
  0
ENDBLK
  5
117
  8
0
  0
BLOCK
  8
0
  2
B156118A
 70
     0
 10
0.0
 20
0.0
 30
0.0
  3
B156118A
  1

  0
LINE
  5
119
  8
2
 10
0.0
 20
-5.5
 30
0.0
 11
30.0
 21
-5.5
 31
0.0
  0
LINE
  5
11A
  8
2
 10
0.0
 20
5.5
 30
0.0
 11
30.0
 21
5.5
 31
0.0
  0
LINE
  5
11B
  8
1
 10
20.0
 20
-10.0
 30
0.0
 11
20.0
 21
10.0
 31
0.0
  0
CIRCLE
  5
11C
  8
3
 10
20.0
 20
0.0
 30
0.0
 40
5.0
  0
CIRCLE
  5
11D
  8
0
 10
20.0
 20
0.0
 30
0.0
 40
4.0
  0
LINE
  5
11E
  8
2
 10
-22.732173
 20
2.802951999999999
 30
0.0
 11
-22.732173
 21
12.5
 31
0.0
  0
LINE
  5
11F
  8
1
 10
0.0
 20
8.5
 30
0.0
 11
0.0
 21
-8.5
 31
0.0
  0
LINE
  5
120
  8
1
 10
-18.0
 20
8.5
 30
0.0
 11
-18.0
 21
-8.5
 31
0.0
  0
LINE
  5
121
  8
0
 10
-18.0
 20
-5.5
 30
0.0
 11
0.0
 21
-5.5
 31
0.0
  0
LINE
  5
122
  8
0
 10
-18.0
 20
5.5
 30
0.0
 11
0.0
 21
5.5
 31
0.0
  0
ARC
  5
123
  8
0
 10
0.0
 20
0.0
 30
0.0
 40
5.5
 50
270.0
 51
90.0
  0
ARC
  5
124
  8
0
 10
-18.0
 20
0.0
 30
0.0
 40
5.5
 50
90.0
 51
270.0
  0
LINE
  5
125
  8
2
 10
-8.7321729999999995
 20
5.5
 30
0.0
 11
-8.7321729999999995
 21
12.5
 31
0.0
  0
LINE
  5
126
  8
2
 10
-8.7321729999999995
 20
-12.5
 30
0.0
 11
-8.7321729999999995
 21
-5.5
 31
0.0
  0
LINE
  5
127
  8
2
 10
-22.732173
 20
-12.5
 30
0.0
 11
-22.732173
 21
-2.802951999999999
 31
0.0
  0
LINE
  5
128
  8
0
 10
-33.0
 20
12.0
 30
0.0
 11
-33.0
 21
-12.0
 31
0.0
  0
LINE
  5
129
  8
0
 10
30.0
 20
12.0
 30
0.0
 11
30.0
 21
-12.0
 31
0.0
  0
LINE
  5
12A
  8
1
 10
-38.0
 20
0.0
 30
0.0
 11
35.0
 21
0.0
 31
0.0
  0
LINE
  5
12B
  8
0
 10
-32.5
 20
12.5
 30
0.0
 11
29.5
 21
12.5
 31
0.0
  0
LINE
  5
12C
  8
0
 10
-32.5
 20
-12.5
 30
0.0
 11
29.5
 21
-12.5
 31
0.0
  0
LINE
  5
12D
  8
0
 10
-32.5
 20
12.5
 30
0.0
 11
-33.0
 21
12.0
 31
0.0
  0
LINE
  5
12E
  8
0
 10
29.5
 20
12.5
 30
0.0
 11
30.0
 21
12.0
 31
0.0
  0
LINE
  5
12F
  8
0
 10
30.0
 20
-12.0
 30
0.0
 11
29.5
 21
-12.5
 31
0.0
  0
LINE
  5
130
  8
0
 10
-33.0
 20
-12.0
 30
0.0
 11
-32.5
 21
-12.5
 31
0.0
  0
ENDBLK
  5
131
  8
0
  0
BLOCK
  8
0
  2
B156118B
 70
     0
 10
0.0
 20
0.0
 30
0.0
  3
B156118B
  1

  0
LINE
  5
133
  8
0
 10
-8.7321729999999995
 20
0.0
 30
0.0
 11
-22.732173
 21
1.5
 31
0.0
  0
LINE
  5
134
  8
2
 10
16.0
 20
10.5
 30
0.0
 11
24.0
 21
10.5
 31
0.0
  0
LINE
  5
135
  8
2
 10
25.0
 20
11.5
 30
0.0
 11
25.0
 21
5.0
 31
0.0
  0
LINE
  5
136
  8
2
 10
24.0
 20
10.5
 30
0.0
 11
24.0
 21
5.0
 31
0.0
  0
LINE
  5
137
  8
2
 10
25.5
 20
12.0
 30
0.0
 11
24.0
 21
10.5
 31
0.0
  0
LINE
  5
138
  8
2
 10
14.5
 20
12.0
 30
0.0
 11
16.0
 21
10.5
 31
0.0
  0
LINE
  5
139
  8
2
 10
16.0
 20
10.5
 30
0.0
 11
16.0
 21
5.0
 31
0.0
  0
LINE
  5
13A
  8
2
 10
15.0
 20
11.5
 30
0.0
 11
15.0
 21
5.0
 31
0.0
  0
LINE
  5
13B
  8
2
 10
5.5
 20
12.0
 30
0.0
 11
5.5
 21
5.0
 31
0.0
  0
LINE
  5
13C
  8
2
 10
-23.5
 20
12.0
 30
0.0
 11
-23.5
 21
1.0697139999999989
 31
0.0
  0
LINE
  5
13D
  8
2
 10
0.0
 20
5.0
 30
0.0
 11
30.0
 21
5.0
 31
0.0
  0
LINE
  5
13E
  8
1
 10
20.0
 20
15.0
 30
0.0
 11
20.0
 21
-3.0
 31
0.0
  0
LINE
  5
13F
  8
0
 10
-32.5
 20
12.0
 30
0.0
 11
29.5
 21
12.0
 31
0.0
  0
LINE
  5
140
  8
0
 10
-8.7321729999999995
 20
0.0
 30
0.0
 11
29.5
 21
0.0
 31
0.0
  0
LINE
  5
141
  8
0
 10
-33.0
 20
11.5
 30
0.0
 11
-33.0
 21
1.339745999999999
 31
0.0
  0
LINE
  5
142
  8
0
 10
30.0
 20
11.5
 30
0.0
 11
30.0
 21
0.5
 31
0.0
  0
ARC
  5
143
  8
0
 10
-28.0
 20
10.0
 30
0.0
 40
10.0
 50
240.0
 51
301.78833100000003
  0
LINE
  5
144
  8
0
 10
-32.5
 20
12.0
 30
0.0
 11
-33.0
 21
11.5
 31
0.0
  0
LINE
  5
145
  8
0
 10
29.5
 20
12.0
 30
0.0
 11
30.0
 21
11.5
 31
0.0
  0
LINE
  5
146
  8
0
 10
30.0
 20
0.5
 30
0.0
 11
29.5
 21
0.0
 31
0.0
  0
LINE
  5
147
  8
1
 10
0.0
 20
15.0
 30
0.0
 11
0.0
 21
-3.0
 31
0.0
  0
LINE
  5
148
  8
1
 10
-18.0
 20
15.0
 30
0.0
 11
-18.0
 21
-3.0
 31
0.0
  0
ENDBLK
  5
149
  8
0
  0
BLOCK
  8
0
  2
B156118C
 70
     0
 10
0.0
 20
0.0
 30
0.0
  3
B156118C
  1

  0
LINE
  5
14B
  8
0
 10
5.5
 20
5.0
 30
0.0
 11
5.5
 21
0.0
 31
0.0
  0
LINE
  5
14C
  8
0
 10
-5.5
 20
5.0
 30
0.0
 11
5.5
 21
5.0
 31
0.0
  0
LINE
  5
14D
  8
0
 10
-5.5
 20
0.0
 30
0.0
 11
-5.5
 21
5.0
 31
0.0
  0
LINE
  5
14E
  8
1
 10
0.0
 20
17.0
 30
0.0
 11
0.0
 21
-5.0
 31
0.0
  0
POLYLINE
  5
14F
  8
0
 66
     1
 10
0.0
 20
0.0
 30
0.0
 70
     1
  0
VERTEX
  5
150
  8
0
 10
-12.5
 20
11.5
 30
0.0
  0
VERTEX
  5
151
  8
0
 10
-12.5
 20
0.5
 30
0.0
  0
VERTEX
  5
152
  8
0
 10
-12.0
 20
0.0
 30
0.0
  0
VERTEX
  5
153
  8
0
 10
12.0
 20
0.0
 30
0.0
  0
VERTEX
  5
154
  8
0
 10
12.5
 20
0.5
 30
0.0
  0
VERTEX
  5
155
  8
0
 10
12.5
 20
11.5
 30
0.0
  0
VERTEX
  5
156
  8
0
 10
12.0
 20
12.0
 30
0.0
  0
VERTEX
  5
157
  8
0
 10
-12.0
 20
12.0
 30
0.0
  0
SEQEND
  5
158
  8
0
  0
ENDBLK
  5
159
  8
0
  0
BLOCK
  8
0
  2
B156118D
 70
     0
 10
0.0
 20
0.0
 30
0.0
  3
B156118D
  1

  0
LINE
  5
15B
  8
0
 10
12.5
 20
1.339745999999999
 30
0.0
 11
-12.5
 21
1.339745999999999
 31
0.0
  0
POLYLINE
  5
15C
  8
0
 66
     1
 10
0.0
 20
0.0
 30
0.0
 70
     1
  0
VERTEX
  5
15D
  8
0
 10
12.5
 20
11.5
 30
0.0
  0
VERTEX
  5
15E
  8
0
 10
12.5
 20
0.5
 30
0.0
  0
VERTEX
  5
15F
  8
0
 10
12.0
 20
0.0
 30
0.0
  0
VERTEX
  5
160
  8
0
 10
-12.0
 20
0.0
 30
0.0
  0
VERTEX
  5
161
  8
0
 10
-12.5
 20
0.5
 30
0.0
  0
VERTEX
  5
162
  8
0
 10
-12.5
 20
11.5
 30
0.0
  0
VERTEX
  5
163
  8
0
 10
-12.0
 20
12.0
 30
0.0
  0
VERTEX
  5
164
  8
0
 10
12.0
 20
12.0
 30
0.0
  0
SEQEND
  5
165
  8
0
  0
LINE
  5
166
  8
1
 10
0.0
 20
17.0
 30
0.0
 11
0.0
 21
-5.0
 31
0.0
  0
ENDBLK
  5
167
  8
0
  0
BLOCK
  8
0
  2
156BB02A1
 70
     0
 10
0.0
 20
0.0
 30
0.0
  3
156BB02A1
  1

  0
INSERT
  5
169
  8
0
  2
B156118A
 10
0.0
 20
0.0
 30
0.0
  0
INSERT
  5
16A
  8
2
  2
B746118A
 10
20.0
 20
0.0
 30
0.0
  0
ENDBLK
  5
16B
  8
0
  0
BLOCK
  8
0
  2
156BB02C1
 70
     0
 10
0.0
 20
0.0
 30
0.0
  3
156BB02C1
  1

  0
INSERT
  5
16D
  8
0
  2
B156118C
 10
0.0
 20
0.0
 30
0.0
  0
INSERT
  5
16E
  8
0
  2
B739118C
 10
0.0
 20
12.0
 30
0.0
  0
ENDBLK
  5
16F
  8
0
  0
BLOCK
  8
0
  2
156BB02D1
 70
     0
 10
0.0
 20
0.0
 30
0.0
  3
156BB02D1
  1

  0
INSERT
  5
171
  8
0
  2
B156118D
 10
0.0
 20
0.0
 30
0.0
  0
INSERT
  5
172
  8
0
  2
B739118C
 10
0.0
 20
12.0
 30
0.0
  0
ENDBLK
  5
173
  8
0
  0
ENDSEC
  0
SECTION
  2
ENTITIES
  0
INSERT
  5
174
  8
0
  2
STDGX5
 10
0.0
 20
0.0
 30
0.0
  0
INSERT
  5
17E
  8
0
  2
STDGX5
 10
0.0
 20
0.0
 30
0.0
  0
INSERT
  5
17F
  8
0
  2
STDGX5
 10
0.0
 20
0.0
 30
0.0
  0
INSERT
  5
180
  8
0
  2
STDGX5
 10
0.0
 20
0.0
 30
0.0
  0
INSERT
  5
181
  8
0
  2
STDGX5
 10
0.0
 20
0.0
 30
0.0
  0
INSERT
  5
182
  8
0
  2
STDGX5
 10
0.0
 20
0.0
 30
0.0
  0
INSERT
  5
183
  8
0
  2
B739118B
 10
180.0
 20
137.0
 30
0.0
  0
INSERT
  5
184
  8
0
  2
B740118A
 10
180.0
 20
220.0
 30
0.0
  0
INSERT
  5
185
  8
0
  2
NM10B
 10
180.0
 20
75.0
 30
0.0
 50
270.0
  0
INSERT
  5
186
  8
0
  2
NM10C
 10
110.0
 20
75.0
 30
0.0
  0
INSERT
  5
187
  8
0
  2
B745158B
 10
180.0
 20
55.0
 30
0.0
  0
INSERT
  5
188
  8
0
  2
B746138B
 10
200.0
 20
75.0
 30
0.0
  0
INSERT
  5
189
  8
0
  2
B745158B
 10
265.0
 20
55.0
 30
0.0
  0
INSERT
  5
18A
  8
0
  2
B746138B
 10
265.0
 20
75.0
 30
0.0
  0
INSERT
  5
18B
  8
0
  2
B745158B
 10
110.0
 20
55.0
 30
0.0
  0
INSERT
  5
18C
  8
0
  2
B156118B
 10
180.0
 20
125.0
 30
0.0
  0
INSERT
  5
18D
  8
0
  2
156BB02A1
 10
180.0
 20
220.0
 30
0.0
  0
INSERT
  5
18E
  8
0
  2
156BB02C1
 10
265.0
 20
125.0
 30
0.0
  0
INSERT
  5
18F
  8
0
  2
156BB02D1
 10
110.0
 20
125.0
 30
0.0
  0
TEXT
  5
2CF
  8
0
 62
     3
 10
0.0
 20
0.0
 30
0.0
 40
10.0
  1
BJ156-10063B2
  7
STANDARD1
  0
ENDSEC
  0
EOF
