  0
SECTION
  2
HEADER
  9
$ACADVER
  1
AC1009
  9
$INSBASE
 10
82.638099999999994
 20
103.82319099999999
 30
0.0
  9
$EXTMIN
 10
0.0
 20
-2.960436562073669
 30
0.0
  9
$EXTMAX
 10
294.5
 20
221.0
 30
0.0
  9
$LIMMIN
 10
0.0
 20
0.0
  9
$LIMMAX
 10
375.0
 20
270.0
  9
$ORTHOMODE
 70
     1
  9
$REGENMODE
 70
     1
  9
$FILLMODE
 70
     1
  9
$QTEXTMODE
 70
     0
  9
$MIRRTEXT
 70
     0
  9
$DRAGMODE
 70
     2
  9
$LTSCALE
 40
10.0
  9
$OSMODE
 70
  3071
  9
$ATTMODE
 70
     1
  9
$TEXTSIZE
 40
0.06
  9
$TRACEWID
 40
0.05
  9
$TEXTSTYLE
  7
STANDARD
  9
$CLAYER
  8
0
  9
$CELTYPE
  6
BYLAYER
  9
$CECOLOR
 62
   256
  9
$DIMSCALE
 40
1.0
  9
$DIMASZ
 40
3.0
  9
$DIMEXO
 40
2.0
  9
$DIMDLI
 40
10.0
  9
$DIMRND
 40
0.0
  9
$DIMDLE
 40
0.0
  9
$DIMEXE
 40
2.0
  9
$DIMTP
 40
0.0
  9
$DIMTM
 40
0.0
  9
$DIMTXT
 40
3.0
  9
$DIMCEN
 40
0.0
  9
$DIMTSZ
 40
0.0
  9
$DIMTOL
 70
     0
  9
$DIMLIM
 70
     0
  9
$DIMTIH
 70
     0
  9
$DIMTOH
 70
     0
  9
$DIMSE1
 70
     0
  9
$DIMSE2
 70
     0
  9
$DIMTAD
 70
     1
  9
$DIMZIN
 70
     0
  9
$DIMBLK
  1

  9
$DIMASO
 70
     0
  9
$DIMSHO
 70
     0
  9
$DIMPOST
  1

  9
$DIMAPOST
  1

  9
$DIMALT
 70
     0
  9
$DIMALTD
 70
     2
  9
$DIMALTF
 40
25.399999999999999
  9
$DIMLFAC
 40
1.0
  9
$DIMTOFL
 70
     1
  9
$DIMTVP
 40
1.6000000000000001
  9
$DIMTIX
 70
     1
  9
$DIMSOXD
 70
     0
  9
$DIMSAH
 70
     0
  9
$DIMBLK1
  1

  9
$DIMBLK2
  1

  9
$DIMSTYLE
  2
STANDARD
  9
$DIMCLRD
 70
     0
  9
$DIMCLRE
 70
     0
  9
$DIMCLRT
 70
     0
  9
$DIMTFAC
 40
1.0
  9
$DIMGAP
 40
0.09
  9
$LUNITS
 70
     2
  9
$LUPREC
 70
     4
  9
$SKETCHINC
 40
0.1
  9
$FILLETRAD
 40
0.0
  9
$AUNITS
 70
     0
  9
$AUPREC
 70
     4
  9
$MENU
  1
E:\r13\win\SUPPORT\ACAD
  9
$ELEVATION
 40
0.0
  9
$PELEVATION
 40
0.0
  9
$THICKNESS
 40
0.0
  9
$LIMCHECK
 70
     0
  9
$BLIPMODE
 70
     0
  9
$CHAMFERA
 40
0.0
  9
$CHAMFERB
 40
0.0
  9
$SKPOLY
 70
     0
  9
$TDCREATE
 40
2449840.3479398149
  9
$TDUPDATE
 40
2456597.6466686809
  9
$TDINDWG
 40
0.0054916204
  9
$TDUSRTIMER
 40
0.0054916204
  9
$USRTIMER
 70
     1
  9
$ANGBASE
 50
0.0
  9
$ANGDIR
 70
     0
  9
$PDMODE
 70
     1
  9
$PDSIZE
 40
0.0
  9
$PLINEWID
 40
0.0
  9
$COORDS
 70
     1
  9
$SPLFRAME
 70
     0
  9
$SPLINETYPE
 70
     6
  9
$SPLINESEGS
 70
     8
  9
$ATTDIA
 70
     0
  9
$ATTREQ
 70
     1
  9
$HANDLING
 70
     1
  9
$HANDSEED
  5
6E7
  9
$SURFTAB1
 70
     6
  9
$SURFTAB2
 70
     6
  9
$SURFTYPE
 70
     6
  9
$SURFU
 70
     6
  9
$SURFV
 70
     6
  9
$UCSNAME
  2

  9
$UCSORG
 10
0.0
 20
0.0
 30
0.0
  9
$UCSXDIR
 10
1.0
 20
0.0
 30
0.0
  9
$UCSYDIR
 10
0.0
 20
1.0
 30
0.0
  9
$PUCSNAME
  2

  9
$PUCSORG
 10
0.0
 20
0.0
 30
0.0
  9
$PUCSXDIR
 10
1.0
 20
0.0
 30
0.0
  9
$PUCSYDIR
 10
0.0
 20
1.0
 30
0.0
  9
$USERI1
 70
     3
  9
$USERI2
 70
     1
  9
$USERI3
 70
     0
  9
$USERI4
 70
     0
  9
$USERI5
 70
     0
  9
$USERR1
 40
1.0
  9
$USERR2
 40
3.0
  9
$USERR3
 40
3.0
  9
$USERR4
 40
3.0
  9
$USERR5
 40
10.0
  9
$WORLDVIEW
 70
     1
  9
$SHADEDGE
 70
     3
  9
$SHADEDIF
 70
    70
  9
$TILEMODE
 70
     1
  9
$MAXACTVP
 70
    16
  9
$PLIMCHECK
 70
     0
  9
$PEXTMIN
 10
1.0000000000000000E+020
 20
1.0000000000000000E+020
 30
1.0000000000000000E+020
  9
$PEXTMAX
 10
-1.0000000000000000E+020
 20
-1.0000000000000000E+020
 30
-1.0000000000000000E+020
  9
$PLIMMIN
 10
0.0
 20
0.0
  9
$PLIMMAX
 10
12.0
 20
9.0
  9
$UNITMODE
 70
     0
  9
$VISRETAIN
 70
     0
  9
$PLINEGEN
 70
     0
  9
$PSLTSCALE
 70
     0
  0
ENDSEC
  0
SECTION
  2
TABLES
  0
TABLE
  2
VPORT
 70
     1
  0
VPORT
  2
*ACTIVE
 70
     0
 10
0.0
 20
0.0
 11
1.0
 21
1.0
 12
195.0581083320873
 22
133.5127261426681
 13
0.0
 23
0.0
 14
5.0
 24
5.0
 15
10.0
 25
10.0
 16
0.0
 26
0.0
 36
1.0
 17
0.0
 27
0.0
 37
0.0
 40
275.42274993631997
 41
1.831871345029239
 42
50.0
 43
0.0
 44
0.0
 50
0.0
 51
0.0
 71
     0
 72
   100
 73
     1
 74
     0
 75
     0
 76
     0
 77
     0
 78
     0
  0
ENDTAB
  0
TABLE
  2
LTYPE
 70
     4
  0
LTYPE
  2
CONTINUOUS
 70
     0
  3
Solid Line
 72
    65
 73
     0
 40
0.0
  0
LTYPE
  2
CENTER
 70
     0
  3
____ _ ____ _ ____ _ ____ _ ____ _ ____ _ ____
 72
    65
 73
     4
 40
2.0
 49
1.25
 49
-0.25
 49
0.25
 49
-0.25
  0
LTYPE
  2
HIDDEN
 70
     0
  3
__ __ __ __ __ __ __ __ __ __ __ __ __ __ __ __
 72
    65
 73
     2
 40
0.375
 49
0.25
 49
-0.125
  0
LTYPE
  2
PHANTOM2
 70
     0
  3
___ _ _ ___ _ _ ___ _ _ ___ _ _
 72
    65
 73
     6
 40
1.25
 49
0.625
 49
-0.125
 49
0.125
 49
-0.125
 49
0.125
 49
-0.125
  0
ENDTAB
  0
TABLE
  2
LAYER
 70
     4
  0
LAYER
  2
0
 70
     0
 62
     7
  6
CONTINUOUS
  0
LAYER
  2
1
 70
     0
 62
     1
  6
CENTER
  0
LAYER
  2
2
 70
     0
 62
     2
  6
HIDDEN
  0
LAYER
  2
3
 70
     0
 62
     3
  6
CONTINUOUS
  0
ENDTAB
  0
TABLE
  2
STYLE
 70
     2
  0
STYLE
  2
STANDARD
 70
     0
 40
0.0
 41
1.0
 50
0.0
 71
     0
 42
0.06
  3
TXT
  4
BIGFONT
  0
STYLE
  2
STANDARD1
 70
     0
 40
0.0
 41
1.0
 50
0.0
 71
     0
 42
3.0
  3
txt
  4

  0
ENDTAB
  0
TABLE
  2
VIEW
 70
     0
  0
ENDTAB
  0
TABLE
  2
UCS
 70
     0
  0
ENDTAB
  0
TABLE
  2
APPID
 70
     4
  0
APPID
  2
ACAD
 70
     0
  0
APPID
  2
ACAD_EXEMPT_FROM_CAD_STANDARDS
 70
     0
  0
APPID
  2
ACAD_MLEADERVER
 70
     0
  0
APPID
  2
ACAD_NAV_VCDISPLAY
 70
     0
  0
ENDTAB
  0
TABLE
  2
DIMSTYLE
 70
     1
  0
DIMSTYLE
  2
STANDARD
 70
     0
  3

  4

  5

  6

  7

 40
1.0
 41
0.18
 42
0.0625
 43
0.38
 44
0.18
 45
0.0
 46
0.0
 47
0.0
 48
0.0
140
0.18
141
0.09
142
0.0
143
25.399999999999999
144
1.0
145
0.0
146
1.0
147
0.09
 71
     0
 72
     0
 73
     1
 74
     1
 75
     0
 76
     0
 77
     0
 78
     0
170
     0
171
     2
172
     0
173
     0
174
     0
175
     0
176
     0
177
     0
178
     0
  0
ENDTAB
  0
ENDSEC
  0
SECTION
  2
BLOCKS
  0
BLOCK
  8
0
  2
$MODEL_SPACE
 70
     0
 10
0.0
 20
0.0
 30
0.0
  3
$MODEL_SPACE
  1

  0
ENDBLK
  5
224
  8
0
  0
BLOCK
 67
     1
  8
0
  2
$PAPER_SPACE
 70
     0
 10
0.0
 20
0.0
 30
0.0
  3
$PAPER_SPACE
  1

  0
ENDBLK
  5
222
 67
     1
  8
0
  0
ENDSEC
  0
SECTION
  2
ENTITIES
  0
LINE
  5
419
  8
1
 10
200.0
 20
171.95150405675619
 30
0.0
 11
200.0
 21
80.043923371323672
 31
0.0
  0
LINE
  5
41A
  8
3
 10
203.40000000000001
 20
149.63174799999999
 30
0.0
 11
203.40000000000001
 21
165.40000000000001
 31
0.0
  0
LINE
  5
41B
  8
0
 10
196.0
 20
164.80000000000001
 30
0.0
 11
204.0
 21
164.80000000000001
 31
0.0
  0
LINE
  5
41C
  8
0
 10
196.0
 20
87.200000000000003
 30
0.0
 11
204.0
 21
87.200000000000003
 31
0.0
  0
LINE
  5
41D
  8
0
 10
202.8000000000001
 20
86.0
 30
0.0
 11
204.0
 21
87.200000000000003
 31
0.0
  0
LINE
  5
41E
  8
0
 10
196.0
 20
87.200000000000003
 30
0.0
 11
197.19999999999999
 21
86.0
 31
0.0
  0
LINE
  5
41F
  8
0
 10
202.8000000000001
 20
166.0
 30
0.0
 11
204.0
 21
164.80000000000001
 31
0.0
  0
LINE
  5
420
  8
0
 10
196.0
 20
164.80000000000001
 30
0.0
 11
197.19999999999999
 21
166.0
 31
0.0
  0
LINE
  5
421
  8
0
 10
204.0
 20
164.80000000000001
 30
0.0
 11
204.0
 21
149.63174799999999
 31
0.0
  0
LINE
  5
422
  8
0
 10
204.0
 20
120.0
 30
0.0
 11
204.0
 21
104.99999999999569
 31
0.0
  0
LINE
  5
423
  8
0
 10
204.0
 20
100.0
 30
0.0
 11
204.0
 21
87.200000000000003
 31
0.0
  0
LINE
  5
424
  8
0
 10
197.19999999999999
 20
166.0
 30
0.0
 11
202.8000000000001
 21
166.0
 31
0.0
  0
LINE
  5
425
  8
0
 10
196.0
 20
87.200000000000003
 30
0.0
 11
196.0
 21
100.0
 31
0.0
  0
LINE
  5
426
  8
0
 10
196.0
 20
104.9999999999952
 30
0.0
 11
196.0
 21
120.0
 31
0.0
  0
LINE
  5
427
  8
0
 10
196.0
 20
149.63174799999999
 30
0.0
 11
196.0
 21
164.80000000000001
 31
0.0
  0
LINE
  5
428
  8
0
 10
202.8000000000001
 20
86.0
 30
0.0
 11
197.19999999999999
 21
86.0
 31
0.0
  0
LINE
  5
429
  8
3
 10
196.59999999999999
 20
149.63174799999999
 30
0.0
 11
196.59999999999999
 21
165.40000000000001
 31
0.0
  0
LINE
  5
42A
  8
3
 10
203.40000000000001
 20
118.0
 30
0.0
 11
203.40000000000001
 21
104.99999999999569
 31
0.0
  0
LINE
  5
42B
  8
3
 10
203.40000000000001
 20
100.0
 30
0.0
 11
203.40000000000001
 21
86.599999999999994
 31
0.0
  0
LINE
  5
42C
  8
3
 10
204.0
 20
119.03923
 30
0.0
 11
203.40000000000001
 21
118.0
 31
0.0
  0
LINE
  5
42D
  8
3
 10
196.0
 20
119.03923
 30
0.0
 11
196.59999999999999
 21
118.0
 31
0.0
  0
LINE
  5
42E
  8
3
 10
196.59999999999999
 20
118.0
 30
0.0
 11
196.59999999999999
 21
104.9999999999953
 31
0.0
  0
LINE
  5
42F
  8
3
 10
196.59999999999999
 20
100.0
 30
0.0
 11
196.59999999999999
 21
86.599999999999994
 31
0.0
  0
LINE
  5
430
  8
0
 10
196.0
 20
118.0
 30
0.0
 11
204.0
 21
118.0
 31
0.0
  0
LINE
  5
431
  8
0
 10
221.979185
 20
113.582542
 30
0.0
 11
221.125631
 21
113.582542
 31
0.0
  0
LINE
  5
432
  8
0
 10
221.979185
 20
119.417458
 30
0.0
 11
221.125631
 21
119.417458
 31
0.0
  0
LINE
  5
433
  8
0
 10
216.85355300000001
 20
119.417458
 30
0.0
 11
216.5
 21
119.417458
 31
0.0
  0
LINE
  5
434
  8
0
 10
216.85355300000001
 20
113.582542
 30
0.0
 11
216.5
 21
113.582542
 31
0.0
  0
LINE
  5
435
  8
0
 10
216.85355300000001
 20
113.582542
 30
0.0
 11
216.85355300000001
 21
119.417458
 31
0.0
  0
ARC
  5
436
  8
0
 10
218.98959199999999
 20
121.198759
 30
0.0
 40
7.9100839999999986
 50
254.33335399999899
 51
285.66664599999763
  0
ARC
  5
437
  8
0
 10
218.98959199999999
 20
111.801241
 30
0.0
 40
7.9100839999999986
 50
74.333353999999034
 51
105.6666460000009
  0
LINE
  5
438
  8
0
 10
221.125631
 20
113.582542
 30
0.0
 11
221.125631
 21
119.417458
 31
0.0
  0
ARC
  5
439
  8
0
 10
231.01040800000001
 20
121.198759
 30
0.0
 40
7.9100839999999986
 50
254.33335399999899
 51
285.66664599999763
  0
ARC
  5
43A
  8
0
 10
225.0
 20
128.96190999999999
 30
0.0
 40
15.673235
 50
258.88743300000021
 51
281.11256699999967
  0
LINE
  5
43B
  8
0
 10
228.874369
 20
113.582542
 30
0.0
 11
228.020815
 21
113.582542
 31
0.0
  0
LINE
  5
43C
  8
0
 10
233.14644699999999
 20
113.582542
 30
0.0
 11
233.5
 21
113.582542
 31
0.0
  0
LINE
  5
43D
  8
0
 10
233.14644699999999
 20
119.417458
 30
0.0
 11
233.5
 21
119.417458
 31
0.0
  0
LINE
  5
43E
  8
0
 10
228.874369
 20
119.417458
 30
0.0
 11
228.020815
 21
119.417458
 31
0.0
  0
ARC
  5
43F
  8
0
 10
225.0
 20
104.03809
 30
0.0
 40
15.673235
 50
78.887433000000286
 51
101.1125669999997
  0
ARC
  5
440
  8
0
 10
231.01040800000001
 20
111.801241
 30
0.0
 40
7.9100839999999986
 50
74.333353999999034
 51
105.6666460000009
  0
LINE
  5
441
  8
0
 10
221.979185
 20
113.582542
 30
0.0
 11
221.979185
 21
119.417458
 31
0.0
  0
LINE
  5
442
  8
0
 10
228.020815
 20
113.582542
 30
0.0
 11
228.020815
 21
119.417458
 31
0.0
  0
LINE
  5
443
  8
0
 10
228.874369
 20
113.582542
 30
0.0
 11
228.874369
 21
119.417458
 31
0.0
  0
LINE
  5
444
  8
0
 10
233.14644699999999
 20
113.582542
 30
0.0
 11
233.14644699999999
 21
119.417458
 31
0.0
  0
LINE
  5
445
  8
0
 10
216.5
 20
113.288675
 30
0.0
 11
217.0
 21
113.0
 31
0.0
  0
LINE
  5
446
  8
0
 10
216.5
 20
119.711325
 30
0.0
 11
217.0
 21
120.0
 31
0.0
  0
LINE
  5
447
  8
0
 10
216.5
 20
113.288675
 30
0.0
 11
216.5
 21
119.711325
 31
0.0
  0
LINE
  5
448
  8
0
 10
217.0
 20
113.0
 30
0.0
 11
233.0
 21
113.0
 31
0.0
  0
LINE
  5
449
  8
0
 10
233.0
 20
120.0
 30
0.0
 11
217.0
 21
120.0
 31
0.0
  0
LINE
  5
44A
  8
0
 10
233.5
 20
113.288675
 30
0.0
 11
233.5
 21
119.711325
 31
0.0
  0
LINE
  5
44B
  8
0
 10
233.5
 20
119.711325
 30
0.0
 11
233.0
 21
120.0
 31
0.0
  0
LINE
  5
44C
  8
0
 10
233.5
 20
113.288675
 30
0.0
 11
233.0
 21
113.0
 31
0.0
  0
LINE
  5
44D
  8
0
 10
221.0
 20
113.0
 30
0.0
 11
221.0
 21
104.9999999999967
 31
0.0
  0
LINE
  5
44E
  8
0
 10
221.0
 20
100.0
 30
0.0
 11
221.0
 21
74.200000000000003
 31
0.0
  0
LINE
  5
44F
  8
0
 10
222.19999999999999
 20
73.0
 30
0.0
 11
227.8000000000001
 21
73.0
 31
0.0
  0
LINE
  5
450
  8
0
 10
221.0
 20
74.200000000000003
 30
0.0
 11
222.19999999999999
 21
73.0
 31
0.0
  0
LINE
  5
451
  8
0
 10
221.0
 20
74.200000000000003
 30
0.0
 11
229.0
 21
74.200000000000003
 31
0.0
  0
LINE
  5
452
  8
3
 10
221.75
 20
111.0
 30
0.0
 11
221.75
 21
104.9999999999967
 31
0.0
  0
LINE
  5
453
  8
3
 10
221.75
 20
100.0
 30
0.0
 11
221.75
 21
73.450000000000003
 31
0.0
  0
LINE
  5
454
  8
3
 10
228.25
 20
111.0
 30
0.0
 11
228.25
 21
104.9999999999971
 31
0.0
  0
LINE
  5
455
  8
3
 10
228.25
 20
100.0
 30
0.0
 11
228.25
 21
73.450000000000003
 31
0.0
  0
LINE
  5
456
  8
0
 10
229.0
 20
74.200000000000003
 30
0.0
 11
227.8000000000001
 21
73.0
 31
0.0
  0
LINE
  5
457
  8
0
 10
229.0
 20
113.0
 30
0.0
 11
229.0
 21
104.9999999999971
 31
0.0
  0
LINE
  5
458
  8
0
 10
229.0
 20
100.0
 30
0.0
 11
229.0
 21
74.200000000000003
 31
0.0
  0
LINE
  5
459
  8
3
 10
221.75
 20
111.0
 30
0.0
 11
221.0
 21
112.299038
 31
0.0
  0
LINE
  5
45A
  8
3
 10
228.25
 20
111.0
 30
0.0
 11
229.0
 21
112.299038
 31
0.0
  0
LINE
  5
45B
  8
0
 10
221.0
 20
111.0
 30
0.0
 11
229.0
 21
111.0
 31
0.0
  0
LINE
  5
45C
  8
1
 10
225.0
 20
129.0
 30
0.0
 11
225.0
 21
68.0
 31
0.0
  0
LINE
  5
45D
  8
0
 10
192.49444700000001
 20
104.27510599999999
 30
0.0
 11
192.49444700000001
 21
100.72489400000001
 31
0.0
  0
LINE
  5
45E
  8
0
 10
206.25
 20
100.0
 30
0.0
 11
193.75
 21
100.0
 31
0.0
  0
LINE
  5
45F
  8
0
 10
193.75
 20
105.0
 30
0.0
 11
206.25
 21
105.0
 31
0.0
  0
ARC
  5
460
  8
0
 10
205.62916500000011
 20
101.53309299999999
 30
0.0
 40
3.3225699999999989
 50
64.384247000000045
 51
124.3842470000002
  0
LINE
  5
461
  8
0
 10
207.50555299999999
 20
104.27510599999999
 30
0.0
 11
206.25
 21
105.0
 31
0.0
  0
LINE
  5
462
  8
0
 10
207.50555299999999
 20
100.72489400000001
 30
0.0
 11
206.25
 21
100.0
 31
0.0
  0
ARC
  5
463
  8
0
 10
205.62916500000011
 20
103.46690700000001
 30
0.0
 40
3.3225699999999989
 50
235.6157529999997
 51
295.61575299999998
  0
LINE
  5
464
  8
0
 10
207.50555299999999
 20
104.27510599999999
 30
0.0
 11
207.50555299999999
 21
100.72489400000001
 31
0.0
  0
LINE
  5
465
  8
0
 10
203.75277700000001
 20
104.27510599999999
 30
0.0
 11
203.75277700000001
 21
100.72489400000001
 31
0.0
  0
LINE
  5
466
  8
0
 10
196.24722299999999
 20
104.27510599999999
 30
0.0
 11
196.24722299999999
 21
100.72489400000001
 31
0.0
  0
ARC
  5
467
  8
0
 10
200.0
 20
112.56378100000001
 30
0.0
 40
12.419442999999999
 50
252.412046000001
 51
287.58795399999912
  0
ARC
  5
468
  8
0
 10
194.370835
 20
103.46690700000001
 30
0.0
 40
3.3225699999999989
 50
244.38424699999999
 51
304.3842470000003
  0
LINE
  5
469
  8
0
 10
192.49444700000001
 20
100.72489400000001
 30
0.0
 11
193.75
 21
100.0
 31
0.0
  0
LINE
  5
46A
  8
0
 10
192.49444700000001
 20
104.27510599999999
 30
0.0
 11
193.75
 21
105.0
 31
0.0
  0
ARC
  5
46B
  8
0
 10
200.0
 20
92.436218999999994
 30
0.0
 40
12.419442999999999
 50
72.412046000000942
 51
107.587953999999
  0
ARC
  5
46C
  8
0
 10
194.370835
 20
101.53309299999999
 30
0.0
 40
3.3225699999999989
 50
55.615752999999721
 51
115.6157529999999
  0
LINE
  5
46D
  8
1
 10
200.0
 20
221.0
 30
0.0
 11
200.0
 21
189.0
 31
0.0
  0
CIRCLE
  5
46E
  8
0
 10
200.0
 20
205.0
 30
0.0
 40
9.0
  0
CIRCLE
  5
46F
  8
0
 10
200.0
 20
205.0
 30
0.0
 40
3.399999999999999
  0
CIRCLE
  5
470
  8
3
 10
200.0
 20
205.0
 30
0.0
 40
4.0
  0
LINE
  5
471
  8
0
 10
204.02351100000001
 20
198.96892600000001
 30
0.0
 11
207.23481899999999
 21
204.53107399999999
 31
0.0
  0
LINE
  5
472
  8
0
 10
207.23481899999999
 20
205.46892600000001
 30
0.0
 11
204.02351100000001
 21
211.03107399999999
 31
0.0
  0
LINE
  5
473
  8
0
 10
203.211308
 20
211.5
 30
0.0
 11
196.788692
 21
211.5
 31
0.0
  0
LINE
  5
474
  8
0
 10
195.97648899999999
 20
211.03107399999999
 30
0.0
 11
192.76518100000001
 21
205.46892600000001
 31
0.0
  0
LINE
  5
475
  8
0
 10
192.76518100000001
 20
204.53107399999999
 30
0.0
 11
195.97648899999999
 21
198.96892600000001
 31
0.0
  0
LINE
  5
476
  8
0
 10
196.788692
 20
198.5
 30
0.0
 11
203.211308
 21
198.5
 31
0.0
  0
ARC
  5
477
  8
0
 10
200.0
 20
205.0
 30
0.0
 40
7.25
 50
56.291554999999569
 51
63.708444999998321
  0
ARC
  5
478
  8
0
 10
200.0
 20
205.0
 30
0.0
 40
7.25
 50
116.29155500000169
 51
123.7084450000004
  0
ARC
  5
479
  8
0
 10
200.0
 20
205.0
 30
0.0
 40
7.25
 50
176.2915550000003
 51
183.70844499999961
  0
ARC
  5
47A
  8
0
 10
200.0
 20
205.0
 30
0.0
 40
7.25
 50
236.29155499999959
 51
243.70844499999831
  0
ARC
  5
47B
  8
0
 10
200.0
 20
205.0
 30
0.0
 40
7.25
 50
296.29155500000172
 51
303.70844500000038
  0
ARC
  5
47C
  8
0
 10
200.0
 20
205.0
 30
0.0
 40
7.25
 50
356.29155500000041
 51
3.7084449999996458
  0
CIRCLE
  5
47D
  8
0
 10
200.0
 20
205.0
 30
0.0
 40
6.25
  0
LINE
  5
47E
  8
1
 10
110.0
 20
171.95150405675619
 30
0.0
 11
110.0
 21
68.0
 31
0.0
  0
LINE
  5
47F
  8
3
 10
113.40000000000001
 20
149.63174799999999
 30
0.0
 11
113.40000000000001
 21
165.40000000000001
 31
0.0
  0
LINE
  5
480
  8
0
 10
106.0
 20
164.80000000000001
 30
0.0
 11
114.0
 21
164.80000000000001
 31
0.0
  0
LINE
  5
481
  8
0
 10
106.0
 20
87.200000000000003
 30
0.0
 11
114.0
 21
87.200000000000003
 31
0.0
  0
LINE
  5
482
  8
0
 10
112.8
 20
86.0
 30
0.0
 11
114.0
 21
87.200000000000003
 31
0.0
  0
LINE
  5
483
  8
0
 10
106.0
 20
87.200000000000003
 30
0.0
 11
107.2
 21
86.0
 31
0.0
  0
LINE
  5
484
  8
0
 10
112.8
 20
166.0
 30
0.0
 11
114.0
 21
164.80000000000001
 31
0.0
  0
LINE
  5
485
  8
0
 10
106.0
 20
164.80000000000001
 30
0.0
 11
107.2
 21
166.0
 31
0.0
  0
LINE
  5
486
  8
0
 10
114.0
 20
164.80000000000001
 30
0.0
 11
114.0
 21
149.63174799999999
 31
0.0
  0
LINE
  5
487
  8
0
 10
114.0
 20
120.0
 30
0.0
 11
114.0
 21
104.99999999999061
 31
0.0
  0
LINE
  5
488
  8
0
 10
114.0
 20
100.0
 30
0.0
 11
114.0
 21
87.200000000000003
 31
0.0
  0
LINE
  5
489
  8
0
 10
107.2
 20
166.0
 30
0.0
 11
112.8
 21
166.0
 31
0.0
  0
LINE
  5
48A
  8
0
 10
106.0
 20
87.200000000000003
 30
0.0
 11
106.0
 21
100.0
 31
0.0
  0
LINE
  5
48B
  8
0
 10
106.0
 20
104.9999999999901
 30
0.0
 11
106.0
 21
120.0
 31
0.0
  0
LINE
  5
48C
  8
0
 10
106.0
 20
149.63174799999999
 30
0.0
 11
106.0
 21
164.80000000000001
 31
0.0
  0
LINE
  5
48D
  8
0
 10
112.8
 20
86.0
 30
0.0
 11
107.2
 21
86.0
 31
0.0
  0
LINE
  5
48E
  8
3
 10
106.59999999999999
 20
149.63174799999999
 30
0.0
 11
106.59999999999999
 21
165.40000000000001
 31
0.0
  0
LINE
  5
48F
  8
3
 10
113.40000000000001
 20
118.0
 30
0.0
 11
113.40000000000001
 21
104.99999999999061
 31
0.0
  0
LINE
  5
490
  8
3
 10
113.40000000000001
 20
100.0
 30
0.0
 11
113.40000000000001
 21
86.599999999999994
 31
0.0
  0
LINE
  5
491
  8
3
 10
114.0
 20
119.03923
 30
0.0
 11
113.40000000000001
 21
118.0
 31
0.0
  0
LINE
  5
492
  8
3
 10
106.0
 20
119.03923
 30
0.0
 11
106.59999999999999
 21
118.0
 31
0.0
  0
LINE
  5
493
  8
3
 10
106.59999999999999
 20
118.0
 30
0.0
 11
106.59999999999999
 21
104.99999999999019
 31
0.0
  0
LINE
  5
494
  8
3
 10
106.59999999999999
 20
100.0
 30
0.0
 11
106.59999999999999
 21
86.599999999999994
 31
0.0
  0
LINE
  5
495
  8
0
 10
106.0
 20
118.0
 30
0.0
 11
114.0
 21
118.0
 31
0.0
  0
LINE
  5
496
  8
0
 10
217.49444700000001
 20
104.27510599999999
 30
0.0
 11
217.49444700000001
 21
100.72489400000001
 31
0.0
  0
LINE
  5
497
  8
0
 10
231.25
 20
100.0
 30
0.0
 11
218.75
 21
100.0
 31
0.0
  0
LINE
  5
498
  8
0
 10
218.75
 20
105.0
 30
0.0
 11
231.25
 21
105.0
 31
0.0
  0
ARC
  5
499
  8
0
 10
230.62916500000011
 20
101.53309299999999
 30
0.0
 40
3.3225699999999989
 50
64.384247000000045
 51
124.3842470000002
  0
LINE
  5
49A
  8
0
 10
232.50555299999999
 20
104.27510599999999
 30
0.0
 11
231.25
 21
105.0
 31
0.0
  0
LINE
  5
49B
  8
0
 10
232.50555299999999
 20
100.72489400000001
 30
0.0
 11
231.25
 21
100.0
 31
0.0
  0
ARC
  5
49C
  8
0
 10
230.62916500000011
 20
103.46690700000001
 30
0.0
 40
3.3225699999999989
 50
235.6157529999997
 51
295.61575299999998
  0
LINE
  5
49D
  8
0
 10
232.50555299999999
 20
104.27510599999999
 30
0.0
 11
232.50555299999999
 21
100.72489400000001
 31
0.0
  0
LINE
  5
49E
  8
0
 10
228.75277700000001
 20
104.27510599999999
 30
0.0
 11
228.75277700000001
 21
100.72489400000001
 31
0.0
  0
LINE
  5
49F
  8
0
 10
221.24722299999999
 20
104.27510599999999
 30
0.0
 11
221.24722299999999
 21
100.72489400000001
 31
0.0
  0
ARC
  5
4A0
  8
0
 10
225.0
 20
112.56378100000001
 30
0.0
 40
12.419442999999999
 50
252.412046000001
 51
287.58795399999912
  0
ARC
  5
4A1
  8
0
 10
219.370835
 20
103.46690700000001
 30
0.0
 40
3.3225699999999989
 50
244.38424699999999
 51
304.3842470000003
  0
LINE
  5
4A2
  8
0
 10
217.49444700000001
 20
100.72489400000001
 30
0.0
 11
218.75
 21
100.0
 31
0.0
  0
LINE
  5
4A3
  8
0
 10
217.49444700000001
 20
104.27510599999999
 30
0.0
 11
218.75
 21
105.0
 31
0.0
  0
ARC
  5
4A4
  8
0
 10
225.0
 20
92.436218999999994
 30
0.0
 40
12.419442999999999
 50
72.412046000000942
 51
107.587953999999
  0
ARC
  5
4A5
  8
0
 10
219.370835
 20
101.53309299999999
 30
0.0
 40
3.3225699999999989
 50
55.615752999999721
 51
115.6157529999999
  0
LINE
  5
4A6
  8
0
 10
291.5
 20
104.855662
 30
0.0
 11
291.25
 21
105.0
 31
0.0
  0
ARC
  5
4A7
  8
0
 10
288.25
 20
95.468509999999995
 30
0.0
 40
9.3871520000000004
 50
69.743841999999773
 51
110.2561580000002
  0
ARC
  5
4A8
  8
0
 10
288.25
 20
109.53149000000001
 30
0.0
 40
9.3871520000000004
 50
249.7438419999998
 51
290.2561580000002
  0
LINE
  5
4A9
  8
0
 10
291.5
 20
100.144338
 30
0.0
 11
291.25
 21
100.0
 31
0.0
  0
LINE
  5
4AA
  8
0
 10
291.5
 20
104.855662
 30
0.0
 11
291.5
 21
100.144338
 31
0.0
  0
LINE
  5
4AB
  8
0
 10
285.0
 20
104.27510599999999
 30
0.0
 11
285.0
 21
100.72489400000001
 31
0.0
  0
LINE
  5
4AC
  8
0
 10
278.5
 20
104.855662
 30
0.0
 11
278.5
 21
100.144338
 31
0.0
  0
LINE
  5
4AD
  8
0
 10
278.5
 20
100.144338
 30
0.0
 11
278.75
 21
100.0
 31
0.0
  0
ARC
  5
4AE
  8
0
 10
281.75
 20
109.53149000000001
 30
0.0
 40
9.3871520000000004
 50
249.7438419999998
 51
290.2561580000002
  0
ARC
  5
4AF
  8
0
 10
281.75
 20
95.468509999999995
 30
0.0
 40
9.3871520000000004
 50
69.743841999999773
 51
110.2561580000002
  0
LINE
  5
4B0
  8
0
 10
278.5
 20
104.855662
 30
0.0
 11
278.75
 21
105.0
 31
0.0
  0
LINE
  5
4B1
  8
0
 10
278.75
 20
105.0
 30
0.0
 11
291.25
 21
105.0
 31
0.0
  0
LINE
  5
4B2
  8
0
 10
291.25
 20
100.0
 30
0.0
 11
278.75
 21
100.0
 31
0.0
  0
LINE
  5
4B3
  8
0
 10
116.5
 20
104.855662
 30
0.0
 11
116.25
 21
105.0
 31
0.0
  0
ARC
  5
4B4
  8
0
 10
113.25
 20
95.468509999999995
 30
0.0
 40
9.3871520000000004
 50
69.743841999999773
 51
110.2561580000002
  0
ARC
  5
4B5
  8
0
 10
113.25
 20
109.53149000000001
 30
0.0
 40
9.3871520000000004
 50
249.7438419999998
 51
290.2561580000002
  0
LINE
  5
4B6
  8
0
 10
116.5
 20
100.144338
 30
0.0
 11
116.25
 21
100.0
 31
0.0
  0
LINE
  5
4B7
  8
0
 10
116.5
 20
104.855662
 30
0.0
 11
116.5
 21
100.144338
 31
0.0
  0
LINE
  5
4B8
  8
0
 10
110.0
 20
104.27510599999999
 30
0.0
 11
110.0
 21
100.72489400000001
 31
0.0
  0
LINE
  5
4B9
  8
0
 10
103.5
 20
104.855662
 30
0.0
 11
103.5
 21
100.144338
 31
0.0
  0
LINE
  5
4BA
  8
0
 10
103.5
 20
100.144338
 30
0.0
 11
103.75
 21
100.0
 31
0.0
  0
ARC
  5
4BB
  8
0
 10
106.75
 20
109.53149000000001
 30
0.0
 40
9.3871520000000004
 50
249.7438419999998
 51
290.2561580000002
  0
ARC
  5
4BC
  8
0
 10
106.75
 20
95.468509999999995
 30
0.0
 40
9.3871520000000004
 50
69.743841999999773
 51
110.2561580000002
  0
LINE
  5
4BD
  8
0
 10
103.5
 20
104.855662
 30
0.0
 11
103.75
 21
105.0
 31
0.0
  0
LINE
  5
4BE
  8
0
 10
103.75
 20
105.0
 30
0.0
 11
116.25
 21
105.0
 31
0.0
  0
LINE
  5
4BF
  8
0
 10
116.25
 20
100.0
 30
0.0
 11
103.75
 21
100.0
 31
0.0
  0
LINE
  5
4C0
  8
1
 10
225.0
 20
218.5
 30
0.0
 11
225.0
 21
191.5
 31
0.0
  0
LINE
  5
4C1
  8
0
 10
233.5
 20
208.020815
 30
0.0
 11
233.14644699999999
 21
208.874369
 31
0.0
  0
LINE
  5
4C2
  8
0
 10
233.5
 20
201.979185
 30
0.0
 11
233.5
 21
208.020815
 31
0.0
  0
LINE
  5
4C3
  8
0
 10
233.14644699999999
 20
201.125631
 30
0.0
 11
233.5
 21
201.979185
 31
0.0
  0
LINE
  5
4C4
  8
0
 10
231.00000199999999
 20
198.979186
 30
0.0
 11
233.14644699999999
 21
201.125631
 31
0.0
  0
LINE
  5
4C5
  8
0
 10
233.14644699999999
 20
208.874369
 30
0.0
 11
231.00000199999999
 21
211.020814
 31
0.0
  0
LINE
  5
4C6
  8
1
 10
238.5
 20
205.0
 30
0.0
 11
143.4620732911267
 21
205.0
 31
0.0
  0
ARC
  5
4C7
  8
0
 10
225.0
 20
205.0
 30
0.0
 40
8.0
 50
318.59039954650228
 51
41.40960045349761
  0
ARC
  5
4C8
  8
0
 10
225.0
 20
205.0
 30
0.0
 40
4.0
 50
122.5534377246553
 51
237.44656227534469
  0
LINE
  5
4C9
  8
0
 10
209.0
 20
138.5
 30
0.0
 11
208.5
 21
139.0
 31
0.0
  0
LINE
  5
4CA
  8
0
 10
208.5
 20
136.0
 30
0.0
 11
209.0
 21
136.5
 31
0.0
  0
LINE
  5
4CB
  8
0
 10
191.0
 20
136.5
 30
0.0
 11
191.5
 21
136.0
 31
0.0
  0
LINE
  5
4CC
  8
0
 10
191.5
 20
139.0
 30
0.0
 11
191.0
 21
138.5
 31
0.0
  0
LINE
  5
4CD
  8
0
 10
191.0
 20
136.5
 30
0.0
 11
191.0
 21
138.5
 31
0.0
  0
LINE
  5
4CE
  8
0
 10
208.5
 20
136.0
 30
0.0
 11
191.5
 21
136.0
 31
0.0
  0
LINE
  5
4CF
  8
0
 10
209.0
 20
138.5
 30
0.0
 11
209.0
 21
136.5
 31
0.0
  0
LINE
  5
4D0
  8
0
 10
191.5
 20
139.0
 30
0.0
 11
208.5
 21
139.0
 31
0.0
  0
ARC
  5
4D1
  8
0
 10
205.4375
 20
146.63174799999999
 30
0.0
 40
3.0256219999999998
 50
53.198083000002363
 51
53.198083000002363
  0
LINE
  5
4D2
  8
0
 10
207.25
 20
149.05439799999999
 30
0.0
 11
206.25
 21
149.63174799999999
 31
0.0
  0
LINE
  5
4D3
  8
0
 10
192.75
 20
149.05439799999999
 30
0.0
 11
193.75
 21
149.63174799999999
 31
0.0
  0
ARC
  5
4D4
  8
0
 10
194.5625
 20
146.63174799999999
 30
0.0
 40
3.0256219999999998
 50
53.198083000002363
 51
113.19808300000049
  0
ARC
  5
4D5
  8
0
 10
194.5625
 20
146.63174799999999
 30
0.0
 40
3.0256219999999998
 50
126.8019169999976
 51
126.8019169999976
  0
LINE
  5
4D6
  8
0
 10
193.75
 20
149.63174799999999
 30
0.0
 11
206.25
 21
149.63174799999999
 31
0.0
  0
LINE
  5
4D7
  8
0
 10
207.25
 20
149.05439799999999
 30
0.0
 11
207.25
 21
141.53174799999999
 31
0.0
  0
LINE
  5
4D8
  8
0
 10
209.0
 20
140.63174799999999
 30
0.0
 11
209.0
 21
139.331748
 31
0.0
  0
LINE
  5
4D9
  8
0
 10
196.375
 20
149.05439799999999
 30
0.0
 11
196.375
 21
141.13174799999999
 31
0.0
  0
LINE
  5
4DA
  8
0
 10
191.0
 20
140.63174799999999
 30
0.0
 11
191.0
 21
139.331748
 31
0.0
  0
LINE
  5
4DB
  8
0
 10
191.5
 20
141.13174799999999
 30
0.0
 11
208.5
 21
141.13174799999999
 31
0.0
  0
ARC
  5
4DC
  8
0
 10
200.0
 20
137.96295799999999
 30
0.0
 40
11.66879
 50
90.0
 51
108.0988730000004
  0
ARC
  5
4DD
  8
0
 10
207.65000000000001
 20
141.53174799999999
 30
0.0
 40
0.4
 50
180.0
 51
270.0
  0
LINE
  5
4DE
  8
0
 10
192.75
 20
149.05439799999999
 30
0.0
 11
192.75
 21
141.53174799999999
 31
0.0
  0
ARC
  5
4DF
  8
0
 10
192.34999999999999
 20
141.53174799999999
 30
0.0
 40
0.4
 50
270.0
 51
0.0
  0
LINE
  5
4E0
  8
0
 10
209.0
 20
140.63174799999999
 30
0.0
 11
208.5
 21
141.13174799999999
 31
0.0
  0
LINE
  5
4E1
  8
0
 10
191.5
 20
141.13174799999999
 30
0.0
 11
191.0
 21
140.63174799999999
 31
0.0
  0
ARC
  5
4E2
  8
0
 10
200.0
 20
159.331748
 30
0.0
 40
21.931712000000001
 50
292.02078169741299
 51
294.22774500000179
  0
ARC
  5
4E3
  8
0
 10
200.0
 20
159.331748
 30
0.0
 40
21.931712000000001
 50
245.7722549999981
 51
247.9792183025871
  0
LINE
  5
4E4
  8
0
 10
191.0
 20
139.331748
 30
0.0
 11
209.0
 21
139.331748
 31
0.0
  0
ARC
  5
4E5
  8
0
 10
200.0
 20
137.96295799999999
 30
0.0
 40
11.66879
 50
71.901126999999562
 51
90.0
  0
LINE
  5
4E6
  8
0
 10
203.625
 20
149.05439799999999
 30
0.0
 11
203.625
 21
141.13174799999999
 31
0.0
  0
ARC
  5
4E7
  8
0
 10
205.4375
 20
146.63174799999999
 30
0.0
 40
3.0256219999999998
 50
66.801916999999492
 51
126.8019169999976
  0
LINE
  5
4E8
  8
2
 10
192.20577136594011
 20
200.5
 30
0.0
 11
231.00000199999999
 21
200.5
 31
0.0
  0
LINE
  5
4E9
  8
2
 10
192.20577136594011
 20
209.5
 30
0.0
 11
231.00000199999999
 21
209.5
 31
0.0
  0
LINE
  5
4EA
  8
2
 10
176.00000199999999
 20
209.5
 30
0.0
 11
176.00000199999999
 21
214.5
 31
0.0
  0
LINE
  5
4EB
  8
2
 10
176.00000199999999
 20
195.5
 30
0.0
 11
176.00000199999999
 21
200.5
 31
0.0
  0
LINE
  5
4EC
  8
2
 10
161.26782800000001
 20
195.5
 30
0.0
 11
161.26782800000001
 21
214.5
 31
0.0
  0
LINE
  5
4ED
  8
1
 10
223.00000199999999
 20
199.0
 30
0.0
 11
223.00000199999999
 21
211.0
 31
0.0
  0
CIRCLE
  5
4EE
  8
3
 10
223.00000199999999
 20
205.0
 30
0.0
 40
4.0
  0
CIRCLE
  5
4EF
  8
0
 10
223.00000199999999
 20
205.0
 30
0.0
 40
3.375
  0
LINE
  5
4F0
  8
0
 10
151.00000199999999
 20
214.0
 30
0.0
 11
151.00000199999999
 21
196.0
 31
0.0
  0
LINE
  5
4F1
  8
0
 10
231.00000199999999
 20
214.0
 30
0.0
 11
231.00000199999999
 21
196.0
 31
0.0
  0
LINE
  5
4F2
  8
0
 10
166.00000199999999
 20
209.5
 30
0.0
 11
192.20577136594011
 21
209.5
 31
0.0
  0
LINE
  5
4F3
  8
0
 10
166.00000199999999
 20
200.5
 30
0.0
 11
192.20577136594011
 21
200.5
 31
0.0
  0
LINE
  5
4F4
  8
0
 10
151.50000199999999
 20
214.5
 30
0.0
 11
230.50000199999999
 21
214.5
 31
0.0
  0
LINE
  5
4F5
  8
0
 10
151.50000199999999
 20
195.5
 30
0.0
 11
230.50000199999999
 21
195.5
 31
0.0
  0
LINE
  5
4F6
  8
0
 10
151.50000199999999
 20
214.5
 30
0.0
 11
151.00000199999999
 21
214.0
 31
0.0
  0
LINE
  5
4F7
  8
0
 10
230.50000199999999
 20
214.5
 30
0.0
 11
231.00000199999999
 21
214.0
 31
0.0
  0
LINE
  5
4F8
  8
0
 10
231.00000199999999
 20
196.0
 30
0.0
 11
230.50000199999999
 21
195.5
 31
0.0
  0
LINE
  5
4F9
  8
0
 10
151.00000199999999
 20
196.0
 30
0.0
 11
151.50000199999999
 21
195.5
 31
0.0
  0
ARC
  5
4FA
  8
0
 10
166.00000199999999
 20
205.0
 30
0.0
 40
4.5
 50
89.999988999997569
 51
269.99998899999758
  0
ARC
  5
4FB
  8
2
 10
200.0
 20
205.0
 30
0.0
 40
4.5
 50
270.00001099999918
 51
90.000011000002416
  0
LINE
  5
4FC
  8
1
 10
166.00000199999999
 20
212.5
 30
0.0
 11
166.00000199999999
 21
197.5
 31
0.0
  0
LINE
  5
4FD
  8
0
 10
175.26782800000001
 20
120.0
 30
0.0
 11
161.26782800000001
 21
121.5
 31
0.0
  0
LINE
  5
4FE
  8
2
 10
219.62500199999999
 20
134.80000000000001
 30
0.0
 11
226.37500199999999
 21
134.80000000000001
 31
0.0
  0
LINE
  5
4FF
  8
2
 10
227.00000199999999
 20
135.42500000000001
 30
0.0
 11
227.00000199999999
 21
125.0
 31
0.0
  0
LINE
  5
500
  8
2
 10
226.37500199999999
 20
134.80000000000001
 30
0.0
 11
226.37500199999999
 21
125.0
 31
0.0
  0
LINE
  5
501
  8
2
 10
227.57500200000001
 20
136.0
 30
0.0
 11
226.37500199999999
 21
134.80000000000001
 31
0.0
  0
LINE
  5
502
  8
2
 10
218.42500200000009
 20
136.0
 30
0.0
 11
219.62500199999999
 21
134.80000000000001
 31
0.0
  0
LINE
  5
503
  8
2
 10
200.0
 20
125.0
 30
0.0
 11
231.00000199999999
 21
125.0
 31
0.0
  0
LINE
  5
504
  8
2
 10
219.62500199999999
 20
134.80000000000001
 30
0.0
 11
219.62500199999999
 21
125.0
 31
0.0
  0
LINE
  5
505
  8
2
 10
219.00000199999999
 20
135.42500000000001
 30
0.0
 11
219.00000199999999
 21
125.0
 31
0.0
  0
LINE
  5
506
  8
1
 10
223.00000199999999
 20
139.0
 30
0.0
 11
223.00000199999999
 21
117.0
 31
0.0
  0
LINE
  5
507
  8
0
 10
151.50000199999999
 20
136.0
 30
0.0
 11
230.50000199999999
 21
136.0
 31
0.0
  0
LINE
  5
508
  8
0
 10
175.26782800000001
 20
120.0
 30
0.0
 11
230.50000199999999
 21
120.0
 31
0.0
  0
LINE
  5
509
  8
0
 10
151.00000199999999
 20
135.5
 30
0.0
 11
151.00000199999999
 21
121.33974600000001
 31
0.0
  0
LINE
  5
50A
  8
0
 10
231.00000199999999
 20
135.5
 30
0.0
 11
231.00000199999999
 21
120.5
 31
0.0
  0
ARC
  5
50B
  8
0
 10
156.00000199999999
 20
130.0
 30
0.0
 40
10.0
 50
240.0
 51
301.78833100000111
  0
LINE
  5
50C
  8
0
 10
151.50000199999999
 20
136.0
 30
0.0
 11
151.00000199999999
 21
135.5
 31
0.0
  0
LINE
  5
50D
  8
0
 10
230.50000199999999
 20
136.0
 30
0.0
 11
231.00000199999999
 21
135.5
 31
0.0
  0
LINE
  5
50E
  8
0
 10
231.00000199999999
 20
120.5
 30
0.0
 11
230.50000199999999
 21
120.0
 31
0.0
  0
LINE
  5
50F
  8
1
 10
166.00000199999999
 20
139.0
 30
0.0
 11
166.00000199999999
 21
117.0
 31
0.0
  0
LINE
  5
510
  8
2
 10
204.5
 20
136.0
 30
0.0
 11
204.5
 21
125.0
 31
0.0
  0
LINE
  5
511
  8
2
 10
161.50000199999999
 20
136.0
 30
0.0
 11
161.50000199999999
 21
121.47512399999999
 31
0.0
  0
LINE
  5
512
  8
0
 10
289.5
 20
125.0
 30
0.0
 11
289.5
 21
120.0
 31
0.0
  0
LINE
  5
513
  8
0
 10
280.5
 20
125.0
 30
0.0
 11
289.5
 21
125.0
 31
0.0
  0
LINE
  5
514
  8
0
 10
280.5
 20
120.0
 30
0.0
 11
280.5
 21
125.0
 31
0.0
  0
LINE
  5
515
  8
0
 10
275.5
 20
135.5
 30
0.0
 11
275.5
 21
120.5
 31
0.0
  0
LINE
  5
516
  8
0
 10
275.5
 20
120.5
 30
0.0
 11
276.0
 21
120.0
 31
0.0
  0
LINE
  5
517
  8
0
 10
276.0
 20
120.0
 30
0.0
 11
294.0
 21
120.0
 31
0.0
  0
LINE
  5
518
  8
0
 10
294.0
 20
120.0
 30
0.0
 11
294.5
 21
120.5
 31
0.0
  0
LINE
  5
519
  8
0
 10
294.5
 20
120.5
 30
0.0
 11
294.5
 21
135.5
 31
0.0
  0
LINE
  5
51A
  8
0
 10
294.5
 20
135.5
 30
0.0
 11
294.0
 21
136.0
 31
0.0
  0
LINE
  5
51B
  8
0
 10
294.0
 20
136.0
 30
0.0
 11
276.0
 21
136.0
 31
0.0
  0
LINE
  5
51C
  8
0
 10
276.0
 20
136.0
 30
0.0
 11
275.5
 21
135.5
 31
0.0
  0
LINE
  5
51D
  8
0
 10
281.97918500000009
 20
113.582542
 30
0.0
 11
281.125631
 21
113.582542
 31
0.0
  0
LINE
  5
51E
  8
0
 10
281.97918500000009
 20
119.417458
 30
0.0
 11
281.125631
 21
119.417458
 31
0.0
  0
LINE
  5
51F
  8
0
 10
276.85355299999998
 20
119.417458
 30
0.0
 11
276.5
 21
119.417458
 31
0.0
  0
LINE
  5
520
  8
0
 10
276.85355299999998
 20
113.582542
 30
0.0
 11
276.5
 21
113.582542
 31
0.0
  0
LINE
  5
521
  8
0
 10
276.85355299999998
 20
113.582542
 30
0.0
 11
276.85355299999998
 21
119.417458
 31
0.0
  0
ARC
  5
522
  8
0
 10
278.98959200000002
 20
121.198759
 30
0.0
 40
7.9100839999999986
 50
254.33335399999899
 51
285.66664600000098
  0
ARC
  5
523
  8
0
 10
278.98959200000002
 20
111.801241
 30
0.0
 40
7.9100839999999986
 50
74.333353999999005
 51
105.66664600000099
  0
LINE
  5
524
  8
0
 10
281.125631
 20
113.582542
 30
0.0
 11
281.125631
 21
119.417458
 31
0.0
  0
ARC
  5
525
  8
0
 10
291.01040799999998
 20
121.198759
 30
0.0
 40
7.9100839999999986
 50
254.33335399999899
 51
285.66664600000098
  0
ARC
  5
526
  8
0
 10
285.0
 20
128.96190999999999
 30
0.0
 40
15.673235
 50
258.88743300000021
 51
281.11256699999967
  0
LINE
  5
527
  8
0
 10
288.874369
 20
113.582542
 30
0.0
 11
288.02081500000008
 21
113.582542
 31
0.0
  0
LINE
  5
528
  8
0
 10
293.14644700000008
 20
113.582542
 30
0.0
 11
293.5
 21
113.582542
 31
0.0
  0
LINE
  5
529
  8
0
 10
293.14644700000008
 20
119.417458
 30
0.0
 11
293.5
 21
119.417458
 31
0.0
  0
LINE
  5
52A
  8
0
 10
288.874369
 20
119.417458
 30
0.0
 11
288.02081500000008
 21
119.417458
 31
0.0
  0
ARC
  5
52B
  8
0
 10
285.0
 20
104.03809
 30
0.0
 40
15.673235
 50
78.887433000000286
 51
101.1125669999997
  0
ARC
  5
52C
  8
0
 10
291.01040799999998
 20
111.801241
 30
0.0
 40
7.9100839999999986
 50
74.333353999999005
 51
105.66664600000099
  0
LINE
  5
52D
  8
0
 10
281.97918500000009
 20
113.582542
 30
0.0
 11
281.97918500000009
 21
119.417458
 31
0.0
  0
LINE
  5
52E
  8
0
 10
288.02081500000008
 20
113.582542
 30
0.0
 11
288.02081500000008
 21
119.417458
 31
0.0
  0
LINE
  5
52F
  8
0
 10
288.874369
 20
113.582542
 30
0.0
 11
288.874369
 21
119.417458
 31
0.0
  0
LINE
  5
530
  8
0
 10
293.14644700000008
 20
113.582542
 30
0.0
 11
293.14644700000008
 21
119.417458
 31
0.0
  0
ARC
  5
531
  8
0
 10
289.39999999999998
 20
120.40000000000001
 30
0.0
 40
0.4
 50
180.0
 51
270.0
  0
ARC
  5
532
  8
0
 10
280.60000000000002
 20
120.40000000000001
 30
0.0
 40
0.4
 50
270.0
 51
0.0
  0
LINE
  5
533
  8
0
 10
276.5
 20
113.288675
 30
0.0
 11
277.0
 21
113.0
 31
0.0
  0
LINE
  5
534
  8
0
 10
276.5
 20
119.711325
 30
0.0
 11
277.0
 21
120.0
 31
0.0
  0
LINE
  5
535
  8
0
 10
276.5
 20
113.288675
 30
0.0
 11
276.5
 21
119.711325
 31
0.0
  0
LINE
  5
536
  8
0
 10
277.0
 20
113.0
 30
0.0
 11
293.0
 21
113.0
 31
0.0
  0
LINE
  5
537
  8
0
 10
293.0
 20
120.0
 30
0.0
 11
277.0
 21
120.0
 31
0.0
  0
LINE
  5
538
  8
0
 10
293.5
 20
113.288675
 30
0.0
 11
293.5
 21
119.711325
 31
0.0
  0
LINE
  5
539
  8
0
 10
293.5
 20
119.711325
 30
0.0
 11
293.0
 21
120.0
 31
0.0
  0
LINE
  5
53A
  8
0
 10
293.5
 20
113.288675
 30
0.0
 11
293.0
 21
113.0
 31
0.0
  0
LINE
  5
53B
  8
0
 10
289.0
 20
123.5
 30
0.0
 11
281.0
 21
123.5
 31
0.0
  0
LINE
  5
53C
  8
0
 10
288.5
 20
124.0
 30
0.0
 11
289.0
 21
123.5
 31
0.0
  0
LINE
  5
53D
  8
0
 10
281.5
 20
124.0
 30
0.0
 11
281.0
 21
123.5
 31
0.0
  0
LINE
  5
53E
  8
0
 10
281.5
 20
124.0
 30
0.0
 11
288.5
 21
124.0
 31
0.0
  0
LINE
  5
53F
  8
0
 10
281.0
 20
113.0
 30
0.0
 11
281.0
 21
105.0000000000001
 31
0.0
  0
LINE
  5
540
  8
0
 10
281.0
 20
100.0
 30
0.0
 11
281.0
 21
74.200000000000003
 31
0.0
  0
LINE
  5
541
  8
0
 10
282.19999999999999
 20
73.0
 30
0.0
 11
287.80000000000013
 21
73.0
 31
0.0
  0
LINE
  5
542
  8
0
 10
281.0
 20
74.200000000000003
 30
0.0
 11
282.19999999999999
 21
73.0
 31
0.0
  0
LINE
  5
543
  8
0
 10
281.0
 20
74.200000000000003
 30
0.0
 11
289.0
 21
74.200000000000003
 31
0.0
  0
LINE
  5
544
  8
3
 10
281.75
 20
111.0
 30
0.0
 11
281.75
 21
105.0000000000002
 31
0.0
  0
LINE
  5
545
  8
3
 10
281.75
 20
100.0
 30
0.0
 11
281.75
 21
73.450000000000003
 31
0.0
  0
LINE
  5
546
  8
3
 10
288.25
 20
111.0
 30
0.0
 11
288.25
 21
105.0000000000005
 31
0.0
  0
LINE
  5
547
  8
3
 10
288.25
 20
100.0
 30
0.0
 11
288.25
 21
73.450000000000003
 31
0.0
  0
LINE
  5
548
  8
0
 10
289.0
 20
74.200000000000003
 30
0.0
 11
287.80000000000013
 21
73.0
 31
0.0
  0
LINE
  5
549
  8
0
 10
289.0
 20
113.0
 30
0.0
 11
289.0
 21
105.0000000000005
 31
0.0
  0
LINE
  5
54A
  8
0
 10
289.0
 20
100.0
 30
0.0
 11
289.0
 21
74.200000000000003
 31
0.0
  0
LINE
  5
54B
  8
0
 10
281.0
 20
123.5
 30
0.0
 11
281.0
 21
120.40000000000001
 31
0.0
  0
LINE
  5
54C
  8
0
 10
289.0
 20
123.5
 30
0.0
 11
289.0
 21
120.40000000000001
 31
0.0
  0
LINE
  5
54D
  8
3
 10
281.75
 20
111.0
 30
0.0
 11
281.0
 21
112.299038
 31
0.0
  0
LINE
  5
54E
  8
3
 10
288.25
 20
111.0
 30
0.0
 11
289.0
 21
112.299038
 31
0.0
  0
LINE
  5
54F
  8
0
 10
281.0
 20
111.0
 30
0.0
 11
289.0
 21
111.0
 31
0.0
  0
LINE
  5
550
  8
1
 10
285.0
 20
171.95150405675619
 30
0.0
 11
285.0
 21
68.0
 31
0.0
  0
LINE
  5
551
  8
0
 10
294.0
 20
138.5
 30
0.0
 11
293.5
 21
139.0
 31
0.0
  0
LINE
  5
552
  8
0
 10
293.5
 20
136.0
 30
0.0
 11
294.0
 21
136.5
 31
0.0
  0
LINE
  5
553
  8
0
 10
276.0
 20
136.5
 30
0.0
 11
276.5
 21
136.0
 31
0.0
  0
LINE
  5
554
  8
0
 10
276.5
 20
139.0
 30
0.0
 11
276.0
 21
138.5
 31
0.0
  0
LINE
  5
555
  8
0
 10
276.0
 20
136.5
 30
0.0
 11
276.0
 21
138.5
 31
0.0
  0
LINE
  5
556
  8
0
 10
293.5
 20
136.0
 30
0.0
 11
276.5
 21
136.0
 31
0.0
  0
LINE
  5
557
  8
0
 10
294.0
 20
138.5
 30
0.0
 11
294.0
 21
136.5
 31
0.0
  0
LINE
  5
558
  8
0
 10
276.5
 20
139.0
 30
0.0
 11
293.5
 21
139.0
 31
0.0
  0
ARC
  5
559
  8
0
 10
291.89996900000011
 20
141.53174799999999
 30
0.0
 40
0.4
 50
180.0
 51
270.0
  0
LINE
  5
55A
  8
0
 10
284.99996900000002
 20
148.90685400000001
 30
0.0
 11
284.99996900000002
 21
145.35664199999999
 31
0.0
  0
ARC
  5
55B
  8
0
 10
288.24996900000008
 20
141.983754
 30
0.0
 40
7.6479939999999997
 50
64.852624000001043
 51
115.1473759999989
  0
ARC
  5
55C
  8
0
 10
281.74996900000008
 20
141.983754
 30
0.0
 40
7.6479939999999997
 50
64.852624000001043
 51
115.1473759999989
  0
LINE
  5
55D
  8
0
 10
291.09996899999999
 20
149.63174799999999
 30
0.0
 11
291.49996900000008
 21
149.23174800000001
 31
0.0
  0
LINE
  5
55E
  8
0
 10
278.89996900000011
 20
149.63174799999999
 30
0.0
 11
278.49996900000008
 21
149.23174800000001
 31
0.0
  0
LINE
  5
55F
  8
0
 10
291.09996899999999
 20
149.63174799999999
 30
0.0
 11
278.89996900000011
 21
149.63174799999999
 31
0.0
  0
LINE
  5
560
  8
0
 10
291.49996900000008
 20
141.53174799999999
 30
0.0
 11
291.49996900000008
 21
149.23174800000001
 31
0.0
  0
LINE
  5
561
  8
0
 10
284.99996900000002
 20
148.90685400000001
 30
0.0
 11
284.99996900000002
 21
141.13174799999999
 31
0.0
  0
LINE
  5
562
  8
0
 10
278.49996299999998
 20
141.53174799999999
 30
0.0
 11
278.49996299999998
 21
149.23174800000001
 31
0.0
  0
ARC
  5
563
  8
0
 10
278.099963
 20
141.53174799999999
 30
0.0
 40
0.4
 50
270.0
 51
0.0
  0
LINE
  5
564
  8
0
 10
294.0
 20
140.63174799999999
 30
0.0
 11
294.0
 21
139.331748
 31
0.0
  0
LINE
  5
565
  8
0
 10
276.0
 20
140.63174799999999
 30
0.0
 11
276.0
 21
139.331748
 31
0.0
  0
LINE
  5
566
  8
0
 10
276.5
 20
141.13174799999999
 30
0.0
 11
293.5
 21
141.13174799999999
 31
0.0
  0
LINE
  5
567
  8
0
 10
294.0
 20
140.63174799999999
 30
0.0
 11
293.5
 21
141.13174799999999
 31
0.0
  0
LINE
  5
568
  8
0
 10
276.5
 20
141.13174799999999
 30
0.0
 11
276.0
 21
140.63174799999999
 31
0.0
  0
ARC
  5
569
  8
0
 10
285.0
 20
159.331748
 30
0.0
 40
21.931712000000001
 50
292.02078169741299
 51
294.22774499999832
  0
ARC
  5
56A
  8
0
 10
285.0
 20
159.331748
 30
0.0
 40
21.931712000000001
 50
245.77225500000171
 51
247.9792183025871
  0
LINE
  5
56B
  8
0
 10
276.0
 20
139.331748
 30
0.0
 11
294.0
 21
139.331748
 31
0.0
  0
LINE
  5
56C
  8
0
 10
119.5
 20
121.740771
 30
0.0
 11
100.5
 21
121.740771
 31
0.0
  0
LINE
  5
56D
  8
0
 10
119.5
 20
135.5
 30
0.0
 11
119.5
 21
120.5
 31
0.0
  0
LINE
  5
56E
  8
0
 10
119.5
 20
120.5
 30
0.0
 11
119.0
 21
120.0
 31
0.0
  0
LINE
  5
56F
  8
0
 10
119.0
 20
120.0
 30
0.0
 11
101.0
 21
120.0
 31
0.0
  0
LINE
  5
570
  8
0
 10
101.0
 20
120.0
 30
0.0
 11
100.5
 21
120.5
 31
0.0
  0
LINE
  5
571
  8
0
 10
100.5
 20
120.5
 30
0.0
 11
100.5
 21
135.5
 31
0.0
  0
LINE
  5
572
  8
0
 10
100.5
 20
135.5
 30
0.0
 11
101.0
 21
136.0
 31
0.0
  0
LINE
  5
573
  8
0
 10
101.0
 20
136.0
 30
0.0
 11
119.0
 21
136.0
 31
0.0
  0
LINE
  5
574
  8
0
 10
119.0
 20
136.0
 30
0.0
 11
119.5
 21
135.5
 31
0.0
  0
LINE
  5
575
  8
0
 10
119.0
 20
138.5
 30
0.0
 11
118.5
 21
139.0
 31
0.0
  0
LINE
  5
576
  8
0
 10
118.5
 20
136.0
 30
0.0
 11
119.0
 21
136.5
 31
0.0
  0
LINE
  5
577
  8
0
 10
101.0
 20
136.5
 30
0.0
 11
101.5
 21
136.0
 31
0.0
  0
LINE
  5
578
  8
0
 10
101.5
 20
139.0
 30
0.0
 11
101.0
 21
138.5
 31
0.0
  0
LINE
  5
579
  8
0
 10
101.0
 20
136.5
 30
0.0
 11
101.0
 21
138.5
 31
0.0
  0
LINE
  5
57A
  8
0
 10
118.5
 20
136.0
 30
0.0
 11
101.5
 21
136.0
 31
0.0
  0
LINE
  5
57B
  8
0
 10
119.0
 20
138.5
 30
0.0
 11
119.0
 21
136.5
 31
0.0
  0
LINE
  5
57C
  8
0
 10
101.5
 20
139.0
 30
0.0
 11
118.5
 21
139.0
 31
0.0
  0
ARC
  5
57D
  8
0
 10
116.899969
 20
141.53174799999999
 30
0.0
 40
0.4
 50
180.0
 51
270.0
  0
LINE
  5
57E
  8
0
 10
109.99996899999999
 20
148.90685400000001
 30
0.0
 11
109.99996899999999
 21
145.35664199999999
 31
0.0
  0
ARC
  5
57F
  8
0
 10
113.24996899999999
 20
141.983754
 30
0.0
 40
7.6479939999999997
 50
64.852624000001043
 51
115.1473759999989
  0
ARC
  5
580
  8
0
 10
106.74996899999999
 20
141.983754
 30
0.0
 40
7.6479939999999997
 50
64.852624000001043
 51
115.1473759999989
  0
LINE
  5
581
  8
0
 10
116.099969
 20
149.63174799999999
 30
0.0
 11
116.49996899999999
 21
149.23174800000001
 31
0.0
  0
LINE
  5
582
  8
0
 10
103.899969
 20
149.63174799999999
 30
0.0
 11
103.49996899999999
 21
149.23174800000001
 31
0.0
  0
LINE
  5
583
  8
0
 10
116.099969
 20
149.63174799999999
 30
0.0
 11
103.899969
 21
149.63174799999999
 31
0.0
  0
LINE
  5
584
  8
0
 10
116.49996899999999
 20
141.53174799999999
 30
0.0
 11
116.49996899999999
 21
149.23174800000001
 31
0.0
  0
LINE
  5
585
  8
0
 10
109.99996899999999
 20
148.90685400000001
 30
0.0
 11
109.99996899999999
 21
141.13174799999999
 31
0.0
  0
LINE
  5
586
  8
0
 10
103.49996299999999
 20
141.53174799999999
 30
0.0
 11
103.49996299999999
 21
149.23174800000001
 31
0.0
  0
ARC
  5
587
  8
0
 10
103.099963
 20
141.53174799999999
 30
0.0
 40
0.4
 50
270.0
 51
0.0
  0
LINE
  5
588
  8
0
 10
119.0
 20
140.63174799999999
 30
0.0
 11
119.0
 21
139.331748
 31
0.0
  0
LINE
  5
589
  8
0
 10
101.0
 20
140.63174799999999
 30
0.0
 11
101.0
 21
139.331748
 31
0.0
  0
LINE
  5
58A
  8
0
 10
101.5
 20
141.13174799999999
 30
0.0
 11
118.5
 21
141.13174799999999
 31
0.0
  0
LINE
  5
58B
  8
0
 10
119.0
 20
140.63174799999999
 30
0.0
 11
118.5
 21
141.13174799999999
 31
0.0
  0
LINE
  5
58C
  8
0
 10
101.5
 20
141.13174799999999
 30
0.0
 11
101.0
 21
140.63174799999999
 31
0.0
  0
ARC
  5
58D
  8
0
 10
110.0
 20
159.331748
 30
0.0
 40
21.931712000000001
 50
292.02078169741299
 51
294.22774500000179
  0
ARC
  5
58E
  8
0
 10
110.0
 20
159.331748
 30
0.0
 40
21.931712000000001
 50
245.7722549999981
 51
247.9792183025871
  0
LINE
  5
58F
  8
0
 10
101.0
 20
139.331748
 30
0.0
 11
119.0
 21
139.331748
 31
0.0
  0
LINE
  5
590
  8
3
 10
288.39999999999998
 20
149.63174799999999
 30
0.0
 11
288.39999999999998
 21
165.40000000000001
 31
0.0
  0
LINE
  5
591
  8
0
 10
281.0
 20
164.80000000000001
 30
0.0
 11
289.0
 21
164.80000000000001
 31
0.0
  0
LINE
  5
592
  8
0
 10
287.80000000000013
 20
166.0
 30
0.0
 11
289.0
 21
164.80000000000001
 31
0.0
  0
LINE
  5
593
  8
0
 10
281.0
 20
164.80000000000001
 30
0.0
 11
282.19999999999999
 21
166.0
 31
0.0
  0
LINE
  5
594
  8
0
 10
289.0
 20
164.80000000000001
 30
0.0
 11
289.0
 21
149.63174799999999
 31
0.0
  0
LINE
  5
595
  8
0
 10
282.19999999999999
 20
166.0
 30
0.0
 11
287.80000000000013
 21
166.0
 31
0.0
  0
LINE
  5
596
  8
0
 10
281.0
 20
149.63174799999999
 30
0.0
 11
281.0
 21
164.80000000000001
 31
0.0
  0
LINE
  5
597
  8
3
 10
281.60000000000002
 20
149.63174799999999
 30
0.0
 11
281.60000000000002
 21
165.40000000000001
 31
0.0
  0
LINE
  5
598
  8
0
 10
106.0
 20
87.200000000000003
 30
0.0
 11
106.0
 21
74.200000000000003
 31
0.0
  0
LINE
  5
599
  8
0
 10
107.2
 20
73.0
 30
0.0
 11
112.8000000000001
 21
73.0
 31
0.0
  0
LINE
  5
59A
  8
0
 10
106.0
 20
74.200000000000003
 30
0.0
 11
107.2
 21
73.0
 31
0.0
  0
LINE
  5
59B
  8
0
 10
106.0
 20
74.200000000000003
 30
0.0
 11
114.0
 21
74.200000000000003
 31
0.0
  0
LINE
  5
59C
  8
3
 10
106.75
 20
86.450000000000017
 30
0.0
 11
106.75
 21
73.450000000000003
 31
0.0
  0
LINE
  5
59D
  8
3
 10
113.25
 20
86.450000000000017
 30
0.0
 11
113.25
 21
73.450000000000003
 31
0.0
  0
LINE
  5
59E
  8
0
 10
114.0
 20
74.200000000000003
 30
0.0
 11
112.8000000000001
 21
73.0
 31
0.0
  0
LINE
  5
59F
  8
0
 10
114.0
 20
87.200000000000003
 30
0.0
 11
114.0
 21
74.200000000000003
 31
0.0
  0
LINE
  5
616
  8
0
 10
101.85355300000001
 20
119.417458
 30
0.0
 11
101.5
 21
119.417458
 31
0.0
  0
LINE
  5
617
  8
0
 10
101.85355300000001
 20
113.582542
 30
0.0
 11
101.5
 21
113.582542
 31
0.0
  0
LINE
  5
618
  8
0
 10
101.85355300000001
 20
113.582542
 30
0.0
 11
101.85355300000001
 21
119.417458
 31
0.0
  0
ARC
  5
619
  8
0
 10
103.989592
 20
121.198759
 30
0.0
 40
7.9100839999999986
 50
254.3333540000007
 51
284.72367499809889
  0
ARC
  5
61A
  8
0
 10
103.989592
 20
111.801241
 30
0.0
 40
7.9100839999999986
 50
75.276325001901043
 51
105.6666459999993
  0
ARC
  5
61B
  8
0
 10
116.010408
 20
121.198759
 30
0.0
 40
7.9100839999999986
 50
255.276325001901
 51
285.66664599999928
  0
LINE
  5
61C
  8
0
 10
118.14644699999999
 20
113.582542
 30
0.0
 11
118.5
 21
113.582542
 31
0.0
  0
LINE
  5
61D
  8
0
 10
118.14644699999999
 20
119.417458
 30
0.0
 11
118.5
 21
119.417458
 31
0.0
  0
ARC
  5
61E
  8
0
 10
116.010408
 20
111.801241
 30
0.0
 40
7.9100839999999986
 50
74.333354000000668
 51
104.7236749980989
  0
LINE
  5
61F
  8
0
 10
118.14644699999999
 20
113.582542
 30
0.0
 11
118.14644699999999
 21
119.417458
 31
0.0
  0
LINE
  5
620
  8
0
 10
101.5
 20
113.288675
 30
0.0
 11
102.0
 21
113.0
 31
0.0
  0
LINE
  5
621
  8
0
 10
101.5
 20
119.711325
 30
0.0
 11
102.0
 21
120.0
 31
0.0
  0
LINE
  5
622
  8
0
 10
101.5
 20
113.288675
 30
0.0
 11
101.5
 21
119.711325
 31
0.0
  0
LINE
  5
623
  8
0
 10
102.0
 20
113.0
 30
0.0
 11
106.0
 21
113.0
 31
0.0
  0
LINE
  5
624
  8
0
 10
114.0
 20
113.0
 30
0.0
 11
118.0
 21
113.0
 31
0.0
  0
LINE
  5
625
  8
0
 10
118.5
 20
113.288675
 30
0.0
 11
118.5
 21
119.711325
 31
0.0
  0
LINE
  5
626
  8
0
 10
118.5
 20
119.711325
 30
0.0
 11
118.0
 21
120.0
 31
0.0
  0
LINE
  5
627
  8
0
 10
118.5
 20
113.288675
 30
0.0
 11
118.0
 21
113.0
 31
0.0
  0
TEXT
  5
681
  8
0
 62
     3
 10
0.0
 20
0.0
 30
0.0
 40
10.0
  1
BJ156-08080A2
  7
STANDARD1
  0
ENDSEC
  0
EOF
