  0
SECTION
  2
HEADER
  9
$ACADVER
  1
AC1009
  9
$INSBASE
 10
82.638099999999994
 20
103.82319099999999
 30
0.0
  9
$EXTMIN
 10
0.0
 20
-2.960436562073669
 30
0.0
  9
$EXTMAX
 10
291.7065302324724
 20
279.85693656387878
 30
0.0
  9
$LIMMIN
 10
0.0
 20
0.0
  9
$LIMMAX
 10
375.0
 20
270.0
  9
$ORTHOMODE
 70
     1
  9
$REGENMODE
 70
     1
  9
$FILLMODE
 70
     1
  9
$QTEXTMODE
 70
     0
  9
$MIRRTEXT
 70
     0
  9
$DRAGMODE
 70
     2
  9
$LTSCALE
 40
10.0
  9
$OSMODE
 70
  3071
  9
$ATTMODE
 70
     1
  9
$TEXTSIZE
 40
0.06
  9
$TRACEWID
 40
0.05
  9
$TEXTSTYLE
  7
STANDARD
  9
$CLAYER
  8
0
  9
$CELTYPE
  6
BYLAYER
  9
$CECOLOR
 62
   256
  9
$DIMSCALE
 40
1.0
  9
$DIMASZ
 40
3.0
  9
$DIMEXO
 40
2.0
  9
$DIMDLI
 40
10.0
  9
$DIMRND
 40
0.0
  9
$DIMDLE
 40
0.0
  9
$DIMEXE
 40
2.0
  9
$DIMTP
 40
0.0
  9
$DIMTM
 40
0.0
  9
$DIMTXT
 40
3.0
  9
$DIMCEN
 40
0.0
  9
$DIMTSZ
 40
0.0
  9
$DIMTOL
 70
     0
  9
$DIMLIM
 70
     0
  9
$DIMTIH
 70
     0
  9
$DIMTOH
 70
     0
  9
$DIMSE1
 70
     0
  9
$DIMSE2
 70
     0
  9
$DIMTAD
 70
     1
  9
$DIMZIN
 70
     0
  9
$DIMBLK
  1

  9
$DIMASO
 70
     0
  9
$DIMSHO
 70
     0
  9
$DIMPOST
  1

  9
$DIMAPOST
  1

  9
$DIMALT
 70
     0
  9
$DIMALTD
 70
     2
  9
$DIMALTF
 40
25.399999999999999
  9
$DIMLFAC
 40
1.0
  9
$DIMTOFL
 70
     1
  9
$DIMTVP
 40
1.6000000000000001
  9
$DIMTIX
 70
     1
  9
$DIMSOXD
 70
     0
  9
$DIMSAH
 70
     0
  9
$DIMBLK1
  1

  9
$DIMBLK2
  1

  9
$DIMSTYLE
  2
STANDARD
  9
$DIMCLRD
 70
     0
  9
$DIMCLRE
 70
     0
  9
$DIMCLRT
 70
     0
  9
$DIMTFAC
 40
1.0
  9
$DIMGAP
 40
0.09
  9
$LUNITS
 70
     2
  9
$LUPREC
 70
     4
  9
$SKETCHINC
 40
0.1
  9
$FILLETRAD
 40
0.0
  9
$AUNITS
 70
     0
  9
$AUPREC
 70
     4
  9
$MENU
  1
E:\r13\win\SUPPORT\ACAD
  9
$ELEVATION
 40
0.0
  9
$PELEVATION
 40
0.0
  9
$THICKNESS
 40
0.0
  9
$LIMCHECK
 70
     0
  9
$BLIPMODE
 70
     0
  9
$CHAMFERA
 40
0.0
  9
$CHAMFERB
 40
0.0
  9
$SKPOLY
 70
     0
  9
$TDCREATE
 40
2449840.348113426
  9
$TDUPDATE
 40
2456597.6382718291
  9
$TDINDWG
 40
0.2282162037
  9
$TDUSRTIMER
 40
0.2282162037
  9
$USRTIMER
 70
     1
  9
$ANGBASE
 50
0.0
  9
$ANGDIR
 70
     0
  9
$PDMODE
 70
     1
  9
$PDSIZE
 40
0.0
  9
$PLINEWID
 40
0.0
  9
$COORDS
 70
     1
  9
$SPLFRAME
 70
     0
  9
$SPLINETYPE
 70
     6
  9
$SPLINESEGS
 70
     8
  9
$ATTDIA
 70
     0
  9
$ATTREQ
 70
     1
  9
$HANDLING
 70
     1
  9
$HANDSEED
  5
4D05
  9
$SURFTAB1
 70
     6
  9
$SURFTAB2
 70
     6
  9
$SURFTYPE
 70
     6
  9
$SURFU
 70
     6
  9
$SURFV
 70
     6
  9
$UCSNAME
  2

  9
$UCSORG
 10
0.0
 20
0.0
 30
0.0
  9
$UCSXDIR
 10
1.0
 20
0.0
 30
0.0
  9
$UCSYDIR
 10
0.0
 20
1.0
 30
0.0
  9
$PUCSNAME
  2

  9
$PUCSORG
 10
0.0
 20
0.0
 30
0.0
  9
$PUCSXDIR
 10
1.0
 20
0.0
 30
0.0
  9
$PUCSYDIR
 10
0.0
 20
1.0
 30
0.0
  9
$USERI1
 70
     3
  9
$USERI2
 70
     1
  9
$USERI3
 70
     0
  9
$USERI4
 70
     0
  9
$USERI5
 70
     0
  9
$USERR1
 40
1.0
  9
$USERR2
 40
3.0
  9
$USERR3
 40
3.0
  9
$USERR4
 40
3.0
  9
$USERR5
 40
10.0
  9
$WORLDVIEW
 70
     1
  9
$SHADEDGE
 70
     3
  9
$SHADEDIF
 70
    70
  9
$TILEMODE
 70
     1
  9
$MAXACTVP
 70
    16
  9
$PLIMCHECK
 70
     0
  9
$PEXTMIN
 10
1.0000000000000000E+020
 20
1.0000000000000000E+020
 30
1.0000000000000000E+020
  9
$PEXTMAX
 10
-1.0000000000000000E+020
 20
-1.0000000000000000E+020
 30
-1.0000000000000000E+020
  9
$PLIMMIN
 10
0.0
 20
0.0
  9
$PLIMMAX
 10
12.0
 20
9.0
  9
$UNITMODE
 70
     0
  9
$VISRETAIN
 70
     0
  9
$PLINEGEN
 70
     0
  9
$PSLTSCALE
 70
     0
  0
ENDSEC
  0
SECTION
  2
TABLES
  0
TABLE
  2
VPORT
 70
     1
  0
VPORT
  2
*ACTIVE
 70
     0
 10
0.0
 20
0.0
 11
1.0
 21
1.0
 12
195.33152092406661
 22
138.44454733976431
 13
0.0
 23
0.0
 14
5.0
 24
5.0
 15
10.0
 25
10.0
 16
0.0
 26
0.0
 36
1.0
 17
0.0
 27
0.0
 37
0.0
 40
285.37855916699152
 41
1.831871345029239
 42
50.0
 43
0.0
 44
0.0
 50
0.0
 51
0.0
 71
     0
 72
   100
 73
     1
 74
     0
 75
     0
 76
     0
 77
     0
 78
     0
  0
ENDTAB
  0
TABLE
  2
LTYPE
 70
     4
  0
LTYPE
  2
CONTINUOUS
 70
     0
  3
Solid Line
 72
    65
 73
     0
 40
0.0
  0
LTYPE
  2
CENTER
 70
     0
  3
____ _ ____ _ ____ _ ____ _ ____ _ ____ _ ____
 72
    65
 73
     4
 40
2.0
 49
1.25
 49
-0.25
 49
0.25
 49
-0.25
  0
LTYPE
  2
HIDDEN
 70
     0
  3
__ __ __ __ __ __ __ __ __ __ __ __ __ __ __ __
 72
    65
 73
     2
 40
0.375
 49
0.25
 49
-0.125
  0
LTYPE
  2
PHANTOM2
 70
     0
  3
___ _ _ ___ _ _ ___ _ _ ___ _ _
 72
    65
 73
     6
 40
1.25
 49
0.625
 49
-0.125
 49
0.125
 49
-0.125
 49
0.125
 49
-0.125
  0
ENDTAB
  0
TABLE
  2
LAYER
 70
     5
  0
LAYER
  2
0
 70
     0
 62
     7
  6
CONTINUOUS
  0
LAYER
  2
1
 70
     0
 62
     1
  6
CENTER
  0
LAYER
  2
2
 70
     0
 62
     2
  6
HIDDEN
  0
LAYER
  2
3
 70
     0
 62
     3
  6
CONTINUOUS
  0
LAYER
  2
DEFPOINTS
 70
     0
 62
     7
  6
CONTINUOUS
  0
ENDTAB
  0
TABLE
  2
STYLE
 70
     2
  0
STYLE
  2
STANDARD
 70
     0
 40
0.0
 41
1.0
 50
0.0
 71
     0
 42
0.06
  3
TXT
  4
BIGFONT
  0
STYLE
  2
STANDARD1
 70
     0
 40
0.0
 41
1.0
 50
0.0
 71
     0
 42
3.0
  3
txt
  4

  0
ENDTAB
  0
TABLE
  2
VIEW
 70
     0
  0
ENDTAB
  0
TABLE
  2
UCS
 70
     0
  0
ENDTAB
  0
TABLE
  2
APPID
 70
     3
  0
APPID
  2
ACAD
 70
     0
  0
APPID
  2
ACAD_MLEADERVER
 70
     0
  0
APPID
  2
ACAD_NAV_VCDISPLAY
 70
     0
  0
ENDTAB
  0
TABLE
  2
DIMSTYLE
 70
     1
  0
DIMSTYLE
  2
STANDARD
 70
     0
  3

  4

  5

  6

  7

 40
1.0
 41
0.18
 42
0.0625
 43
0.38
 44
0.18
 45
0.0
 46
0.0
 47
0.0
 48
0.0
140
0.18
141
0.09
142
0.0
143
25.399999999999999
144
1.0
145
0.0
146
1.0
147
0.09
 71
     0
 72
     0
 73
     1
 74
     1
 75
     0
 76
     0
 77
     0
 78
     0
170
     0
171
     2
172
     0
173
     0
174
     0
175
     0
176
     0
177
     0
178
     0
  0
ENDTAB
  0
ENDSEC
  0
SECTION
  2
BLOCKS
  0
BLOCK
  8
0
  2
$MODEL_SPACE
 70
     0
 10
0.0
 20
0.0
 30
0.0
  3
$MODEL_SPACE
  1

  0
ENDBLK
  5
223
  8
0
  0
BLOCK
 67
     1
  8
0
  2
$PAPER_SPACE
 70
     0
 10
0.0
 20
0.0
 30
0.0
  3
$PAPER_SPACE
  1

  0
ENDBLK
  5
221
 67
     1
  8
0
  0
ENDSEC
  0
SECTION
  2
ENTITIES
  0
ARC
  5
40C7
  8
0
 10
158.7065302324736
 20
31.856936563878548
 30
0.0
 40
13.9999999999984
 50
50.791603809979293
 51
61.174550839588868
  0
ARC
  5
40C8
  8
0
 10
158.7065302324736
 20
31.856936563878548
 30
0.0
 40
13.99999999999851
 50
118.8254491604113
 51
129.20839619002081
  0
LINE
  5
40CC
  8
0
 10
166.7065302324736
 20
121.8569365638774
 30
0.0
 11
166.7065302324736
 21
190.62993656387749
 31
0.0
  0
LINE
  5
40CD
  8
0
 10
150.7065302324736
 20
190.62993656387749
 30
0.0
 11
150.7065302324736
 21
121.8569365638774
 31
0.0
  0
LINE
  5
40CF
  8
0
 10
166.7065302324736
 20
190.62993656387749
 30
0.0
 11
165.47953023247351
 21
191.85693656387741
 31
0.0
  0
LINE
  5
40D0
  8
0
 10
151.9335302324734
 20
191.85693656387741
 30
0.0
 11
150.7065302324736
 21
190.62993656387749
 31
0.0
  0
LINE
  5
40D1
  8
0
 10
165.4565302324736
 20
44.122233135913433
 30
0.0
 11
165.4565302324736
 21
75.856936563877412
 31
0.0
  0
LINE
  5
40D2
  8
0
 10
151.9565302324736
 20
75.85693656387599
 30
0.0
 11
151.9565302324736
 21
44.122233135913433
 31
0.0
  0
LINE
  5
40D3
  8
0
 10
172.7065302324736
 20
62.856936563877412
 30
0.0
 11
172.7065302324736
 21
55.856936563877412
 31
0.0
  0
LINE
  5
40D4
  8
0
 10
204.7065302324736
 20
55.856936563877412
 30
0.0
 11
204.7065302324736
 21
62.856936563877412
 31
0.0
  0
LINE
  5
40D5
  8
0
 10
177.7065302324736
 20
70.85693656387744
 30
0.0
 11
177.7065302324736
 21
62.856936563877412
 31
0.0
  0
LINE
  5
40D6
  8
0
 10
199.7065302324736
 20
62.856936563877412
 30
0.0
 11
199.7065302324736
 21
70.85693656387744
 31
0.0
  0
LINE
  5
40D7
  8
0
 10
180.7065302324736
 20
72.85693656387744
 30
0.0
 11
183.2065302324736
 21
71.413560890903355
 31
0.0
  0
LINE
  5
40D8
  8
0
 10
194.2065302324736
 20
71.413560890903355
 30
0.0
 11
196.7065302324736
 21
72.85693656387744
 31
0.0
  0
LINE
  5
40D9
  8
0
 10
196.7065302324736
 20
159.75693656387739
 30
0.0
 11
194.80127434414771
 21
160.85693656387741
 31
0.0
  0
LINE
  5
40DA
  8
0
 10
182.6117861207992
 20
160.85693656387741
 30
0.0
 11
180.7065302324736
 21
159.75693656387739
 31
0.0
  0
LINE
  5
40DB
  8
0
 10
180.7065302324736
 20
159.75693656387739
 30
0.0
 11
180.7065302324736
 21
94.856936563877412
 31
0.0
  0
LINE
  5
40DC
  8
0
 10
180.7065302324736
 20
75.856936563877454
 30
0.0
 11
180.7065302324736
 21
72.85693656387744
 31
0.0
  0
LINE
  5
40DD
  8
0
 10
196.7065302324736
 20
72.85693656387744
 30
0.0
 11
196.7065302324736
 21
75.856936563877412
 31
0.0
  0
LINE
  5
40DE
  8
0
 10
196.7065302324736
 20
94.856936563877412
 30
0.0
 11
196.7065302324736
 21
159.75693656387739
 31
0.0
  0
LINE
  5
40DF
  8
0
 10
194.2065302324736
 20
70.85693656387744
 30
0.0
 11
194.2065302324736
 21
71.413560890903355
 31
0.0
  0
LINE
  5
40E0
  8
0
 10
183.2065302324736
 20
71.413560890903355
 30
0.0
 11
183.2065302324736
 21
70.85693656387744
 31
0.0
  0
LINE
  5
40E1
  8
0
 10
142.7065302324736
 20
103.8569365638774
 30
0.0
 11
142.7065302324736
 21
100.45693656387741
 31
0.0
  0
LINE
  5
40E2
  8
0
 10
174.7065302324736
 20
100.45693656387741
 30
0.0
 11
174.7065302324736
 21
103.8569365638774
 31
0.0
  0
POLYLINE
  5
40E3
  8
0
 66
     1
 10
0.0
 20
0.0
 30
0.0
 70
   128
  0
VERTEX
  5
4C6B
  8
0
 10
142.7065302324736
 20
100.45693656387741
 30
0.0
  0
VERTEX
  5
4C6C
  8
0
 10
143.50714663639741
 20
100.0582730474558
 30
0.0
  0
VERTEX
  5
4C6D
  8
0
 10
143.93204268802899
 20
99.856936563877412
 30
0.0
  0
SEQEND
  5
4C6E
  8
0
  0
POLYLINE
  5
40E4
  8
0
 66
     1
 10
0.0
 20
0.0
 30
0.0
 70
   128
  0
VERTEX
  5
4C6F
  8
0
 10
173.48101777691789
 20
99.856936563877412
 30
0.0
  0
VERTEX
  5
4C70
  8
0
 10
173.9059138285495
 20
100.0582730474558
 30
0.0
  0
VERTEX
  5
4C71
  8
0
 10
174.7065302324736
 20
100.45693656387741
 30
0.0
  0
SEQEND
  5
4C72
  8
0
  0
LINE
  5
40E5
  8
0
 10
172.56293669302451
 20
120.4964646595581
 30
0.0
 11
170.2065302324736
 21
121.8569365638774
 31
0.0
  0
LINE
  5
40E6
  8
0
 10
147.2065302324736
 20
121.8569365638774
 30
0.0
 11
144.8501237719224
 21
120.4964646595581
 31
0.0
  0
LINE
  5
40E7
  8
0
 10
174.7065302324736
 20
95.356936563877468
 30
0.0
 11
174.7065302324736
 21
99.356936563877412
 31
0.0
  0
LINE
  5
40E8
  8
0
 10
142.7065302324736
 20
99.356936563877412
 30
0.0
 11
142.7065302324736
 21
95.356936563877468
 31
0.0
  0
LINE
  5
40E9
  8
0
 10
174.7065302324736
 20
99.356936563877412
 30
0.0
 11
174.2065302324736
 21
99.856936563877412
 31
0.0
  0
LINE
  5
40EA
  8
0
 10
143.2065302324736
 20
99.856936563877412
 30
0.0
 11
142.7065302324736
 21
99.356936563877412
 31
0.0
  0
LINE
  5
40EB
  8
0
 10
142.7065302324736
 20
95.356936563877468
 30
0.0
 11
143.2065302324736
 21
94.856936563877412
 31
0.0
  0
LINE
  5
40EC
  8
0
 10
174.2065302324736
 20
94.856936563877412
 30
0.0
 11
174.7065302324736
 21
95.356936563877468
 31
0.0
  0
LINE
  5
40EE
  8
0
 10
144.7065302324736
 20
21.856936563877468
 30
0.0
 11
144.70653023247351
 21
31.856936563877639
 31
0.0
  0
LINE
  5
40EF
  8
0
 10
144.79007953554671
 20
27.45693656387763
 30
0.0
 11
144.7065302324736
 21
27.45693656387763
 31
0.0
  0
POLYLINE
  5
40F0
  8
0
 66
     1
 10
0.0
 20
0.0
 30
0.0
 70
   128
  0
VERTEX
  5
4C73
  8
0
 10
144.79007953554671
 20
27.45693656387763
 30
0.0
  0
VERTEX
  5
4C74
  8
0
 10
144.90679644878631
 20
26.501485764993109
 30
0.0
  0
VERTEX
  5
4C75
  8
0
 10
145.4264509747031
 20
25.273129523564052
 30
0.0
  0
VERTEX
  5
4C76
  8
0
 10
146.35424035219921
 20
24.165032329677079
 30
0.0
  0
VERTEX
  5
4C77
  8
0
 10
147.24355196854961
 20
23.491542924673809
 30
0.0
  0
VERTEX
  5
4C78
  8
0
 10
148.25701599290551
 20
22.954411705604691
 30
0.0
  0
VERTEX
  5
4C79
  8
0
 10
149.9701251657502
 20
22.379565125240081
 30
0.0
  0
VERTEX
  5
4C7A
  8
0
 10
151.7936489120911
 20
22.054327939239698
 30
0.0
  0
VERTEX
  5
4C7B
  8
0
 10
154.24904823699171
 20
21.884256850605059
 30
0.0
  0
VERTEX
  5
4C7C
  8
0
 10
156.7216876694431
 20
21.856936563877639
 30
0.0
  0
SEQEND
  5
4C7D
  8
0
  0
LINE
  5
40F1
  8
0
 10
172.7065302324736
 20
21.856936563877468
 30
0.0
 11
144.7065302324736
 21
21.856936563877468
 31
0.0
  0
POLYLINE
  5
40F2
  8
0
 66
     1
 10
0.0
 20
0.0
 30
0.0
 70
   128
  0
VERTEX
  5
4C7E
  8
0
 10
160.69137279550429
 20
21.856936563877639
 30
0.0
  0
VERTEX
  5
4C7F
  8
0
 10
163.4227216906956
 20
21.89283097294955
 30
0.0
  0
VERTEX
  5
4C80
  8
0
 10
166.15407058588721
 20
22.126871602191269
 30
0.0
  0
VERTEX
  5
4C81
  8
0
 10
167.977018625787
 20
22.5242370808499
 30
0.0
  0
VERTEX
  5
4C82
  8
0
 10
169.75083146800441
 20
23.246249157618792
 30
0.0
  0
VERTEX
  5
4C83
  8
0
 10
171.23140479355831
 20
24.328854029783201
 30
0.0
  0
VERTEX
  5
4C84
  8
0
 10
171.82219152409129
 20
25.02394385387603
 30
0.0
  0
VERTEX
  5
4C85
  8
0
 10
172.2857794041274
 20
25.847509231122618
 30
0.0
  0
VERTEX
  5
4C86
  8
0
 10
172.61284953864791
 20
27.17421695079571
 30
0.0
  0
VERTEX
  5
4C87
  8
0
 10
172.6229809294004
 20
27.45693656387763
 30
0.0
  0
SEQEND
  5
4C88
  8
0
  0
LINE
  5
40F3
  8
0
 10
172.7065302324736
 20
27.45693656387763
 30
0.0
 11
172.6229809294004
 21
27.45693656387763
 31
0.0
  0
LINE
  5
40F4
  8
0
 10
172.7065302324736
 20
31.856936563877611
 30
0.0
 11
172.7065302324736
 21
21.856936563877468
 31
0.0
  0
LINE
  5
40F6
  8
0
 10
144.79007953554671
 20
31.856936563877611
 30
0.0
 11
144.79007953554671
 21
27.45693656387763
 31
0.0
  0
LINE
  5
40F7
  8
0
 10
158.7065302324736
 20
31.856936563877611
 30
0.0
 11
144.70653023247371
 21
31.856936563877611
 31
0.0
  0
LINE
  5
40F8
  8
0
 10
172.7065302324736
 20
31.856936563877611
 30
0.0
 11
158.7065302324736
 21
31.856936563877611
 31
0.0
  0
LINE
  5
40F9
  8
0
 10
172.6229809294004
 20
27.45693656387763
 30
0.0
 11
172.6229809294004
 21
31.856936563877611
 31
0.0
  0
LINE
  5
40FC
  8
0
 10
165.4565302324736
 20
44.122233135913433
 30
0.0
 11
151.9565302324736
 21
44.122233135913433
 31
0.0
  0
LINE
  5
40FD
  8
0
 10
149.85653023247369
 20
31.856936563877579
 30
0.0
 11
149.85653023247369
 21
42.704862632945492
 31
0.0
  0
LINE
  5
40FE
  8
0
 10
167.55653023247351
 20
42.704862632945492
 30
0.0
 11
167.55653023247581
 21
31.856936563877579
 31
0.0
  0
LINE
  5
4103
  8
0
 10
166.7065302324736
 20
190.62993656387749
 30
0.0
 11
150.7065302324736
 21
190.62993656387749
 31
0.0
  0
LINE
  5
4104
  8
0
 10
165.47953023247351
 20
191.85693656387741
 30
0.0
 11
151.9335302324734
 21
191.85693656387741
 31
0.0
  0
LINE
  5
4106
  8
0
 10
172.7065302324736
 20
55.856936563877412
 30
0.0
 11
204.7065302324736
 21
55.856936563877412
 31
0.0
  0
LINE
  5
4108
  8
0
 10
172.7065302324736
 20
62.856936563877412
 30
0.0
 11
204.70653023247351
 21
62.856936563877412
 31
0.0
  0
LINE
  5
410A
  8
0
 10
177.7065302324736
 20
70.85693656387744
 30
0.0
 11
199.7065302324736
 21
70.85693656387744
 31
0.0
  0
LINE
  5
410B
  8
0
 10
196.7065302324736
 20
72.85693656387744
 30
0.0
 11
180.7065302324736
 21
72.85693656387744
 31
0.0
  0
LINE
  5
410C
  8
0
 10
194.2065302324736
 20
71.413560890903355
 30
0.0
 11
183.2065302324736
 21
71.413560890903355
 31
0.0
  0
LINE
  5
410D
  8
0
 10
182.6117861207992
 20
160.85693656387741
 30
0.0
 11
194.80127434414771
 21
160.85693656387741
 31
0.0
  0
LINE
  5
410E
  8
0
 10
196.7065302324736
 20
159.75693656387739
 30
0.0
 11
180.7065302324736
 21
159.75693656387739
 31
0.0
  0
LINE
  5
4110
  8
0
 10
142.7065302324736
 20
103.8569365638774
 30
0.0
 11
174.7065302324736
 21
103.8569365638774
 31
0.0
  0
LINE
  5
4112
  8
0
 10
142.7065302324736
 20
100.45693656387741
 30
0.0
 11
174.7065302324736
 21
100.45693656387741
 31
0.0
  0
LINE
  5
4114
  8
0
 10
147.2065302324736
 20
121.8569365638774
 30
0.0
 11
170.2065302324736
 21
121.8569365638774
 31
0.0
  0
ARC
  5
4115
  8
0
 10
169.0988350778866
 20
115.2629622476954
 30
0.0
 40
6.2761092641040497
 50
56.499071751164571
 51
123.50092824883509
  0
ARC
  5
4116
  8
0
 10
158.7065302324736
 20
97.823063546751825
 30
0.0
 40
23.708292178522861
 50
73.008669265251584
 51
106.9913307347484
  0
ARC
  5
4117
  8
0
 10
148.3142253870603
 20
115.2629622476956
 30
0.0
 40
6.2761092641039697
 50
56.499071751164571
 51
123.5009282488386
  0
LINE
  5
4118
  8
0
 10
151.77832700219801
 20
103.8569365638774
 30
0.0
 11
151.77832700219801
 21
120.4964646595581
 31
0.0
  0
LINE
  5
4119
  8
0
 10
165.6347334627489
 20
103.8569365638774
 30
0.0
 11
165.6347334627489
 21
120.4964646595581
 31
0.0
  0
LINE
  5
411A
  8
0
 10
144.8501237719224
 20
103.8569365638774
 30
0.0
 11
144.8501237719224
 21
120.4964646595581
 31
0.0
  0
LINE
  5
411B
  8
0
 10
172.56293669302451
 20
103.8569365638774
 30
0.0
 11
172.56293669302451
 21
120.4964646595581
 31
0.0
  0
LINE
  5
411C
  8
0
 10
174.70653023247371
 20
99.356936563877412
 30
0.0
 11
142.7065302324736
 21
99.356936563877412
 31
0.0
  0
LINE
  5
411E
  8
0
 10
142.7065302324736
 20
95.356936563877468
 30
0.0
 11
174.7065302324736
 21
95.356936563877468
 31
0.0
  0
LINE
  5
4120
  8
0
 10
143.2065302324736
 20
99.856936563877412
 30
0.0
 11
174.20653023247371
 21
99.856936563877412
 31
0.0
  0
LINE
  5
413F
  8
3
 10
165.7065302324736
 20
191.62993656387741
 30
0.0
 11
165.70653023247351
 21
121.8569365638774
 31
0.0
  0
LINE
  5
4140
  8
3
 10
151.7065302324736
 20
191.62993656387741
 30
0.0
 11
151.7065302324736
 21
121.8569365638774
 31
0.0
  0
LINE
  5
4141
  8
3
 10
195.7065302324736
 20
160.33428683306701
 30
0.0
 11
195.7065302324736
 21
94.856936563877412
 31
0.0
  0
LINE
  5
4142
  8
3
 10
181.7065302324736
 20
160.33428683306701
 30
0.0
 11
181.7065302324736
 21
94.856936563877412
 31
0.0
  0
LINE
  5
4144
  8
1
 10
158.7065302324736
 20
196.8569365638773
 30
0.0
 11
158.7065302324736
 21
16.856936563877412
 31
0.0
  0
LINE
  5
4148
  8
1
 10
188.7065302324736
 20
50.856936563877383
 30
0.0
 11
188.7065302324736
 21
165.85693656387741
 31
0.0
  0
CIRCLE
  5
41A3
  8
0
 10
158.7065302324736
 20
260.85693656387861
 30
0.0
 40
8.0
  0
LINE
  5
41A5
  8
0
 10
144.7065302324736
 20
252.35693656387741
 30
0.0
 11
144.7065302324736
 21
253.1109698714624
 31
0.0
  0
LINE
  5
41A6
  8
0
 10
144.70653023247331
 20
268.602903256292
 30
0.0
 11
144.70653023247331
 21
269.35693656387741
 31
0.0
  0
CIRCLE
  5
41A8
  8
0
 10
188.7065302324736
 20
260.85693656387741
 30
0.0
 40
8.0000000000000568
  0
LINE
  5
41A9
  8
0
 10
191.015931309232
 20
264.85693656387741
 30
0.0
 11
186.39712915571499
 21
264.85693656387741
 31
0.0
  0
LINE
  5
41AA
  8
0
 10
186.39712915571499
 20
264.85693656387741
 30
0.0
 11
184.08772807895639
 21
260.85693656387741
 31
0.0
  0
LINE
  5
41AB
  8
0
 10
184.08772807895639
 20
260.85693656387741
 30
0.0
 11
186.39712915571499
 21
256.85693656387741
 31
0.0
  0
LINE
  5
41AC
  8
0
 10
186.39712915571499
 20
256.85693656387741
 30
0.0
 11
191.015931309232
 21
256.85693656387741
 31
0.0
  0
LINE
  5
41AD
  8
0
 10
191.015931309232
 20
256.85693656387741
 30
0.0
 11
193.32533238599061
 21
260.85693656387741
 31
0.0
  0
LINE
  5
41AE
  8
0
 10
193.32533238599061
 20
260.85693656387741
 30
0.0
 11
191.015931309232
 21
264.85693656387741
 31
0.0
  0
ARC
  5
41AF
  8
0
 10
188.7065302324736
 20
260.8569365638777
 30
0.0
 40
16.000000000000039
 50
339.63586519368351
 51
20.364134806317178
  0
CIRCLE
  5
41B0
  8
0
 10
158.7065302324736
 20
260.8569365638773
 30
0.0
 40
11.5
  0
LINE
  5
41B1
  8
0
 10
144.8501237719224
 20
260.8569365638773
 30
0.0
 11
151.7783270021977
 21
272.85693656387741
 31
0.0
  0
LINE
  5
41B2
  8
0
 10
151.7783270021977
 20
272.85693656387741
 30
0.0
 11
165.6347334627489
 21
272.8569365638773
 31
0.0
  0
LINE
  5
41B3
  8
0
 10
165.6347334627489
 20
272.8569365638773
 30
0.0
 11
172.56293669302451
 21
260.8569365638773
 31
0.0
  0
LINE
  5
41B4
  8
0
 10
172.56293669302451
 20
260.8569365638773
 30
0.0
 11
165.6347334627489
 21
248.8569365638773
 31
0.0
  0
LINE
  5
41B5
  8
0
 10
165.6347334627489
 20
248.8569365638773
 30
0.0
 11
151.77832700219801
 21
248.8569365638773
 31
0.0
  0
LINE
  5
41B6
  8
0
 10
151.77832700219801
 20
248.8569365638773
 30
0.0
 11
144.8501237719224
 21
260.8569365638773
 31
0.0
  0
CIRCLE
  5
41B8
  8
0
 10
158.7065302324736
 20
260.85693656387741
 30
0.0
 40
16.0
  0
CIRCLE
  5
41C8
  8
3
 10
158.7065302324736
 20
260.85693656387861
 30
0.0
 40
7.0
  0
CIRCLE
  5
41C9
  8
3
 10
188.7065302324736
 20
260.85693656387741
 30
0.0
 40
7.0
  0
LINE
  5
41CA
  8
1
 10
118.7065302324736
 20
260.85693656387741
 30
0.0
 11
209.7065302324736
 21
260.85693656387741
 31
0.0
  0
ARC
  5
41CB
  8
0
 10
54.706530232471657
 20
31.85693656387841
 30
0.0
 40
13.99999999999795
 50
118.8254491604077
 51
180.00000000000631
  0
ARC
  5
41CC
  8
0
 10
54.706530232471657
 20
31.85693656387841
 30
0.0
 40
14.0
 50
359.99999999999682
 51
61.174550839585251
  0
LINE
  5
41CD
  8
0
 10
62.706530232471991
 20
190.62993656387741
 30
0.0
 11
61.479530232471909
 21
191.85693656387741
 31
0.0
  0
LINE
  5
41CE
  8
0
 10
47.933530232471973
 20
191.85693656387721
 30
0.0
 11
46.706530232471998
 21
190.62993656387721
 31
0.0
  0
LINE
  5
41D2
  8
0
 10
62.70653023247246
 20
121.8569365638773
 30
0.0
 11
62.706530232471991
 21
190.62993656387741
 31
0.0
  0
LINE
  5
41D3
  8
0
 10
46.706530232471998
 20
190.62993656387721
 30
0.0
 11
46.70653023247246
 21
121.8569365638773
 31
0.0
  0
LINE
  5
41D5
  8
0
 10
61.456530232473483
 20
44.122233135913348
 30
0.0
 11
61.45653023247305
 21
75.856936563877284
 31
0.0
  0
LINE
  5
41D6
  8
0
 10
47.956530232473057
 20
75.856936563877284
 30
0.0
 11
47.956530232473483
 21
44.122233135913142
 31
0.0
  0
LINE
  5
41D7
  8
0
 10
38.706530232473028
 20
62.856936563877269
 30
0.0
 11
38.706530232473028
 21
55.856936563877241
 31
0.0
  0
LINE
  5
41D8
  8
0
 10
70.706530232473014
 20
55.856936563877241
 30
0.0
 11
70.706530232473014
 21
62.856936563877269
 31
0.0
  0
LINE
  5
41D9
  8
0
 10
43.706530232473021
 20
70.856936563877269
 30
0.0
 11
43.706530232473021
 21
62.856936563877269
 31
0.0
  0
LINE
  5
41DA
  8
0
 10
65.706530232473014
 20
62.856936563877269
 30
0.0
 11
65.706530232473014
 21
70.856936563877269
 31
0.0
  0
POLYLINE
  5
41DB
  8
0
 66
     1
 10
0.0
 20
0.0
 30
0.0
 70
   128
  0
VERTEX
  5
4C89
  8
0
 10
69.481017776917838
 20
99.856936563877241
 30
0.0
  0
VERTEX
  5
4C8A
  8
0
 10
69.905913828549387
 20
100.0582730474556
 30
0.0
  0
VERTEX
  5
4C8B
  8
0
 10
70.706530232473256
 20
100.45693656387721
 30
0.0
  0
SEQEND
  5
4C8C
  8
0
  0
POLYLINE
  5
41DC
  8
0
 66
     1
 10
0.0
 20
0.0
 30
0.0
 70
   128
  0
VERTEX
  5
4C8D
  8
0
 10
38.706530232473369
 20
100.45693656387721
 30
0.0
  0
VERTEX
  5
4C8E
  8
0
 10
39.507146636397351
 20
100.0582730474556
 30
0.0
  0
VERTEX
  5
4C8F
  8
0
 10
39.932042688028901
 20
99.856936563877241
 30
0.0
  0
SEQEND
  5
4C90
  8
0
  0
LINE
  5
41DD
  8
0
 10
38.706530232473369
 20
103.8569365638772
 30
0.0
 11
38.706530232473369
 21
100.45693656387721
 31
0.0
  0
LINE
  5
41DE
  8
0
 10
70.706530232473256
 20
100.45693656387721
 30
0.0
 11
70.706530232473256
 21
103.8569365638772
 31
0.0
  0
LINE
  5
41DF
  8
0
 10
66.706530232473256
 20
121.5682614292824
 30
0.0
 11
66.206530232473256
 21
121.8569365638773
 31
0.0
  0
LINE
  5
41E0
  8
0
 10
43.206530232473369
 20
121.8569365638773
 30
0.0
 11
42.706530232473362
 21
121.5682614292824
 31
0.0
  0
LINE
  5
41E1
  8
0
 10
70.706530232473256
 20
95.356936563877241
 30
0.0
 11
70.706530232473256
 21
99.356936563877255
 31
0.0
  0
LINE
  5
41E2
  8
0
 10
38.706530232473369
 20
99.356936563877255
 30
0.0
 11
38.706530232473369
 21
95.356936563877241
 31
0.0
  0
LINE
  5
41E3
  8
0
 10
38.706530232473369
 20
95.356936563877241
 30
0.0
 11
39.206530232473369
 21
94.856936563877241
 31
0.0
  0
LINE
  5
41E4
  8
0
 10
70.206530232473256
 20
94.856936563877241
 30
0.0
 11
70.706530232473256
 21
95.356936563877241
 31
0.0
  0
LINE
  5
41E5
  8
0
 10
70.706530232473256
 20
99.356936563877255
 30
0.0
 11
70.206530232473256
 21
99.856936563877241
 31
0.0
  0
LINE
  5
41E6
  8
0
 10
39.206530232473369
 20
99.856936563877241
 30
0.0
 11
38.706530232473369
 21
99.356936563877255
 31
0.0
  0
LINE
  5
41E8
  8
0
 10
40.790079535546958
 20
27.456936563877068
 30
0.0
 11
40.706530232473938
 21
27.456936563877068
 31
0.0
  0
POLYLINE
  5
41E9
  8
0
 66
     1
 10
0.0
 20
0.0
 30
0.0
 70
   128
  0
VERTEX
  5
4C91
  8
0
 10
40.790079535546958
 20
27.456936563877068
 30
0.0
  0
VERTEX
  5
4C92
  8
0
 10
40.906796448786622
 20
26.501485764992541
 30
0.0
  0
VERTEX
  5
4C93
  8
0
 10
41.426450974703698
 20
25.273129523563512
 30
0.0
  0
VERTEX
  5
4C94
  8
0
 10
42.354240352199547
 20
24.16503232967651
 30
0.0
  0
VERTEX
  5
4C95
  8
0
 10
43.243551968549923
 20
23.491542924673269
 30
0.0
  0
VERTEX
  5
4C96
  8
0
 10
44.257015992905963
 20
22.954411705604169
 30
0.0
  0
VERTEX
  5
4C97
  8
0
 10
45.970125165750687
 20
22.379565125239591
 30
0.0
  0
VERTEX
  5
4C98
  8
0
 10
47.793648912091612
 20
22.054327939239268
 30
0.0
  0
VERTEX
  5
4C99
  8
0
 10
50.24904823699228
 20
21.884256850604629
 30
0.0
  0
VERTEX
  5
4C9A
  8
0
 10
52.72168766944344
 20
21.856936563877241
 30
0.0
  0
SEQEND
  5
4C9B
  8
0
  0
LINE
  5
41EB
  8
0
 10
40.706530232473817
 20
21.856936563877071
 30
0.0
 11
40.706530232473938
 21
31.856936563878691
 31
0.0
  0
LINE
  5
41EC
  8
0
 10
68.706530232473938
 20
21.856936563877468
 30
0.0
 11
40.706530232473817
 21
21.856936563877071
 31
0.0
  0
POLYLINE
  5
41ED
  8
0
 66
     1
 10
0.0
 20
0.0
 30
0.0
 70
   128
  0
VERTEX
  5
4C9C
  8
0
 10
56.691372795504662
 20
21.856936563877301
 30
0.0
  0
VERTEX
  5
4C9D
  8
0
 10
59.4227216906961
 20
21.89283097294927
 30
0.0
  0
VERTEX
  5
4C9E
  8
0
 10
62.154070585887553
 20
22.126871602190992
 30
0.0
  0
VERTEX
  5
4C9F
  8
0
 10
63.977018625787309
 20
22.524237080849669
 30
0.0
  0
VERTEX
  5
4CA0
  8
0
 10
65.750831468005003
 20
23.246249157618571
 30
0.0
  0
VERTEX
  5
4CA1
  8
0
 10
67.231404793558681
 20
24.328854029782999
 30
0.0
  0
VERTEX
  5
4CA2
  8
0
 10
67.822191524091636
 20
25.023943853875839
 30
0.0
  0
VERTEX
  5
4CA3
  8
0
 10
68.285779404127538
 20
25.847509231122441
 30
0.0
  0
VERTEX
  5
4CA4
  8
0
 10
68.612849538648447
 20
27.17421695079554
 30
0.0
  0
VERTEX
  5
4CA5
  8
0
 10
68.622980929401024
 20
27.456936563877459
 30
0.0
  0
SEQEND
  5
4CA6
  8
0
  0
LINE
  5
41EE
  8
0
 10
68.706530232473938
 20
27.456936563877459
 30
0.0
 11
68.622980929401024
 21
27.456936563877459
 31
0.0
  0
LINE
  5
41EF
  8
0
 10
68.706530232473938
 20
31.85693656387841
 30
0.0
 11
68.706530232473938
 21
21.856936563877468
 31
0.0
  0
LINE
  5
41F1
  8
0
 10
40.790079535546852
 20
31.856936563877071
 30
0.0
 11
40.790079535546958
 21
27.456936563877068
 31
0.0
  0
LINE
  5
41F2
  8
0
 10
68.706530232471664
 20
31.856936563877412
 30
0.0
 11
40.70653023247371
 21
31.856936563877071
 31
0.0
  0
LINE
  5
41F3
  8
0
 10
68.622980929401024
 20
27.456936563877459
 30
0.0
 11
68.622980929400796
 21
31.85693656387744
 31
0.0
  0
LINE
  5
41F8
  8
0
 10
61.456530232473483
 20
44.122233135913369
 30
0.0
 11
47.956530232473483
 21
44.122233135913142
 31
0.0
  0
ARC
  5
41FA
  8
0
 10
54.706530232471657
 20
31.85693656387841
 30
0.0
 40
10.847926069067251
 50
359.99999999999528
 51
180.00000000000909
  0
LINE
  5
41FB
  8
0
 10
62.706530232471991
 20
190.62993656387729
 30
0.0
 11
46.706530232471998
 21
190.62993656387721
 31
0.0
  0
LINE
  5
41FD
  8
0
 10
61.479530232471909
 20
191.8569365638773
 30
0.0
 11
47.933530232471973
 21
191.8569365638771
 31
0.0
  0
LINE
  5
4203
  8
0
 10
38.706530232473028
 20
55.856936563877241
 30
0.0
 11
47.956530232473369
 21
55.856936563877241
 31
0.0
  0
LINE
  5
4204
  8
0
 10
61.456530232473369
 20
55.856936563877241
 30
0.0
 11
70.706530232473014
 21
55.856936563877241
 31
0.0
  0
LINE
  5
4205
  8
0
 10
38.706530232473028
 20
62.856936563877269
 30
0.0
 11
47.956530232473249
 21
62.856936563877269
 31
0.0
  0
LINE
  5
4206
  8
0
 10
61.456530232473263
 20
62.856936563877269
 30
0.0
 11
70.706530232473014
 21
62.856936563877269
 31
0.0
  0
LINE
  5
4207
  8
0
 10
43.706530232473021
 20
70.856936563877269
 30
0.0
 11
47.956530232473121
 21
70.856936563877269
 31
0.0
  0
LINE
  5
4208
  8
0
 10
61.456530232473121
 20
70.856936563877269
 30
0.0
 11
65.706530232473014
 21
70.856936563877269
 31
0.0
  0
LINE
  5
4209
  8
0
 10
38.706530232473369
 20
100.45693656387721
 30
0.0
 11
70.706530232473256
 21
100.45693656387721
 31
0.0
  0
LINE
  5
420A
  8
0
 10
38.706530232473369
 20
103.8569365638772
 30
0.0
 11
70.706530232473256
 21
103.8569365638772
 31
0.0
  0
LINE
  5
420B
  8
0
 10
43.206530232473369
 20
121.8569365638773
 30
0.0
 11
66.206530232473256
 21
121.8569365638773
 31
0.0
  0
ARC
  5
420C
  8
0
 10
48.706530232473369
 20
103.91996018038461
 30
0.0
 40
17.628967659737
 50
70.10186677741369
 51
109.8981332225863
  0
ARC
  5
420F
  8
0
 10
60.706530232473369
 20
103.9199601803853
 30
0.0
 40
17.62896765973635
 50
70.101866777413605
 51
109.8981332225864
  0
LINE
  5
4210
  8
0
 10
42.706530232473362
 20
103.8569365638772
 30
0.0
 11
42.706530232473362
 21
121.5682614292824
 31
0.0
  0
LINE
  5
4211
  8
0
 10
54.706530232473362
 20
103.8569365638772
 30
0.0
 11
54.706530232473362
 21
120.4964646595579
 31
0.0
  0
LINE
  5
4212
  8
0
 10
66.706530232473256
 20
103.8569365638772
 30
0.0
 11
66.706530232473256
 21
121.5682614292824
 31
0.0
  0
LINE
  5
4213
  8
0
 10
70.706530232473256
 20
99.356936563877255
 30
0.0
 11
38.706530232473369
 21
99.356936563877255
 31
0.0
  0
LINE
  5
4214
  8
0
 10
38.706530232473369
 20
95.356936563877241
 30
0.0
 11
70.706530232473256
 21
95.356936563877241
 31
0.0
  0
LINE
  5
4215
  8
0
 10
39.206530232473369
 20
99.856936563877241
 30
0.0
 11
70.206530232473256
 21
99.856936563877241
 31
0.0
  0
LINE
  5
421F
  8
3
 10
61.706530232471998
 20
191.62993656387741
 30
0.0
 11
61.70653023247246
 21
121.8569365638773
 31
0.0
  0
LINE
  5
4220
  8
3
 10
47.706530232471991
 20
191.62993656387721
 30
0.0
 11
47.706530232472339
 21
121.8569365638773
 31
0.0
  0
LINE
  5
4223
  8
1
 10
54.706530232471877
 20
196.8569365638773
 30
0.0
 11
54.706530232473831
 21
16.856936563877412
 31
0.0
  0
ARC
  5
4270
  8
0
 10
272.70653023247542
 20
31.856936563878548
 30
0.0
 40
14.0
 50
118.82544916041481
 51
180.0000000000046
  0
ARC
  5
4271
  8
0
 10
272.70653023247542
 20
31.856936563878548
 30
0.0
 40
13.999999999997859
 50
359.99999999999551
 51
61.17455083959242
  0
LINE
  5
4275
  8
0
 10
280.70653023247502
 20
159.75693656387679
 30
0.0
 11
280.70653023247502
 21
190.62993656387729
 31
0.0
  0
LINE
  5
4276
  8
0
 10
264.70653023247502
 20
190.62993656387761
 30
0.0
 11
264.70653023247502
 21
159.75693656387801
 31
0.0
  0
LINE
  5
4278
  8
0
 10
280.70653023247502
 20
190.62993656387729
 30
0.0
 11
279.4795302324751
 21
191.85693656387741
 31
0.0
  0
LINE
  5
4279
  8
0
 10
265.93353023247511
 20
191.8569365638775
 30
0.0
 11
264.70653023247502
 21
190.62993656387761
 31
0.0
  0
LINE
  5
427A
  8
0
 10
279.45653023247343
 20
44.122233135913319
 30
0.0
 11
279.4565302324736
 21
55.856936563877412
 31
0.0
  0
LINE
  5
427B
  8
0
 10
265.9565302324736
 20
72.135248727390504
 30
0.0
 11
265.9565302324736
 21
70.85693656387744
 31
0.0
  0
LINE
  5
427C
  8
0
 10
256.7065302324736
 20
62.856936563877412
 30
0.0
 11
256.7065302324736
 21
55.856936563877412
 31
0.0
  0
LINE
  5
427D
  8
0
 10
288.7065302324736
 20
55.856936563877412
 30
0.0
 11
288.7065302324736
 21
62.856936563877412
 31
0.0
  0
LINE
  5
427E
  8
0
 10
261.7065302324736
 20
70.85693656387744
 30
0.0
 11
261.7065302324736
 21
62.856936563877412
 31
0.0
  0
LINE
  5
427F
  8
0
 10
283.7065302324736
 20
62.856936563877412
 30
0.0
 11
283.7065302324736
 21
70.85693656387744
 31
0.0
  0
LINE
  5
4280
  8
0
 10
264.7065302324736
 20
72.85693656387744
 30
0.0
 11
267.20653023247382
 21
71.413560890903355
 31
0.0
  0
LINE
  5
4281
  8
0
 10
278.20653023247382
 20
71.413560890903355
 30
0.0
 11
280.7065302324736
 21
72.85693656387744
 31
0.0
  0
LINE
  5
4282
  8
0
 10
280.7065302324736
 20
159.75693656387739
 30
0.0
 11
278.801274344148
 21
160.85693656387741
 31
0.0
  0
LINE
  5
4283
  8
0
 10
266.61178612079948
 20
160.85693656387741
 30
0.0
 11
264.7065302324736
 21
159.75693656387739
 31
0.0
  0
LINE
  5
4284
  8
0
 10
264.7065302324736
 20
159.75693656387739
 30
0.0
 11
264.7065302324736
 21
94.856936563877412
 31
0.0
  0
LINE
  5
4285
  8
0
 10
264.7065302324736
 20
80.856936563877412
 30
0.0
 11
264.7065302324736
 21
72.85693656387744
 31
0.0
  0
LINE
  5
4286
  8
0
 10
280.7065302324736
 20
72.85693656387744
 30
0.0
 11
280.7065302324736
 21
80.856936563877412
 31
0.0
  0
LINE
  5
4287
  8
0
 10
280.7065302324736
 20
94.856936563877412
 30
0.0
 11
280.7065302324736
 21
159.75693656387739
 31
0.0
  0
LINE
  5
4288
  8
0
 10
278.20653023247382
 20
70.85693656387744
 30
0.0
 11
278.20653023247382
 21
71.413560890903355
 31
0.0
  0
LINE
  5
4289
  8
0
 10
267.20653023247382
 20
71.413560890903355
 30
0.0
 11
267.20653023247382
 21
70.85693656387744
 31
0.0
  0
POLYLINE
  5
428A
  8
0
 66
     1
 10
0.0
 20
0.0
 30
0.0
 70
   128
  0
VERTEX
  5
4CA7
  8
0
 10
287.48101777691818
 20
99.856936563877412
 30
0.0
  0
VERTEX
  5
4CA8
  8
0
 10
287.90591382854979
 20
100.0582730474558
 30
0.0
  0
VERTEX
  5
4CA9
  8
0
 10
288.7065302324736
 20
100.45693656387741
 30
0.0
  0
SEQEND
  5
4CAA
  8
0
  0
POLYLINE
  5
428B
  8
0
 66
     1
 10
0.0
 20
0.0
 30
0.0
 70
   128
  0
VERTEX
  5
4CAB
  8
0
 10
256.7065302324736
 20
100.45693656387741
 30
0.0
  0
VERTEX
  5
4CAC
  8
0
 10
257.50714663639752
 20
100.0582730474558
 30
0.0
  0
VERTEX
  5
4CAD
  8
0
 10
257.93204268802901
 20
99.856936563877412
 30
0.0
  0
SEQEND
  5
4CAE
  8
0
  0
LINE
  5
428C
  8
0
 10
256.7065302324736
 20
103.8569365638774
 30
0.0
 11
256.7065302324736
 21
100.45693656387741
 31
0.0
  0
LINE
  5
428D
  8
0
 10
288.7065302324736
 20
100.45693656387741
 30
0.0
 11
288.7065302324736
 21
103.8569365638774
 31
0.0
  0
LINE
  5
428E
  8
0
 10
284.7065302324736
 20
121.5682614292826
 30
0.0
 11
284.2065302324736
 21
121.8569365638774
 31
0.0
  0
LINE
  5
428F
  8
0
 10
261.2065302324736
 20
121.8569365638774
 30
0.0
 11
260.7065302324736
 21
121.5682614292826
 31
0.0
  0
LINE
  5
4290
  8
0
 10
288.7065302324736
 20
95.356936563877468
 30
0.0
 11
288.7065302324736
 21
99.356936563877412
 31
0.0
  0
LINE
  5
4291
  8
0
 10
256.7065302324736
 20
99.356936563877412
 30
0.0
 11
256.7065302324736
 21
95.356936563877468
 31
0.0
  0
LINE
  5
4292
  8
0
 10
288.7065302324736
 20
99.356936563877412
 30
0.0
 11
288.2065302324736
 21
99.856936563877412
 31
0.0
  0
LINE
  5
4293
  8
0
 10
257.2065302324736
 20
99.856936563877412
 30
0.0
 11
256.7065302324736
 21
99.356936563877412
 31
0.0
  0
LINE
  5
4294
  8
0
 10
256.7065302324736
 20
95.356936563877468
 30
0.0
 11
257.2065302324736
 21
94.856936563877412
 31
0.0
  0
LINE
  5
4295
  8
0
 10
288.2065302324736
 20
94.856936563877412
 30
0.0
 11
288.7065302324736
 21
95.356936563877468
 31
0.0
  0
LINE
  5
4298
  8
0
 10
286.7065302324732
 20
21.856936563877241
 30
0.0
 11
258.70653023247309
 21
21.856936563877639
 31
0.0
  0
LINE
  5
4299
  8
0
 10
258.70653023247309
 20
21.856936563877639
 30
0.0
 11
258.70653023247348
 21
31.85693656387912
 31
0.0
  0
LINE
  5
429A
  8
0
 10
258.79007953554628
 20
27.45693656387763
 30
0.0
 11
258.70653023247343
 21
27.45693656387763
 31
0.0
  0
POLYLINE
  5
429B
  8
0
 66
     1
 10
0.0
 20
0.0
 30
0.0
 70
   128
  0
VERTEX
  5
4CAF
  8
0
 10
258.79007953554628
 20
27.45693656387763
 30
0.0
  0
VERTEX
  5
4CB0
  8
0
 10
258.90679644878611
 20
26.501485764993081
 30
0.0
  0
VERTEX
  5
4CB1
  8
0
 10
259.42645097470307
 20
25.27312952356402
 30
0.0
  0
VERTEX
  5
4CB2
  8
0
 10
260.35424035219881
 20
24.165032329677022
 30
0.0
  0
VERTEX
  5
4CB3
  8
0
 10
261.24355196854913
 20
23.49154292467372
 30
0.0
  0
VERTEX
  5
4CB4
  8
0
 10
262.257015992905
 20
22.954411705604631
 30
0.0
  0
VERTEX
  5
4CB5
  8
0
 10
263.97012516574978
 20
22.379565125239989
 30
0.0
  0
VERTEX
  5
4CB6
  8
0
 10
265.7936489120907
 20
22.054327939239592
 30
0.0
  0
VERTEX
  5
4CB7
  8
0
 10
268.24904823699148
 20
21.884256850604942
 30
0.0
  0
VERTEX
  5
4CB8
  8
0
 10
270.7216876694427
 20
21.856936563877468
 30
0.0
  0
SEQEND
  5
4CB9
  8
0
  0
POLYLINE
  5
429D
  8
0
 66
     1
 10
0.0
 20
0.0
 30
0.0
 70
   128
  0
VERTEX
  5
4CBA
  8
0
 10
274.69137279550392
 20
21.856936563877412
 30
0.0
  0
VERTEX
  5
4CBB
  8
0
 10
277.42272169069543
 20
21.892830972949302
 30
0.0
  0
VERTEX
  5
4CBC
  8
0
 10
280.15407058588698
 20
22.12687160219096
 30
0.0
  0
VERTEX
  5
4CBD
  8
0
 10
281.97701862578651
 20
22.524237080849591
 30
0.0
  0
VERTEX
  5
4CBE
  8
0
 10
283.75083146800438
 20
23.246249157618418
 30
0.0
  0
VERTEX
  5
4CBF
  8
0
 10
285.23140479355789
 20
24.328854029782828
 30
0.0
  0
VERTEX
  5
4CC0
  8
0
 10
285.82219152409101
 20
25.023943853875661
 30
0.0
  0
VERTEX
  5
4CC1
  8
0
 10
286.28577940412703
 20
25.847509231122238
 30
0.0
  0
VERTEX
  5
4CC2
  8
0
 10
286.61284953864788
 20
27.174216950795319
 30
0.0
  0
VERTEX
  5
4CC3
  8
0
 10
286.6229809294004
 20
27.456936563877239
 30
0.0
  0
SEQEND
  5
4CC4
  8
0
  0
LINE
  5
429E
  8
0
 10
286.7065302324732
 20
27.456936563877239
 30
0.0
 11
286.6229809294004
 21
27.456936563877239
 31
0.0
  0
LINE
  5
429F
  8
0
 10
286.7065302324732
 20
31.856936563878548
 30
0.0
 11
286.7065302324732
 21
21.856936563877241
 31
0.0
  0
LINE
  5
42A1
  8
0
 10
258.79007953554628
 20
31.856936563877611
 30
0.0
 11
258.79007953554628
 21
27.45693656387763
 31
0.0
  0
LINE
  5
42A2
  8
0
 10
286.7065302324732
 20
31.856936563877241
 30
0.0
 11
258.70653023247542
 21
31.856936563877639
 31
0.0
  0
LINE
  5
42A3
  8
0
 10
286.6229809294004
 20
27.456936563877239
 30
0.0
 11
286.6229809294004
 21
31.856936563877241
 31
0.0
  0
LINE
  5
42A8
  8
0
 10
279.45653023247343
 20
44.122233135913319
 30
0.0
 11
265.9565302324736
 21
44.122233135913518
 31
0.0
  0
ARC
  5
42A9
  8
0
 10
272.70653023247542
 20
31.856936563878548
 30
0.0
 40
10.84792606906967
 50
359.99999999999409
 51
180.00000000002669
  0
LINE
  5
42AC
  8
0
 10
280.70653023247502
 20
190.62993656387729
 30
0.0
 11
264.70653023247502
 21
190.62993656387761
 31
0.0
  0
LINE
  5
42AD
  8
0
 10
279.4795302324751
 20
191.85693656387741
 30
0.0
 11
265.93353023247511
 21
191.8569365638775
 31
0.0
  0
LINE
  5
42AE
  8
0
 10
256.7065302324736
 20
62.856936563877412
 30
0.0
 11
288.7065302324736
 21
62.856936563877412
 31
0.0
  0
LINE
  5
42AF
  8
0
 10
256.7065302324736
 20
55.856936563877412
 30
0.0
 11
288.7065302324736
 21
55.856936563877412
 31
0.0
  0
LINE
  5
42B0
  8
0
 10
261.7065302324736
 20
70.85693656387744
 30
0.0
 11
283.7065302324736
 21
70.85693656387744
 31
0.0
  0
LINE
  5
42B1
  8
0
 10
280.7065302324736
 20
72.85693656387744
 30
0.0
 11
264.7065302324736
 21
72.85693656387744
 31
0.0
  0
LINE
  5
42B2
  8
0
 10
278.20653023247382
 20
71.413560890903355
 30
0.0
 11
267.20653023247382
 21
71.413560890903355
 31
0.0
  0
LINE
  5
42B3
  8
0
 10
266.61178612079948
 20
160.85693656387741
 30
0.0
 11
278.801274344148
 21
160.85693656387741
 31
0.0
  0
LINE
  5
42B4
  8
0
 10
280.7065302324736
 20
159.75693656387739
 30
0.0
 11
264.7065302324736
 21
159.75693656387739
 31
0.0
  0
LINE
  5
42B5
  8
0
 10
256.7065302324736
 20
100.45693656387741
 30
0.0
 11
264.7065302324736
 21
100.45693656387741
 31
0.0
  0
LINE
  5
42B6
  8
0
 10
280.7065302324736
 20
100.45693656387741
 30
0.0
 11
288.7065302324736
 21
100.45693656387741
 31
0.0
  0
LINE
  5
42B7
  8
0
 10
256.7065302324736
 20
103.8569365638774
 30
0.0
 11
264.70653023247428
 21
103.8569365638774
 31
0.0
  0
LINE
  5
42B8
  8
0
 10
280.70653023247428
 20
103.8569365638774
 30
0.0
 11
288.7065302324736
 21
103.8569365638774
 31
0.0
  0
POLYLINE
  5
42B9
  8
0
 66
     1
 10
0.0
 20
0.0
 30
0.0
 70
   128
  0
VERTEX
  5
4CC5
  8
0
 10
284.7065302324736
 20
120.4964646595581
 30
0.0
  0
VERTEX
  5
4CC6
  8
0
 10
281.5636083655117
 20
121.3112051975055
 30
0.0
  0
VERTEX
  5
4CC7
  8
0
 10
280.7065302324736
 20
121.4210399850306
 30
0.0
  0
SEQEND
  5
4CC8
  8
0
  0
LINE
  5
42BA
  8
0
 10
284.7065302324736
 20
103.8569365638774
 30
0.0
 11
284.7065302324736
 21
120.4964646595581
 31
0.0
  0
LINE
  5
42BB
  8
0
 10
261.2065302324736
 20
121.8569365638774
 30
0.0
 11
264.70653023247451
 21
121.8569365638774
 31
0.0
  0
LINE
  5
42BC
  8
0
 10
280.70653023247451
 20
121.8569365638774
 30
0.0
 11
284.2065302324736
 21
121.8569365638774
 31
0.0
  0
LINE
  5
42BD
  8
0
 10
284.7065302324736
 20
120.4964646595581
 30
0.0
 11
284.7065302324736
 21
121.5076820202646
 31
0.0
  0
POLYLINE
  5
42BE
  8
0
 66
     1
 10
0.0
 20
0.0
 30
0.0
 70
   128
  0
VERTEX
  5
4CC9
  8
0
 10
264.7065302324736
 20
121.3827946946592
 30
0.0
  0
VERTEX
  5
4CCA
  8
0
 10
263.48877173611481
 20
121.2437572802903
 30
0.0
  0
VERTEX
  5
4CCB
  8
0
 10
260.7065302324736
 20
120.4964646595581
 30
0.0
  0
SEQEND
  5
4CCC
  8
0
  0
LINE
  5
42BF
  8
0
 10
260.7065302324736
 20
120.4964646595581
 30
0.0
 11
260.7065302324736
 21
121.5076820205967
 31
0.0
  0
LINE
  5
42C0
  8
0
 10
260.7065302324736
 20
103.8569365638774
 30
0.0
 11
260.7065302324736
 21
120.4964646595581
 31
0.0
  0
LINE
  5
42C1
  8
0
 10
288.7065302324736
 20
99.356936563877412
 30
0.0
 11
280.7065302324736
 21
99.356936563877412
 31
0.0
  0
LINE
  5
42C2
  8
0
 10
264.7065302324736
 20
99.356936563877412
 30
0.0
 11
256.7065302324736
 21
99.356936563877412
 31
0.0
  0
LINE
  5
42C3
  8
0
 10
256.7065302324736
 20
95.356936563877468
 30
0.0
 11
264.7065302324736
 21
95.356936563877468
 31
0.0
  0
LINE
  5
42C4
  8
0
 10
280.7065302324736
 20
95.356936563877468
 30
0.0
 11
288.7065302324736
 21
95.356936563877468
 31
0.0
  0
LINE
  5
42C5
  8
0
 10
257.2065302324736
 20
99.856936563877412
 30
0.0
 11
264.70653023247428
 21
99.856936563877412
 31
0.0
  0
LINE
  5
42C6
  8
0
 10
280.70653023247428
 20
99.856936563877412
 30
0.0
 11
288.2065302324736
 21
99.856936563877412
 31
0.0
  0
LINE
  5
44EB
  8
3
 10
195.70653023247351
 20
75.856936563877355
 30
0.0
 11
195.7065302324736
 21
72.279586294687817
 31
0.0
  0
LINE
  5
44EC
  8
3
 10
181.7065302324736
 20
75.856936563877355
 30
0.0
 11
181.7065302324736
 21
72.279586294687817
 31
0.0
  0
LINE
  5
44EF
  8
3
 10
279.7065302324736
 20
191.62993656387849
 30
0.0
 11
279.7065302324736
 21
94.856936563877412
 31
0.0
  0
LINE
  5
44F0
  8
3
 10
265.70653023247371
 20
191.6299365638761
 30
0.0
 11
265.7065302324736
 21
94.856936563877412
 31
0.0
  0
LINE
  5
44F1
  8
3
 10
279.70653023247343
 20
80.856936563877412
 30
0.0
 11
279.70653023247371
 21
72.279586294687803
 31
0.0
  0
LINE
  5
44F2
  8
3
 10
265.70653023247348
 20
80.856936563877412
 30
0.0
 11
265.70653023247348
 21
72.279586294687959
 31
0.0
  0
LINE
  5
4683
  8
1
 10
141.7065302324736
 20
272.35693656387741
 30
0.0
 11
141.7065302324736
 21
249.35693656387741
 31
0.0
  0
LINE
  5
4684
  8
1
 10
158.7065302324736
 20
279.85693656387741
 30
0.0
 11
158.7065302324736
 21
241.85693656387741
 31
0.0
  0
LINE
  5
4688
  8
1
 10
188.7065302324736
 20
249.85693656387741
 30
0.0
 11
188.7065302324736
 21
271.85693656387753
 31
0.0
  0
LINE
  5
46A9
  8
1
 10
272.70653023247121
 20
196.8569365638775
 30
0.0
 11
272.70653023247309
 21
16.856936563877579
 31
0.0
  0
LINE
  5
46B9
  8
1
 10
141.7065302324736
 20
97.856936563877426
 30
0.0
 11
141.7065302324736
 21
72.85693656387599
 31
0.0
  0
LINE
  5
48D6
  8
0
 10
279.45653023247388
 20
70.856936563877454
 30
0.0
 11
279.45653023247388
 21
72.135248727390547
 31
0.0
  0
LINE
  5
48D7
  8
0
 10
265.9565302324736
 20
55.856936563877397
 30
0.0
 11
265.9565302324736
 21
44.122233135913518
 31
0.0
  0
LINE
  5
48DA
  8
3
 10
47.706530232473192
 20
75.856936563875919
 30
0.0
 11
47.706530232473192
 21
72.279586294686382
 31
0.0
  0
LINE
  5
48DB
  8
3
 10
61.706530232473078
 20
75.856936563875919
 30
0.0
 11
61.706530232473199
 21
72.279586294686382
 31
0.0
  0
LINE
  5
48DD
  8
0
 10
62.706530232473192
 20
72.856936563876005
 30
0.0
 11
61.456530232473099
 21
72.856936563876005
 31
0.0
  0
LINE
  5
48DE
  8
0
 10
62.706530232473192
 20
72.856936563876005
 30
0.0
 11
62.706530232473192
 21
75.856936563875976
 31
0.0
  0
LINE
  5
48DF
  8
0
 10
46.706530232473199
 20
75.856936563876033
 30
0.0
 11
46.706530232473199
 21
72.856936563876005
 31
0.0
  0
LINE
  5
48E0
  8
0
 10
61.456530232473092
 20
72.135248727388898
 30
0.0
 11
62.706530232473192
 21
72.856936563876005
 31
0.0
  0
LINE
  5
48E1
  8
0
 10
46.706530232473199
 20
72.856936563876005
 30
0.0
 11
47.956530232473099
 21
72.135248727389026
 31
0.0
  0
LINE
  5
48E2
  8
0
 10
47.956530232473078
 20
72.856936563876005
 30
0.0
 11
46.706530232473199
 21
72.856936563876005
 31
0.0
  0
LINE
  5
4B2F
  8
0
 10
264.70653023247257
 20
75.856936563877241
 30
0.0
 11
253.7065302324722
 21
75.856936563877241
 31
0.0
  0
LINE
  5
4B30
  8
0
 10
291.70653023247218
 20
75.856936563877241
 30
0.0
 11
280.70653023247257
 21
75.856936563877241
 31
0.0
  0
LINE
  5
4B31
  8
0
 10
253.7065302324724
 20
94.856936563877241
 30
0.0
 11
291.70653023247218
 21
94.856936563877241
 31
0.0
  0
LINE
  5
4B32
  8
0
 10
253.7065302324724
 20
94.856936563877241
 30
0.0
 11
253.7065302324724
 21
75.856936563877241
 31
0.0
  0
LINE
  5
4B33
  8
0
 10
264.20653023247257
 20
80.856936563877227
 30
0.0
 11
281.20653023247257
 21
80.856936563877227
 31
0.0
  0
LINE
  5
4B34
  8
0
 10
281.20653023247257
 20
80.856936563877227
 30
0.0
 11
281.20653023247257
 21
75.856936563877241
 31
0.0
  0
LINE
  5
4B35
  8
0
 10
255.7065302324726
 20
94.856936563877241
 30
0.0
 11
255.7065302324726
 21
75.856936563877241
 31
0.0
  0
LINE
  5
4B36
  8
0
 10
264.20653023247257
 20
80.856936563877227
 30
0.0
 11
264.20653023247257
 21
75.856936563877241
 31
0.0
  0
LINE
  5
4B37
  8
0
 10
291.7065302324724
 20
94.856936563877241
 30
0.0
 11
291.7065302324724
 21
75.856936563877241
 31
0.0
  0
LINE
  5
4B38
  8
0
 10
289.70653023247229
 20
94.856936563877241
 30
0.0
 11
289.70653023247229
 21
75.856936563877241
 31
0.0
  0
LINE
  5
4B39
  8
0
 10
73.706530232472971
 20
94.856936563877241
 30
0.0
 11
73.706530232472971
 21
75.856936563877241
 31
0.0
  0
LINE
  5
4B3A
  8
0
 10
66.706530232473199
 20
89.856936563877241
 30
0.0
 11
66.706530232473199
 21
75.856936563877241
 31
0.0
  0
LINE
  5
4B3B
  8
0
 10
66.706530232473199
 20
89.856936563877241
 30
0.0
 11
42.706530232473312
 21
89.856936563877241
 31
0.0
  0
LINE
  5
4B3C
  8
0
 10
71.706530232472971
 20
94.856936563877241
 30
0.0
 11
66.706530232473199
 21
89.856936563877241
 31
0.0
  0
LINE
  5
4B3D
  8
0
 10
37.706530232472971
 20
94.856936563877241
 30
0.0
 11
42.706530232473312
 21
89.856936563877241
 31
0.0
  0
LINE
  5
4B3E
  8
0
 10
73.706530232472971
 20
94.856936563877241
 30
0.0
 11
35.706530232472971
 21
94.856936563877241
 31
0.0
  0
LINE
  5
4B3F
  8
0
 10
35.706530232472971
 20
94.856936563877241
 30
0.0
 11
35.706530232472971
 21
75.856936563877241
 31
0.0
  0
LINE
  5
4B40
  8
0
 10
73.706530232473085
 20
75.856936563877213
 30
0.0
 11
35.706530232472971
 21
75.856936563877241
 31
0.0
  0
LINE
  5
4B41
  8
0
 10
42.706530232473312
 20
89.856936563877241
 30
0.0
 11
42.706530232473312
 21
75.856936563877241
 31
0.0
  0
LINE
  5
4B42
  8
2
 10
203.7065302324736
 20
269.356936563879
 30
0.0
 11
145.15108852074761
 21
269.35693656387861
 31
0.0
  0
LINE
  5
4B43
  8
2
 10
203.7065302324736
 20
252.356936563879
 30
0.0
 11
145.15108852074761
 21
252.35693656387861
 31
0.0
  0
ARC
  5
4B44
  8
2
 10
158.7065302324736
 20
260.85693656387861
 30
0.0
 40
8.5000000000000568
 50
270.0
 51
90.0
  0
LINE
  5
4B45
  8
0
 10
135.8308858854557
 20
279.85693656387872
 30
0.0
 11
123.7065302324736
 21
272.85693656387832
 31
0.0
  0
LINE
  5
4B46
  8
0
 10
123.7065302324736
 20
248.85693656387829
 30
0.0
 11
123.7065302324736
 21
272.85693656387832
 31
0.0
  0
LINE
  5
4B47
  8
0
 10
135.8308858854561
 20
241.85693656387861
 30
0.0
 11
123.7065302324736
 21
248.85693656387829
 31
0.0
  0
LINE
  5
4B49
  8
0
 10
132.36678427031819
 20
243.85693656387861
 30
0.0
 11
132.36678427031799
 21
277.85693656387861
 31
0.0
  0
LINE
  5
4B4B
  8
0
 10
135.8308858854559
 20
241.85693656387861
 30
0.0
 11
201.7065302324736
 21
241.85693656387889
 31
0.0
  0
LINE
  5
4B4C
  8
0
 10
201.7065302324736
 20
241.85693656387889
 30
0.0
 11
203.7065302324736
 21
243.856936563879
 31
0.0
  0
LINE
  5
4B4D
  8
0
 10
203.7065302324736
 20
277.85693656387889
 30
0.0
 11
203.7065302324736
 21
243.856936563879
 31
0.0
  0
LINE
  5
4B4E
  8
0
 10
201.7065302324736
 20
279.85693656387878
 30
0.0
 11
203.7065302324736
 21
277.85693656387889
 31
0.0
  0
LINE
  5
4B4F
  8
0
 10
135.8308858854557
 20
279.85693656387861
 30
0.0
 11
201.7065302324736
 21
279.85693656387878
 31
0.0
  0
LINE
  5
4B50
  8
0
 10
141.7065302324736
 20
269.35693656387838
 30
0.0
 11
145.15108852074761
 21
269.35693656387849
 31
0.0
  0
LINE
  5
4B51
  8
0
 10
145.15108852074761
 20
252.35693656387849
 30
0.0
 11
141.7065302324736
 21
252.35693656387841
 31
0.0
  0
ARC
  5
4B52
  8
0
 10
141.7065302324736
 20
260.85693656387838
 30
0.0
 40
8.5
 50
90.0
 51
270.0
  0
LINE
  5
4B53
  8
2
 10
167.2065302324736
 20
80.85693656387599
 30
0.0
 11
167.2065302324736
 21
94.85693656387599
 31
0.0
  0
LINE
  5
4B54
  8
2
 10
133.2065302324736
 20
94.85693656387599
 30
0.0
 11
133.2065302324736
 21
75.85693656387599
 31
0.0
  0
LINE
  5
4B55
  8
2
 10
203.7065302324736
 20
80.85693656387599
 30
0.0
 11
158.7065302324736
 21
80.85693656387599
 31
0.0
  0
LINE
  5
4B56
  8
2
 10
158.7065302324736
 20
94.85693656387599
 30
0.0
 11
158.7065302324736
 21
80.85693656387599
 31
0.0
  0
LINE
  5
4B58
  8
0
 10
203.7065302324736
 20
94.85693656387599
 30
0.0
 11
203.7065302324736
 21
75.85693656387599
 31
0.0
  0
LINE
  5
4B59
  8
0
 10
132.36678427031819
 20
94.85693656387599
 30
0.0
 11
203.7065302324736
 21
94.85693656387599
 31
0.0
  0
LINE
  5
4B5A
  8
0
 10
123.7065302324736
 20
75.85693656387599
 30
0.0
 11
203.70653023247351
 21
75.85693656387599
 31
0.0
  0
LINE
  5
4B5B
  8
0
 10
132.36678427031819
 20
94.85693656387599
 30
0.0
 11
123.7065302324736
 21
89.85693656387599
 31
0.0
  0
LINE
  5
4B5C
  8
0
 10
123.7065302324736
 20
89.85693656387599
 30
0.0
 11
123.7065302324736
 21
75.85693656387599
 31
0.0
  0
LINE
  5
4B5D
  8
0
 10
201.7065302324736
 20
94.85693656387599
 30
0.0
 11
201.7065302324736
 21
75.85693656387599
 31
0.0
  0
LINE
  5
4B5E
  8
0
 10
135.8308858854559
 20
94.85693656387599
 30
0.0
 11
135.8308858854559
 21
75.85693656387599
 31
0.0
  0
TEXT
  5
4C14
  8
0
 62
     3
 10
0.0
 20
0.0
 30
0.0
 40
10.0
  1
BJ153-16080B2-T
  7
STANDARD1
  0
ENDSEC
  0
EOF
