  0
SECTION
  2
HEADER
  9
$ACADVER
  1
AC1009
  9
$INSBASE
 10
82.638099999999994
 20
103.82319099999999
 30
0.0
  9
$EXTMIN
 10
0.0
 20
-2.960436562073669
 30
0.0
  9
$EXTMAX
 10
330.8384592754557
 20
276.6266293760342
 30
0.0
  9
$LIMMIN
 10
0.0
 20
0.0
  9
$LIMMAX
 10
375.0
 20
270.0
  9
$ORTHOMODE
 70
     1
  9
$REGENMODE
 70
     1
  9
$FILLMODE
 70
     1
  9
$QTEXTMODE
 70
     0
  9
$MIRRTEXT
 70
     0
  9
$DRAGMODE
 70
     2
  9
$LTSCALE
 40
10.0
  9
$OSMODE
 70
  3071
  9
$ATTMODE
 70
     1
  9
$TEXTSIZE
 40
0.06
  9
$TRACEWID
 40
0.05
  9
$TEXTSTYLE
  7
STANDARD
  9
$CLAYER
  8
0
  9
$CELTYPE
  6
BYLAYER
  9
$CECOLOR
 62
   256
  9
$DIMSCALE
 40
1.0
  9
$DIMASZ
 40
3.0
  9
$DIMEXO
 40
2.0
  9
$DIMDLI
 40
10.0
  9
$DIMRND
 40
0.0
  9
$DIMDLE
 40
0.0
  9
$DIMEXE
 40
2.0
  9
$DIMTP
 40
0.0
  9
$DIMTM
 40
0.0
  9
$DIMTXT
 40
3.0
  9
$DIMCEN
 40
0.0
  9
$DIMTSZ
 40
0.0
  9
$DIMTOL
 70
     0
  9
$DIMLIM
 70
     0
  9
$DIMTIH
 70
     0
  9
$DIMTOH
 70
     0
  9
$DIMSE1
 70
     0
  9
$DIMSE2
 70
     0
  9
$DIMTAD
 70
     1
  9
$DIMZIN
 70
     0
  9
$DIMBLK
  1

  9
$DIMASO
 70
     0
  9
$DIMSHO
 70
     0
  9
$DIMPOST
  1

  9
$DIMAPOST
  1

  9
$DIMALT
 70
     0
  9
$DIMALTD
 70
     2
  9
$DIMALTF
 40
25.399999999999999
  9
$DIMLFAC
 40
1.0
  9
$DIMTOFL
 70
     1
  9
$DIMTVP
 40
1.6000000000000001
  9
$DIMTIX
 70
     1
  9
$DIMSOXD
 70
     0
  9
$DIMSAH
 70
     0
  9
$DIMBLK1
  1

  9
$DIMBLK2
  1

  9
$DIMSTYLE
  2
STANDARD
  9
$DIMCLRD
 70
     0
  9
$DIMCLRE
 70
     0
  9
$DIMCLRT
 70
     0
  9
$DIMTFAC
 40
1.0
  9
$DIMGAP
 40
0.09
  9
$LUNITS
 70
     2
  9
$LUPREC
 70
     4
  9
$SKETCHINC
 40
0.1
  9
$FILLETRAD
 40
0.0
  9
$AUNITS
 70
     0
  9
$AUPREC
 70
     4
  9
$MENU
  1
E:\r13\win\SUPPORT\ACAD
  9
$ELEVATION
 40
0.0
  9
$PELEVATION
 40
0.0
  9
$THICKNESS
 40
0.0
  9
$LIMCHECK
 70
     0
  9
$BLIPMODE
 70
     0
  9
$CHAMFERA
 40
0.0
  9
$CHAMFERB
 40
0.0
  9
$SKPOLY
 70
     0
  9
$TDCREATE
 40
2449840.3473495371
  9
$TDUPDATE
 40
2456597.637996864
  9
$TDINDWG
 40
0.0086744213
  9
$TDUSRTIMER
 40
0.0086744213
  9
$USRTIMER
 70
     1
  9
$ANGBASE
 50
0.0
  9
$ANGDIR
 70
     0
  9
$PDMODE
 70
     1
  9
$PDSIZE
 40
0.0
  9
$PLINEWID
 40
0.0
  9
$COORDS
 70
     1
  9
$SPLFRAME
 70
     0
  9
$SPLINETYPE
 70
     6
  9
$SPLINESEGS
 70
     8
  9
$ATTDIA
 70
     0
  9
$ATTREQ
 70
     1
  9
$HANDLING
 70
     1
  9
$HANDSEED
  5
657
  9
$SURFTAB1
 70
     6
  9
$SURFTAB2
 70
     6
  9
$SURFTYPE
 70
     6
  9
$SURFU
 70
     6
  9
$SURFV
 70
     6
  9
$UCSNAME
  2

  9
$UCSORG
 10
0.0
 20
0.0
 30
0.0
  9
$UCSXDIR
 10
1.0
 20
0.0
 30
0.0
  9
$UCSYDIR
 10
0.0
 20
1.0
 30
0.0
  9
$PUCSNAME
  2

  9
$PUCSORG
 10
0.0
 20
0.0
 30
0.0
  9
$PUCSXDIR
 10
1.0
 20
0.0
 30
0.0
  9
$PUCSYDIR
 10
0.0
 20
1.0
 30
0.0
  9
$USERI1
 70
     3
  9
$USERI2
 70
     1
  9
$USERI3
 70
     0
  9
$USERI4
 70
     0
  9
$USERI5
 70
     0
  9
$USERR1
 40
1.0
  9
$USERR2
 40
3.0
  9
$USERR3
 40
3.0
  9
$USERR4
 40
3.0
  9
$USERR5
 40
10.0
  9
$WORLDVIEW
 70
     1
  9
$SHADEDGE
 70
     3
  9
$SHADEDIF
 70
    70
  9
$TILEMODE
 70
     1
  9
$MAXACTVP
 70
    16
  9
$PLIMCHECK
 70
     0
  9
$PEXTMIN
 10
1.0000000000000000E+020
 20
1.0000000000000000E+020
 30
1.0000000000000000E+020
  9
$PEXTMAX
 10
-1.0000000000000000E+020
 20
-1.0000000000000000E+020
 30
-1.0000000000000000E+020
  9
$PLIMMIN
 10
0.0
 20
0.0
  9
$PLIMMAX
 10
12.0
 20
9.0
  9
$UNITMODE
 70
     0
  9
$VISRETAIN
 70
     0
  9
$PLINEGEN
 70
     0
  9
$PSLTSCALE
 70
     0
  0
ENDSEC
  0
SECTION
  2
TABLES
  0
TABLE
  2
VPORT
 70
     1
  0
VPORT
  2
*ACTIVE
 70
     0
 10
0.0
 20
0.0
 11
1.0
 21
1.0
 12
195.24164270894491
 22
136.83596974501691
 13
0.0
 23
0.0
 14
5.0
 24
5.0
 15
10.0
 25
10.0
 16
0.0
 26
0.0
 36
1.0
 17
0.0
 27
0.0
 37
0.0
 40
282.10581171498831
 41
1.8318713450292401
 42
50.0
 43
0.0
 44
0.0
 50
0.0
 51
0.0
 71
     0
 72
   100
 73
     1
 74
     0
 75
     0
 76
     0
 77
     0
 78
     0
  0
ENDTAB
  0
TABLE
  2
LTYPE
 70
     4
  0
LTYPE
  2
CONTINUOUS
 70
     0
  3
Solid Line
 72
    65
 73
     0
 40
0.0
  0
LTYPE
  2
CENTER
 70
     0
  3
____ _ ____ _ ____ _ ____ _ ____ _ ____ _ ____
 72
    65
 73
     4
 40
2.0
 49
1.25
 49
-0.25
 49
0.25
 49
-0.25
  0
LTYPE
  2
HIDDEN
 70
     0
  3
__ __ __ __ __ __ __ __ __ __ __ __ __ __ __ __
 72
    65
 73
     2
 40
0.375
 49
0.25
 49
-0.125
  0
LTYPE
  2
PHANTOM2
 70
     0
  3
___ _ _ ___ _ _ ___ _ _ ___ _ _
 72
    65
 73
     6
 40
1.25
 49
0.625
 49
-0.125
 49
0.125
 49
-0.125
 49
0.125
 49
-0.125
  0
ENDTAB
  0
TABLE
  2
LAYER
 70
     4
  0
LAYER
  2
0
 70
     0
 62
     7
  6
CONTINUOUS
  0
LAYER
  2
1
 70
     0
 62
     1
  6
CENTER
  0
LAYER
  2
2
 70
     0
 62
     2
  6
HIDDEN
  0
LAYER
  2
3
 70
     0
 62
     3
  6
CONTINUOUS
  0
ENDTAB
  0
TABLE
  2
STYLE
 70
     2
  0
STYLE
  2
STANDARD
 70
     0
 40
0.0
 41
1.0
 50
0.0
 71
     0
 42
0.06
  3
TXT
  4
BIGFONT
  0
STYLE
  2
STANDARD1
 70
     0
 40
0.0
 41
1.0
 50
0.0
 71
     0
 42
3.0
  3
txt
  4

  0
ENDTAB
  0
TABLE
  2
VIEW
 70
     0
  0
ENDTAB
  0
TABLE
  2
UCS
 70
     0
  0
ENDTAB
  0
TABLE
  2
APPID
 70
     4
  0
APPID
  2
ACAD
 70
     0
  0
APPID
  2
ACAD_EXEMPT_FROM_CAD_STANDARDS
 70
     0
  0
APPID
  2
ACAD_MLEADERVER
 70
     0
  0
APPID
  2
ACAD_NAV_VCDISPLAY
 70
     0
  0
ENDTAB
  0
TABLE
  2
DIMSTYLE
 70
     1
  0
DIMSTYLE
  2
STANDARD
 70
     0
  3

  4

  5

  6

  7

 40
1.0
 41
0.18
 42
0.0625
 43
0.38
 44
0.18
 45
0.0
 46
0.0
 47
0.0
 48
0.0
140
0.18
141
0.09
142
0.0
143
25.399999999999999
144
1.0
145
0.0
146
1.0
147
0.09
 71
     0
 72
     0
 73
     1
 74
     1
 75
     0
 76
     0
 77
     0
 78
     0
170
     0
171
     2
172
     0
173
     0
174
     0
175
     0
176
     0
177
     0
178
     0
  0
ENDTAB
  0
ENDSEC
  0
SECTION
  2
BLOCKS
  0
BLOCK
  8
0
  2
$MODEL_SPACE
 70
     0
 10
0.0
 20
0.0
 30
0.0
  3
$MODEL_SPACE
  1

  0
ENDBLK
  5
20A
  8
0
  0
BLOCK
 67
     1
  8
0
  2
$PAPER_SPACE
 70
     0
 10
0.0
 20
0.0
 30
0.0
  3
$PAPER_SPACE
  1

  0
ENDBLK
  5
208
 67
     1
  8
0
  0
ENDSEC
  0
SECTION
  2
ENTITIES
  0
LINE
  5
278
  8
0
 10
251.45522440043581
 20
140.0
 30
0.0
 11
93.455224400435796
 21
140.0
 31
0.0
  0
LINE
  5
279
  8
0
 10
92.455224400435768
 20
141.0
 30
0.0
 11
92.455224400435768
 21
156.0
 31
0.0
  0
LINE
  5
27A
  8
0
 10
97.65137640043578
 20
159.0
 30
0.0
 11
251.45522440043581
 21
159.0
 31
0.0
  0
LINE
  5
27B
  8
0
 10
252.45522440043581
 20
158.0
 30
0.0
 11
252.45522440043581
 21
141.0
 31
0.0
  0
LINE
  5
27E
  8
1
 10
112.4552244004358
 20
135.0
 30
0.0
 11
112.4552244004358
 21
164.0
 31
0.0
  0
LINE
  5
27F
  8
2
 10
178.95522440043581
 20
145.0
 30
0.0
 11
178.95522440043581
 21
159.0
 31
0.0
  0
LINE
  5
280
  8
2
 10
105.8052244004358
 20
140.00059999999999
 30
0.0
 11
105.8052244004358
 21
159.0
 31
0.0
  0
LINE
  5
281
  8
0
 10
92.455224400435768
 20
156.0
 30
0.0
 11
97.65137640043578
 21
159.0
 31
0.0
  0
LINE
  5
282
  8
0
 10
251.45522440043581
 20
159.0
 30
0.0
 11
252.45522440043581
 21
158.0
 31
0.0
  0
LINE
  5
283
  8
0
 10
252.45522440043581
 20
141.0
 30
0.0
 11
251.45522440043581
 21
140.0
 31
0.0
  0
LINE
  5
284
  8
0
 10
93.455224400435796
 20
140.0
 30
0.0
 11
92.455224400435768
 21
141.0
 31
0.0
  0
LINE
  5
285
  8
2
 10
252.45522440043581
 20
145.0
 30
0.0
 11
172.45522440043581
 21
145.0
 31
0.0
  0
LINE
  5
286
  8
2
 10
247.45522440043581
 20
145.0
 30
0.0
 11
247.45522440043581
 21
159.0
 31
0.0
  0
LINE
  5
287
  8
2
 10
246.50822440043581
 20
145.0
 30
0.0
 11
246.50822440043581
 21
159.0
 31
0.0
  0
LINE
  5
288
  8
2
 10
236.40222440043581
 20
145.0
 30
0.0
 11
236.40222440043581
 21
159.0
 31
0.0
  0
LINE
  5
289
  8
2
 10
235.45522440043581
 20
145.0
 30
0.0
 11
235.45522440043581
 21
159.0
 31
0.0
  0
LINE
  5
28A
  8
0
 10
104.37507440043581
 20
159.0
 30
0.0
 11
104.37507440043581
 21
140.00059999999999
 31
0.0
  0
LINE
  5
28B
  8
1
 10
41.196955356267601
 20
210.99422799999999
 30
0.0
 11
41.196955356267601
 21
31.000091000000001
 31
0.0
  0
LINE
  5
28C
  8
0
 10
45.196955356267608
 20
41.0
 30
0.0
 11
37.196955356267608
 21
41.0
 31
0.0
  0
LINE
  5
28D
  8
0
 10
35.196955356267608
 20
43.0
 30
0.0
 11
35.196955356267608
 21
65.0
 31
0.0
  0
LINE
  5
28E
  8
0
 10
37.196955356267608
 20
201.0
 30
0.0
 11
45.196955356267608
 21
201.0
 31
0.0
  0
LINE
  5
28F
  8
0
 10
47.196955356267608
 20
199.0
 30
0.0
 11
47.196955356267608
 21
179.52225100000001
 31
0.0
  0
LINE
  5
290
  8
0
 10
35.196955356267608
 20
199.0
 30
0.0
 11
37.196955356267608
 21
201.0
 31
0.0
  0
LINE
  5
291
  8
0
 10
47.196955356267608
 20
199.0
 30
0.0
 11
45.196955356267608
 21
201.0
 31
0.0
  0
LINE
  5
292
  8
0
 10
45.196955356267608
 20
41.0
 30
0.0
 11
47.196955356267608
 21
43.0
 31
0.0
  0
LINE
  5
293
  8
0
 10
37.196955356267608
 20
41.0
 30
0.0
 11
35.196955356267608
 21
43.0
 31
0.0
  0
LINE
  5
294
  8
0
 10
35.196955356267608
 20
43.0
 30
0.0
 11
47.196955356267608
 21
43.0
 31
0.0
  0
LINE
  5
295
  8
3
 10
35.196955356267608
 20
82.558845999999988
 30
0.0
 11
36.096955356267607
 21
81.0
 31
0.0
  0
LINE
  5
296
  8
3
 10
36.096955356267607
 20
81.0
 30
0.0
 11
36.096955356267607
 21
72.000000000000014
 31
0.0
  0
LINE
  5
297
  8
0
 10
35.196955356267608
 20
81.0
 30
0.0
 11
47.196955356267608
 21
81.0
 31
0.0
  0
LINE
  5
298
  8
3
 10
47.196955356267608
 20
82.558845999999988
 30
0.0
 11
46.29695535626761
 21
81.0
 31
0.0
  0
LINE
  5
299
  8
3
 10
46.29695535626761
 20
81.0
 30
0.0
 11
46.29695535626761
 21
72.000000000000014
 31
0.0
  0
LINE
  5
29A
  8
3
 10
46.29695535626761
 20
179.52225100000001
 30
0.0
 11
46.29695535626761
 21
199.90000000000001
 31
0.0
  0
LINE
  5
29E
  8
3
 10
36.096955356267607
 20
179.52225100000001
 30
0.0
 11
36.096955356267607
 21
199.90000000000001
 31
0.0
  0
LINE
  5
29F
  8
0
 10
35.196955356267608
 20
199.0
 30
0.0
 11
47.196955356267608
 21
199.0
 31
0.0
  0
LINE
  5
2A0
  8
0
 10
318.8384592754557
 20
194.56633600000001
 30
0.0
 11
310.8384592754557
 21
194.56633600000001
 31
0.0
  0
LINE
  5
2A2
  8
0
 10
308.8384592754557
 20
79.566335999999993
 30
0.0
 11
320.8384592754557
 21
79.566335999999993
 31
0.0
  0
LINE
  5
2A4
  8
0
 10
318.8384592754557
 20
194.56633600000001
 30
0.0
 11
320.8384592754557
 21
192.56633600000001
 31
0.0
  0
LINE
  5
2A5
  8
0
 10
310.8384592754557
 20
194.56633600000001
 30
0.0
 11
308.8384592754557
 21
192.56633600000001
 31
0.0
  0
LINE
  5
2A6
  8
0
 10
320.8384592754557
 20
192.56633600000001
 30
0.0
 11
308.8384592754557
 21
192.56633600000001
 31
0.0
  0
LINE
  5
2A7
  8
0
 10
308.8384592754557
 20
79.566335999999993
 30
0.0
 11
311.03845927545558
 21
78.296165000000002
 31
0.0
  0
LINE
  5
2A8
  8
0
 10
320.8384592754557
 20
79.566335999999993
 30
0.0
 11
318.63845927545572
 21
78.296165000000002
 31
0.0
  0
ARC
  5
2A9
  8
0
 10
310.8384592754557
 20
77.949754999999996
 30
0.0
 40
0.4
 50
7.2160990000001703
 51
60.0
  0
LINE
  5
2AA
  8
3
 10
309.78545927545559
 20
193.51333600000001
 30
0.0
 11
309.78545927545559
 21
159.0
 31
0.0
  0
LINE
  5
2AB
  8
3
 10
319.89145927545559
 20
193.51333600000001
 30
0.0
 11
319.89145927545559
 21
159.0
 31
0.0
  0
ARC
  5
2AD
  8
0
 10
318.8384592754557
 20
77.949754999999996
 30
0.0
 40
0.4
 50
120.0
 51
172.78390099999979
  0
LINE
  5
2AE
  8
0
 10
327.3384592754557
 20
66.0
 30
0.0
 11
326.33845927545559
 21
65.0
 31
0.0
  0
LINE
  5
2AF
  8
0
 10
326.33845927545559
 20
71.0
 30
0.0
 11
327.3384592754557
 21
70.0
 31
0.0
  0
LINE
  5
2B0
  8
0
 10
322.8384592754557
 20
78.0
 30
0.0
 11
323.83845927545559
 21
77.0
 31
0.0
  0
LINE
  5
2B1
  8
0
 10
305.8384592754557
 20
77.0
 30
0.0
 11
306.83845927545559
 21
78.0
 31
0.0
  0
LINE
  5
2B2
  8
0
 10
302.3384592754557
 20
70.0
 30
0.0
 11
303.33845927545559
 21
71.0
 31
0.0
  0
LINE
  5
2B3
  8
0
 10
303.33845927545559
 20
65.0
 30
0.0
 11
302.3384592754557
 21
66.0
 31
0.0
  0
ARC
  5
2B4
  8
0
 10
325.83845927545559
 20
73.0
 30
0.0
 40
2.0
 50
180.0
 51
270.0
  0
ARC
  5
2B5
  8
0
 10
303.8384592754557
 20
73.0
 30
0.0
 40
2.0
 50
270.0
 51
0.0
  0
LINE
  5
2B6
  8
0
 10
302.3384592754557
 20
70.0
 30
0.0
 11
302.3384592754557
 21
66.0
 31
0.0
  0
LINE
  5
2B8
  8
0
 10
305.8384592754557
 20
77.0
 30
0.0
 11
305.8384592754557
 21
73.0
 31
0.0
  0
LINE
  5
2B9
  8
0
 10
322.8384592754557
 20
78.0
 30
0.0
 11
306.83845927545559
 21
78.0
 31
0.0
  0
LINE
  5
2BA
  8
0
 10
323.83845927545559
 20
73.0
 30
0.0
 11
323.83845927545559
 21
77.0
 31
0.0
  0
LINE
  5
2BC
  8
0
 10
327.3384592754557
 20
66.0
 30
0.0
 11
327.3384592754557
 21
70.0
 31
0.0
  0
LINE
  5
2BD
  8
0
 10
303.33845927545559
 20
65.0
 30
0.0
 11
326.33845927545559
 21
65.0
 31
0.0
  0
LINE
  5
2BE
  8
0
 10
303.33845927545559
 20
71.0
 30
0.0
 11
326.33845927545559
 21
71.0
 31
0.0
  0
LINE
  5
2BF
  8
1
 10
314.8384592754557
 20
210.99422799999999
 30
0.0
 11
314.8384592754557
 21
31.000091000000001
 31
0.0
  0
LINE
  5
2C0
  8
0
 10
318.8384592754557
 20
41.0
 30
0.0
 11
310.8384592754557
 21
41.0
 31
0.0
  0
LINE
  5
2C1
  8
0
 10
308.8384592754557
 20
43.0
 30
0.0
 11
308.8384592754557
 21
65.0
 31
0.0
  0
LINE
  5
2C2
  8
0
 10
310.8384592754557
 20
201.0
 30
0.0
 11
318.8384592754557
 21
201.0
 31
0.0
  0
LINE
  5
2C3
  8
0
 10
320.8384592754557
 20
199.0
 30
0.0
 11
320.8384592754557
 21
159.0
 31
0.0
  0
LINE
  5
2C4
  8
0
 10
308.8384592754557
 20
199.0
 30
0.0
 11
310.8384592754557
 21
201.0
 31
0.0
  0
LINE
  5
2C5
  8
0
 10
320.8384592754557
 20
199.0
 30
0.0
 11
318.8384592754557
 21
201.0
 31
0.0
  0
LINE
  5
2C6
  8
0
 10
318.8384592754557
 20
41.0
 30
0.0
 11
320.8384592754557
 21
43.0
 31
0.0
  0
LINE
  5
2C7
  8
0
 10
310.8384592754557
 20
41.0
 30
0.0
 11
308.8384592754557
 21
43.0
 31
0.0
  0
LINE
  5
2C8
  8
0
 10
308.8384592754557
 20
43.0
 30
0.0
 11
320.8384592754557
 21
43.0
 31
0.0
  0
LINE
  5
2CA
  8
3
 10
309.73845927545563
 20
79.046720590909089
 30
0.0
 11
309.73845927545563
 21
78.0
 31
0.0
  0
LINE
  5
2CD
  8
3
 10
319.93845927545573
 20
79.046720590909089
 30
0.0
 11
319.93845927545573
 21
78.0
 31
0.0
  0
LINE
  5
2CE
  8
3
 10
319.93845927545573
 20
193.4663359999999
 30
0.0
 11
319.93845927545573
 21
199.90000000000001
 31
0.0
  0
LINE
  5
2D2
  8
3
 10
309.73845927545563
 20
193.46633600000001
 30
0.0
 11
309.73845927545563
 21
199.90000000000001
 31
0.0
  0
LINE
  5
2D3
  8
0
 10
308.8384592754557
 20
199.0
 30
0.0
 11
320.8384592754557
 21
199.0
 31
0.0
  0
LINE
  5
2D4
  8
1
 10
172.45522440043581
 20
210.99422799999999
 30
0.0
 11
172.45522440043581
 21
31.000091000000001
 31
0.0
  0
LINE
  5
2D5
  8
0
 10
176.45522440043581
 20
41.0
 30
0.0
 11
168.45522440043581
 21
41.0
 31
0.0
  0
LINE
  5
2D6
  8
0
 10
166.45522440043581
 20
43.0
 30
0.0
 11
166.45522440043581
 21
65.0
 31
0.0
  0
LINE
  5
2D7
  8
0
 10
168.45522440043581
 20
201.0
 30
0.0
 11
176.45522440043581
 21
201.0
 31
0.0
  0
LINE
  5
2D8
  8
0
 10
178.4552244004357
 20
199.0
 30
0.0
 11
178.4552244004357
 21
179.52225100000001
 31
0.0
  0
LINE
  5
2D9
  8
0
 10
166.45522440043581
 20
199.0
 30
0.0
 11
168.45522440043581
 21
201.0
 31
0.0
  0
LINE
  5
2DA
  8
0
 10
178.4552244004357
 20
199.0
 30
0.0
 11
176.45522440043581
 21
201.0
 31
0.0
  0
LINE
  5
2DB
  8
0
 10
176.45522440043581
 20
41.0
 30
0.0
 11
178.4552244004357
 21
43.0
 31
0.0
  0
LINE
  5
2DC
  8
0
 10
168.45522440043581
 20
41.0
 30
0.0
 11
166.45522440043581
 21
43.0
 31
0.0
  0
LINE
  5
2DD
  8
0
 10
166.45522440043581
 20
43.0
 30
0.0
 11
178.4552244004357
 21
43.0
 31
0.0
  0
LINE
  5
2DE
  8
3
 10
166.45522440043581
 20
82.558845999999988
 30
0.0
 11
167.35522440043579
 21
81.0
 31
0.0
  0
LINE
  5
2DF
  8
3
 10
167.35522440043579
 20
81.0
 30
0.0
 11
167.35522440043579
 21
72.000000000000014
 31
0.0
  0
LINE
  5
2E0
  8
0
 10
166.45522440043581
 20
81.0
 30
0.0
 11
178.4552244004357
 21
81.0
 31
0.0
  0
LINE
  5
2E1
  8
3
 10
178.4552244004357
 20
82.558845999999988
 30
0.0
 11
177.5552244004358
 21
81.0
 31
0.0
  0
LINE
  5
2E2
  8
3
 10
177.5552244004358
 20
81.0
 30
0.0
 11
177.5552244004358
 21
72.000000000000014
 31
0.0
  0
LINE
  5
2E3
  8
3
 10
177.5552244004358
 20
179.52225100000001
 30
0.0
 11
177.5552244004358
 21
199.90000000000001
 31
0.0
  0
LINE
  5
2E7
  8
3
 10
167.35522440043579
 20
179.52225100000001
 30
0.0
 11
167.35522440043579
 21
199.90000000000001
 31
0.0
  0
LINE
  5
2E8
  8
0
 10
166.45522440043581
 20
199.0
 30
0.0
 11
178.4552244004357
 21
199.0
 31
0.0
  0
LINE
  5
2E9
  8
0
 10
245.45522440043581
 20
194.56633600000001
 30
0.0
 11
237.45522440043581
 21
194.56633600000001
 31
0.0
  0
LINE
  5
2EA
  8
0
 10
235.45522440043581
 20
192.56633600000001
 30
0.0
 11
235.45522440043581
 21
159.0
 31
0.0
  0
LINE
  5
2EB
  8
0
 10
235.45522440043581
 20
79.566335999999993
 30
0.0
 11
247.45522440043581
 21
79.566335999999993
 31
0.0
  0
LINE
  5
2EC
  8
0
 10
247.45522440043581
 20
79.566335999999993
 30
0.0
 11
247.45522440043581
 21
140.0
 31
0.0
  0
LINE
  5
2ED
  8
0
 10
245.45522440043581
 20
194.56633600000001
 30
0.0
 11
247.45522440043581
 21
192.56633600000001
 31
0.0
  0
LINE
  5
2EE
  8
0
 10
237.45522440043581
 20
194.56633600000001
 30
0.0
 11
235.45522440043581
 21
192.56633600000001
 31
0.0
  0
LINE
  5
2EF
  8
0
 10
247.45522440043581
 20
192.56633600000001
 30
0.0
 11
235.45522440043581
 21
192.56633600000001
 31
0.0
  0
LINE
  5
2F0
  8
0
 10
235.45522440043581
 20
79.566335999999993
 30
0.0
 11
237.6552244004358
 21
78.296165000000002
 31
0.0
  0
LINE
  5
2F1
  8
0
 10
247.45522440043581
 20
79.566335999999993
 30
0.0
 11
245.25522440043579
 21
78.296165000000002
 31
0.0
  0
ARC
  5
2F2
  8
0
 10
237.45522440043581
 20
77.949754999999996
 30
0.0
 40
0.4
 50
7.2160990000003586
 51
59.999999999999879
  0
LINE
  5
2F3
  8
3
 10
236.40222440043581
 20
193.51333600000001
 30
0.0
 11
236.40222440043581
 21
159.0
 31
0.0
  0
LINE
  5
2F4
  8
3
 10
246.50822440043581
 20
193.51333600000001
 30
0.0
 11
246.50822440043581
 21
159.0
 31
0.0
  0
LINE
  5
2F5
  8
1
 10
241.45522440043581
 20
199.56633600000001
 30
0.0
 11
241.45522440043581
 21
59.566335999999993
 31
0.0
  0
ARC
  5
2F6
  8
0
 10
245.45522440043581
 20
77.949754999999996
 30
0.0
 40
0.4
 50
120.0000000000001
 51
172.78390099999959
  0
LINE
  5
2F7
  8
0
 10
253.95522440043581
 20
66.0
 30
0.0
 11
252.95522440043581
 21
65.0
 31
0.0
  0
LINE
  5
2F8
  8
0
 10
252.95522440043581
 20
71.0
 30
0.0
 11
253.95522440043581
 21
70.0
 31
0.0
  0
LINE
  5
2F9
  8
0
 10
249.45522440043581
 20
78.0
 30
0.0
 11
250.45522440043581
 21
77.0
 31
0.0
  0
LINE
  5
2FA
  8
0
 10
232.45522440043581
 20
77.0
 30
0.0
 11
233.45522440043581
 21
78.0
 31
0.0
  0
LINE
  5
2FB
  8
0
 10
228.95522440043581
 20
70.0
 30
0.0
 11
229.95522440043581
 21
71.0
 31
0.0
  0
LINE
  5
2FC
  8
0
 10
229.95522440043581
 20
65.0
 30
0.0
 11
228.95522440043581
 21
66.0
 31
0.0
  0
ARC
  5
2FD
  8
0
 10
252.45522440043581
 20
73.0
 30
0.0
 40
2.0
 50
180.0
 51
270.0
  0
ARC
  5
2FE
  8
0
 10
230.45522440043581
 20
73.0
 30
0.0
 40
2.0
 50
270.0
 51
0.0
  0
LINE
  5
2FF
  8
0
 10
228.95522440043581
 20
70.0
 30
0.0
 11
228.95522440043581
 21
66.0
 31
0.0
  0
LINE
  5
301
  8
0
 10
232.45522440043581
 20
77.0
 30
0.0
 11
232.45522440043581
 21
73.0
 31
0.0
  0
LINE
  5
302
  8
0
 10
249.45522440043581
 20
78.0
 30
0.0
 11
233.45522440043581
 21
78.0
 31
0.0
  0
LINE
  5
303
  8
0
 10
250.45522440043581
 20
73.0
 30
0.0
 11
250.45522440043581
 21
77.0
 31
0.0
  0
LINE
  5
305
  8
0
 10
253.95522440043581
 20
66.0
 30
0.0
 11
253.95522440043581
 21
70.0
 31
0.0
  0
LINE
  5
306
  8
0
 10
229.95522440043581
 20
65.0
 30
0.0
 11
252.95522440043581
 21
65.0
 31
0.0
  0
LINE
  5
307
  8
0
 10
229.95522440043581
 20
71.0
 30
0.0
 11
252.95522440043581
 21
71.0
 31
0.0
  0
LINE
  5
308
  8
0
 10
50.696955356267608
 20
71.711325000000002
 30
0.0
 11
50.196955356267608
 21
72.0
 31
0.0
  0
ARC
  5
309
  8
0
 10
45.946955356267608
 20
57.991641000000001
 30
0.0
 40
13.719684000000001
 50
69.743842000000313
 51
110.2561579999997
  0
LINE
  5
30A
  8
0
 10
50.196955356267608
 20
65.0
 30
0.0
 11
50.696955356267608
 21
65.360472000000001
 31
0.0
  0
LINE
  5
30B
  8
0
 10
50.696955356267608
 20
65.360472000000001
 30
0.0
 11
50.696955356267608
 21
71.711325000000002
 31
0.0
  0
ARC
  5
30C
  8
0
 10
45.946955356267608
 20
79.008358999999999
 30
0.0
 40
13.719684000000001
 50
249.74384200000031
 51
290.25615800000008
  0
ARC
  5
30D
  8
0
 10
36.446955356267608
 20
79.008358999999999
 30
0.0
 40
13.719684000000001
 50
249.74384200000031
 51
290.25615800000008
  0
LINE
  5
30E
  8
0
 10
31.696955356267608
 20
65.360472000000001
 30
0.0
 11
31.696955356267608
 21
71.711325000000002
 31
0.0
  0
LINE
  5
30F
  8
0
 10
32.196955356267608
 20
65.0
 30
0.0
 11
31.696955356267608
 21
65.360472000000001
 31
0.0
  0
ARC
  5
310
  8
0
 10
36.446955356267608
 20
57.991641000000001
 30
0.0
 40
13.719684000000001
 50
69.743842000000313
 51
110.2561579999997
  0
LINE
  5
311
  8
0
 10
31.696955356267608
 20
71.711325000000002
 30
0.0
 11
32.196955356267608
 21
72.0
 31
0.0
  0
LINE
  5
312
  8
0
 10
32.196955356267608
 20
72.0
 30
0.0
 11
50.196955356267608
 21
72.0
 31
0.0
  0
LINE
  5
313
  8
0
 10
50.196955356267608
 20
65.0
 30
0.0
 11
32.196955356267608
 21
65.0
 31
0.0
  0
LINE
  5
314
  8
0
 10
41.196955356267601
 20
70.862819000000002
 30
0.0
 11
41.196955356267601
 21
66.137180999999984
 31
0.0
  0
LINE
  5
315
  8
0
 10
177.94005240043569
 20
70.862819000000002
 30
0.0
 11
177.94005240043569
 21
66.137180999999984
 31
0.0
  0
LINE
  5
316
  8
0
 10
183.42487940043571
 20
70.862819000000002
 30
0.0
 11
183.42487940043571
 21
66.137180999999984
 31
0.0
  0
LINE
  5
317
  8
0
 10
166.97039640043579
 20
70.862819000000002
 30
0.0
 11
166.97039640043579
 21
66.137180999999984
 31
0.0
  0
LINE
  5
318
  8
0
 10
161.48556940043579
 20
70.862819000000002
 30
0.0
 11
161.48556940043579
 21
66.137180999999984
 31
0.0
  0
LINE
  5
319
  8
0
 10
161.48556940043579
 20
66.137180999999984
 30
0.0
 11
163.45522440043581
 21
65.0
 31
0.0
  0
ARC
  5
31A
  8
0
 10
164.22798340043579
 20
70.144738000000004
 30
0.0
 40
4.8560629999999989
 50
244.38424699999999
 51
304.38424700000007
  0
ARC
  5
31B
  8
0
 10
172.45522440043581
 20
83.440168999999983
 30
0.0
 40
18.151494
 50
252.41204599999941
 51
287.58795400000048
  0
ARC
  5
31C
  8
0
 10
180.68246540043569
 20
70.144738000000004
 30
0.0
 40
4.8560629999999989
 50
235.6157529999999
 51
295.61575299999993
  0
LINE
  5
31D
  8
0
 10
183.42487940043571
 20
66.137180999999984
 30
0.0
 11
181.4552244004357
 21
65.0
 31
0.0
  0
LINE
  5
31E
  8
0
 10
163.45522440043581
 20
65.0
 30
0.0
 11
181.4552244004357
 21
65.0
 31
0.0
  0
LINE
  5
31F
  8
0
 10
163.45522440043581
 20
72.0
 30
0.0
 11
181.4552244004357
 21
72.0
 31
0.0
  0
LINE
  5
320
  8
0
 10
183.42487940043571
 20
70.862819000000002
 30
0.0
 11
181.4552244004357
 21
72.0
 31
0.0
  0
ARC
  5
321
  8
0
 10
180.68246540043569
 20
66.855261999999996
 30
0.0
 40
4.8560629999999989
 50
64.384247000000144
 51
124.3842470000001
  0
ARC
  5
322
  8
0
 10
172.45522440043581
 20
53.559831000000003
 30
0.0
 40
18.151494
 50
72.412045999999364
 51
107.58795400000059
  0
ARC
  5
323
  8
0
 10
164.22798340043579
 20
66.855261999999996
 30
0.0
 40
4.8560629999999989
 50
55.615752999999877
 51
115.6157529999998
  0
LINE
  5
324
  8
0
 10
161.48556940043579
 20
70.862819000000002
 30
0.0
 11
163.45522440043581
 21
72.0
 31
0.0
  0
CIRCLE
  5
327
  8
3
 10
172.45522440043581
 20
254.956651198934
 30
0.0
 40
5.0999999999999988
  0
CIRCLE
  5
328
  8
0
 10
172.45522440043581
 20
254.956651198934
 30
0.0
 40
6.0
  0
LINE
  5
329
  8
0
 10
178.16688940043579
 20
245.84954519893401
 30
0.0
 11
183.19804240043581
 21
254.56375719893401
 31
0.0
  0
ARC
  5
32A
  8
0
 10
172.45522440043581
 20
254.956651198934
 30
0.0
 40
10.75
 50
357.90547299999992
 51
2.0945270000001321
  0
LINE
  5
32B
  8
0
 10
183.19804240043581
 20
255.34954519893401
 30
0.0
 11
178.16688940043579
 21
264.06375719893401
 31
0.0
  0
ARC
  5
32C
  8
0
 10
172.45522440043581
 20
254.956651198934
 30
0.0
 40
10.75
 50
57.905473000000477
 51
62.094527000000632
  0
LINE
  5
32D
  8
0
 10
177.4863774004358
 20
264.45665119893403
 30
0.0
 11
167.42407140043579
 21
264.45665119893403
 31
0.0
  0
ARC
  5
32E
  8
0
 10
172.45522440043581
 20
254.956651198934
 30
0.0
 40
10.75
 50
117.9054729999994
 51
122.0945269999995
  0
LINE
  5
32F
  8
0
 10
166.74355940043569
 20
264.06375719893401
 30
0.0
 11
161.7124064004357
 21
255.34954519893401
 31
0.0
  0
ARC
  5
330
  8
0
 10
172.45522440043581
 20
254.956651198934
 30
0.0
 40
10.75
 50
177.9054729999998
 51
182.09452700000011
  0
LINE
  5
331
  8
0
 10
161.7124064004357
 20
254.56375719893401
 30
0.0
 11
166.74355940043569
 21
245.84954519893401
 31
0.0
  0
ARC
  5
332
  8
0
 10
172.45522440043581
 20
254.956651198934
 30
0.0
 40
10.75
 50
237.90547300000051
 51
242.0945270000006
  0
LINE
  5
333
  8
0
 10
167.42407140043579
 20
245.456651198934
 30
0.0
 11
177.4863774004358
 21
245.456651198934
 31
0.0
  0
ARC
  5
334
  8
0
 10
172.45522440043581
 20
254.956651198934
 30
0.0
 40
10.75
 50
297.90547299999929
 51
302.09452699999952
  0
CIRCLE
  5
335
  8
0
 10
172.45522440043581
 20
254.956651198934
 30
0.0
 40
13.0
  0
CIRCLE
  5
336
  8
0
 10
172.45522440043581
 20
254.956651198934
 30
0.0
 40
9.0
  0
LINE
  5
337
  8
1
 10
172.45522440043581
 20
276.6266293760342
 30
0.0
 11
172.45522440043581
 21
233.28667302183371
 31
0.0
  0
LINE
  5
33B
  8
0
 10
50.196955356267608
 20
154.0
 30
0.0
 11
55.196955356267608
 21
159.0
 31
0.0
  0
LINE
  5
33C
  8
0
 10
32.196955356267608
 20
154.0
 30
0.0
 11
27.196955356267608
 21
159.0
 31
0.0
  0
LINE
  5
33D
  8
0
 10
50.196955356267608
 20
154.0
 30
0.0
 11
50.196955356267608
 21
140.0
 31
0.0
  0
LINE
  5
33E
  8
0
 10
32.196955356267608
 20
154.0
 30
0.0
 11
32.196955356267608
 21
140.0
 31
0.0
  0
LINE
  5
33F
  8
0
 10
26.196955356267608
 20
159.0
 30
0.0
 11
25.196955356267608
 21
158.0
 31
0.0
  0
LINE
  5
340
  8
0
 10
57.196955356267608
 20
158.0
 30
0.0
 11
56.196955356267601
 21
159.0
 31
0.0
  0
LINE
  5
341
  8
0
 10
56.196955356267601
 20
140.0
 30
0.0
 11
57.196955356267608
 21
141.0
 31
0.0
  0
LINE
  5
342
  8
0
 10
26.196955356267608
 20
140.0
 30
0.0
 11
25.196955356267608
 21
141.0
 31
0.0
  0
LINE
  5
343
  8
0
 10
50.196955356267608
 20
154.0
 30
0.0
 11
32.196955356267608
 21
154.0
 31
0.0
  0
LINE
  5
345
  8
0
 10
26.196955356267608
 20
159.0
 30
0.0
 11
56.196955356267601
 21
159.0
 31
0.0
  0
LINE
  5
346
  8
0
 10
25.196955356267608
 20
141.0
 30
0.0
 11
25.196955356267608
 21
158.0
 31
0.0
  0
LINE
  5
347
  8
0
 10
56.196955356267601
 20
140.0
 30
0.0
 11
26.196955356267608
 21
140.0
 31
0.0
  0
LINE
  5
348
  8
0
 10
57.196955356267608
 20
158.0
 30
0.0
 11
57.196955356267608
 21
141.0
 31
0.0
  0
LINE
  5
34B
  8
0
 10
329.83845927545559
 20
140.0
 30
0.0
 11
330.8384592754557
 21
141.0
 31
0.0
  0
LINE
  5
34C
  8
0
 10
298.83845927545559
 20
141.0
 30
0.0
 11
299.8384592754557
 21
140.0
 31
0.0
  0
LINE
  5
34D
  8
0
 10
299.8384592754557
 20
159.0
 30
0.0
 11
298.83845927545559
 21
158.0
 31
0.0
  0
LINE
  5
34E
  8
0
 10
329.83845927545559
 20
159.0
 30
0.0
 11
330.8384592754557
 21
158.0
 31
0.0
  0
LINE
  5
350
  8
0
 10
321.3384592754557
 20
145.0
 30
0.0
 11
321.3384592754557
 21
140.0
 31
0.0
  0
LINE
  5
351
  8
0
 10
308.3384592754557
 20
145.0
 30
0.0
 11
308.3384592754557
 21
140.0
 31
0.0
  0
LINE
  5
352
  8
0
 10
321.3384592754557
 20
145.0
 30
0.0
 11
308.3384592754557
 21
145.0
 31
0.0
  0
LINE
  5
354
  8
0
 10
329.83845927545559
 20
140.0
 30
0.0
 11
299.8384592754557
 21
140.0
 31
0.0
  0
LINE
  5
355
  8
0
 10
330.8384592754557
 20
158.0
 30
0.0
 11
330.8384592754557
 21
141.0
 31
0.0
  0
LINE
  5
356
  8
0
 10
299.8384592754557
 20
159.0
 30
0.0
 11
329.83845927545559
 21
159.0
 31
0.0
  0
LINE
  5
357
  8
0
 10
298.83845927545559
 20
141.0
 30
0.0
 11
298.83845927545559
 21
158.0
 31
0.0
  0
LINE
  5
358
  8
0
 10
239.7231734004358
 20
251.956651198934
 30
0.0
 11
243.18727540043579
 21
251.956651198934
 31
0.0
  0
LINE
  5
359
  8
0
 10
243.18727540043579
 20
251.956651198934
 30
0.0
 11
244.91932640043581
 21
254.956651198934
 31
0.0
  0
LINE
  5
35A
  8
0
 10
244.91932640043581
 20
254.956651198934
 30
0.0
 11
243.18727540043579
 21
257.95665119893403
 31
0.0
  0
LINE
  5
35B
  8
0
 10
243.18727540043579
 20
257.95665119893403
 30
0.0
 11
239.7231734004358
 21
257.95665119893403
 31
0.0
  0
LINE
  5
35C
  8
0
 10
239.7231734004358
 20
257.95665119893403
 30
0.0
 11
237.99112240043581
 21
254.956651198934
 31
0.0
  0
LINE
  5
35D
  8
0
 10
237.99112240043581
 20
254.956651198934
 30
0.0
 11
239.7231734004358
 21
251.956651198934
 31
0.0
  0
CIRCLE
  5
35E
  8
0
 10
241.45522440043581
 20
254.956651198934
 30
0.0
 40
6.0
  0
CIRCLE
  5
35F
  8
3
 10
241.45522440043581
 20
254.956651198934
 30
0.0
 40
5.0529999999999973
  0
LINE
  5
360
  8
1
 10
241.45522440043581
 20
269.95665119893403
 30
0.0
 11
241.45522440043581
 21
239.956651198934
 31
0.0
  0
ARC
  5
362
  8
2
 10
241.45522440043581
 20
254.956651198934
 30
0.0
 40
12.5
 50
28.357636576327909
 51
331.6423634236719
  0
CIRCLE
  5
363
  8
2
 10
241.45522440043581
 20
254.956651198934
 30
0.0
 40
9.0
  0
LINE
  5
365
  8
2
 10
161.1968941512381
 20
261.45665119893403
 30
0.0
 11
252.45522440043581
 21
261.45665119893403
 31
0.0
  0
LINE
  5
366
  8
2
 10
161.1968941512381
 20
248.456651198934
 30
0.0
 11
252.45522440043581
 21
248.456651198934
 31
0.0
  0
ARC
  5
367
  8
0
 10
112.4552244004358
 20
254.956651198934
 30
0.0
 40
6.5
 50
90.0
 51
270.0
  0
ARC
  5
368
  8
2
 10
172.45522440043581
 20
254.956651198934
 30
0.0
 40
6.5
 50
270.0
 51
90.0
  0
LINE
  5
369
  8
0
 10
161.1968941512381
 20
261.45665119893403
 30
0.0
 11
112.4552244004358
 21
261.45665119893403
 31
0.0
  0
LINE
  5
36A
  8
0
 10
161.1968941512381
 20
248.456651198934
 30
0.0
 11
112.4552244004358
 21
248.456651198934
 31
0.0
  0
LINE
  5
36B
  8
0
 10
97.480367400435796
 20
266.85791919893393
 30
0.0
 11
97.480367400435796
 21
243.05538319893401
 31
0.0
  0
LINE
  5
36C
  8
0
 10
92.455224400435768
 20
263.95665119893403
 30
0.0
 11
104.5795804004358
 21
270.95665119893403
 31
0.0
  0
LINE
  5
36D
  8
0
 10
92.455224400435768
 20
245.956651198934
 30
0.0
 11
104.5795804004358
 21
238.956651198934
 31
0.0
  0
LINE
  5
36E
  8
0
 10
92.455224400435768
 20
245.956651198934
 30
0.0
 11
92.455224400435768
 21
263.95665119893403
 31
0.0
  0
LINE
  5
36F
  8
0
 10
252.45522440043581
 20
240.956651198934
 30
0.0
 11
250.45522440043581
 21
238.956651198934
 31
0.0
  0
LINE
  5
370
  8
0
 10
250.45522440043581
 20
270.95665119893403
 30
0.0
 11
252.45522440043581
 21
268.95665119893403
 31
0.0
  0
CIRCLE
  5
371
  8
3
 10
241.45522440043581
 20
254.956651198934
 30
0.0
 40
6.0
  0
LINE
  5
372
  8
1
 10
112.4552244004358
 20
242.47748419893401
 30
0.0
 11
112.4552244004358
 21
267.4128861989339
 31
0.0
  0
LINE
  5
375
  8
1
 10
262.45522440043578
 20
254.956651198934
 30
0.0
 11
82.455224400435768
 21
254.956651198934
 31
0.0
  0
LINE
  5
376
  8
0
 10
252.45522440043581
 20
268.95665119893403
 30
0.0
 11
252.45522440043581
 21
240.956651198934
 31
0.0
  0
LINE
  5
377
  8
0
 10
104.5795804004358
 20
270.95665119893403
 30
0.0
 11
250.45522440043581
 21
270.95665119893403
 31
0.0
  0
LINE
  5
378
  8
0
 10
250.45522440043581
 20
238.956651198934
 30
0.0
 11
104.5795804004358
 21
238.956651198934
 31
0.0
  0
ARC
  5
379
  8
0
 10
180.51772440043581
 20
175.44278199999999
 30
0.0
 40
4.0794689999999996
 50
71.207401999999206
 51
131.207402
  0
ARC
  5
37A
  8
0
 10
172.45522440043581
 20
164.52225100000001
 30
0.0
 40
14.98668
 50
68.982577000000816
 51
90.0
  0
LINE
  5
37B
  8
0
 10
177.83022440043581
 20
178.511888
 30
0.0
 11
177.83022440043581
 21
166.52225100000001
 31
0.0
  0
LINE
  5
37D
  8
0
 10
167.08022440043581
 20
178.511888
 30
0.0
 11
167.08022440043581
 21
166.52225100000001
 31
0.0
  0
LINE
  5
37E
  8
0
 10
159.95522440043581
 20
166.52225100000001
 30
0.0
 11
184.95522440043581
 21
166.52225100000001
 31
0.0
  0
LINE
  5
380
  8
0
 10
159.95522440043581
 20
166.52225100000001
 30
0.0
 11
159.45522440043581
 21
166.02225100000001
 31
0.0
  0
LINE
  5
381
  8
0
 10
159.45522440043581
 20
166.02225100000001
 30
0.0
 11
159.45522440043581
 21
163.52225100000001
 31
0.0
  0
ARC
  5
382
  8
0
 10
161.30522440043569
 20
166.92225099999999
 30
0.0
 40
0.4
 50
270.0
 51
0.0
  0
LINE
  5
383
  8
0
 10
161.70522440043581
 20
178.511888
 30
0.0
 11
161.70522440043581
 21
166.92225099999999
 31
0.0
  0
ARC
  5
384
  8
0
 10
183.60522440043579
 20
166.92225099999999
 30
0.0
 40
0.4
 50
180.0
 51
270.0
  0
LINE
  5
385
  8
0
 10
184.95522440043581
 20
166.52225100000001
 30
0.0
 11
185.45522440043581
 21
166.02225100000001
 31
0.0
  0
LINE
  5
386
  8
0
 10
183.20522440043581
 20
178.511888
 30
0.0
 11
183.20522440043581
 21
166.92225099999999
 31
0.0
  0
LINE
  5
387
  8
0
 10
181.4552244004357
 20
179.52225100000001
 30
0.0
 11
163.45522440043581
 21
179.52225100000001
 31
0.0
  0
ARC
  5
388
  8
0
 10
172.45522440043581
 20
164.52225100000001
 30
0.0
 40
14.98668
 50
90.0
 51
111.0174229999992
  0
ARC
  5
389
  8
0
 10
164.3927244004357
 20
175.44278199999999
 30
0.0
 40
4.0794689999999996
 50
48.792597999999948
 51
108.79259800000079
  0
LINE
  5
38A
  8
0
 10
161.70522440043581
 20
178.511888
 30
0.0
 11
163.45522440043581
 21
179.52225100000001
 31
0.0
  0
LINE
  5
38B
  8
0
 10
183.20522440043581
 20
178.511888
 30
0.0
 11
181.4552244004357
 21
179.52225100000001
 31
0.0
  0
LINE
  5
38C
  8
0
 10
185.45522440043581
 20
163.52225100000001
 30
0.0
 11
159.45522440043581
 21
163.52225100000001
 31
0.0
  0
LINE
  5
38D
  8
0
 10
185.45522440043581
 20
166.02225100000001
 30
0.0
 11
185.45522440043581
 21
163.52225100000001
 31
0.0
  0
ARC
  5
38E
  8
0
 10
172.45522440043581
 20
190.55926299999999
 30
0.0
 40
30.0
 50
244.32071099999939
 51
246.7283666550897
  0
ARC
  5
38F
  8
0
 10
172.45522440043581
 20
190.55926299999999
 30
0.0
 40
30.0
 50
293.2716333449103
 51
295.67928900000049
  0
LINE
  5
390
  8
2
 10
164.95522440043581
 20
161.362134
 30
0.0
 11
179.95522440043581
 21
161.362134
 31
0.0
  0
LINE
  5
391
  8
2
 10
164.95522440043581
 20
159.5
 30
0.0
 11
179.95522440043581
 21
159.5
 31
0.0
  0
LINE
  5
392
  8
2
 10
164.95522440043581
 20
159.5
 30
0.0
 11
164.45522440043581
 21
159.0
 31
0.0
  0
LINE
  5
393
  8
2
 10
164.95522440043581
 20
161.362134
 30
0.0
 11
164.95522440043581
 21
159.5
 31
0.0
  0
LINE
  5
394
  8
2
 10
160.45522440043581
 20
163.0
 30
0.0
 11
164.95522440043581
 21
161.362134
 31
0.0
  0
LINE
  5
395
  8
2
 10
179.95522440043581
 20
159.5
 30
0.0
 11
180.45522440043581
 21
159.0
 31
0.0
  0
LINE
  5
396
  8
2
 10
179.95522440043581
 20
161.362134
 30
0.0
 11
179.95522440043581
 21
159.5
 31
0.0
  0
LINE
  5
397
  8
2
 10
184.45522440043581
 20
163.0
 30
0.0
 11
179.95522440043581
 21
161.362134
 31
0.0
  0
LINE
  5
398
  8
0
 10
185.45522440043581
 20
162.5
 30
0.0
 11
184.95522440043581
 21
163.0
 31
0.0
  0
LINE
  5
399
  8
0
 10
184.95522440043581
 20
159.0
 30
0.0
 11
185.45522440043581
 21
159.5
 31
0.0
  0
LINE
  5
39A
  8
0
 10
159.45522440043581
 20
162.5
 30
0.0
 11
159.95522440043581
 21
163.0
 31
0.0
  0
LINE
  5
39B
  8
0
 10
159.95522440043581
 20
159.0
 30
0.0
 11
159.45522440043581
 21
159.5
 31
0.0
  0
LINE
  5
39C
  8
0
 10
159.45522440043581
 20
159.5
 30
0.0
 11
159.45522440043581
 21
162.5
 31
0.0
  0
LINE
  5
39E
  8
0
 10
185.45522440043581
 20
162.5
 30
0.0
 11
185.45522440043581
 21
159.5
 31
0.0
  0
LINE
  5
39F
  8
0
 10
159.95522440043581
 20
163.0
 30
0.0
 11
184.95522440043581
 21
163.0
 31
0.0
  0
ARC
  5
3A3
  8
0
 10
51.096955356267607
 20
166.92225099999999
 30
0.0
 40
0.4
 50
180.0
 51
270.0
  0
ARC
  5
3A4
  8
0
 10
36.446955356267608
 20
169.03329500000001
 30
0.0
 40
10.488956
 50
63.072846999999861
 51
116.9271530000001
  0
ARC
  5
3A5
  8
0
 10
45.946955356267608
 20
169.03329500000001
 30
0.0
 40
10.488956
 50
63.072846999999861
 51
116.9271530000001
  0
LINE
  5
3A6
  8
0
 10
32.196955356267608
 20
179.52225100000001
 30
0.0
 11
31.696955356267608
 21
179.233576
 31
0.0
  0
LINE
  5
3A7
  8
0
 10
50.196955356267608
 20
179.52225100000001
 30
0.0
 11
50.696955356267608
 21
179.233576
 31
0.0
  0
LINE
  5
3A8
  8
0
 10
50.696955356267608
 20
179.233576
 30
0.0
 11
50.696955356267608
 21
166.92225099999999
 31
0.0
  0
LINE
  5
3A9
  8
0
 10
32.196955356267608
 20
179.52225100000001
 30
0.0
 11
50.196955356267608
 21
179.52225100000001
 31
0.0
  0
LINE
  5
3AA
  8
0
 10
41.196955356267601
 20
178.38507000000001
 30
0.0
 11
41.196955356267601
 21
166.52225100000001
 31
0.0
  0
LINE
  5
3AB
  8
0
 10
31.696955356267608
 20
179.233576
 30
0.0
 11
31.696955356267608
 21
166.92225099999999
 31
0.0
  0
ARC
  5
3AC
  8
0
 10
41.196955356267601
 20
190.55926299999999
 30
0.0
 40
30.0
 50
293.2716333449103
 51
295.67928900000032
  0
LINE
  5
3AD
  8
0
 10
54.196955356267608
 20
166.02225100000001
 30
0.0
 11
54.196955356267608
 21
163.52225100000001
 31
0.0
  0
LINE
  5
3AE
  8
0
 10
53.696955356267601
 20
166.52225100000001
 30
0.0
 11
54.196955356267608
 21
166.02225100000001
 31
0.0
  0
ARC
  5
3AF
  8
0
 10
31.29695535626761
 20
166.92225099999999
 30
0.0
 40
0.4
 50
270.0
 51
0.0
  0
ARC
  5
3B0
  8
0
 10
41.196955356267601
 20
190.55926299999999
 30
0.0
 40
30.0
 50
244.32071099999979
 51
246.7283666550897
  0
LINE
  5
3B1
  8
0
 10
54.196955356267608
 20
163.52225100000001
 30
0.0
 11
28.196955356267608
 21
163.52225100000001
 31
0.0
  0
LINE
  5
3B2
  8
0
 10
28.196955356267608
 20
166.02225100000001
 30
0.0
 11
28.196955356267608
 21
163.52225100000001
 31
0.0
  0
LINE
  5
3B3
  8
0
 10
28.696955356267608
 20
166.52225100000001
 30
0.0
 11
28.196955356267608
 21
166.02225100000001
 31
0.0
  0
LINE
  5
3B4
  8
0
 10
28.696955356267608
 20
166.52225100000001
 30
0.0
 11
53.696955356267601
 21
166.52225100000001
 31
0.0
  0
LINE
  5
3B5
  8
2
 10
33.696955356267608
 20
161.362134
 30
0.0
 11
48.696955356267601
 21
161.362134
 31
0.0
  0
LINE
  5
3B6
  8
2
 10
33.696955356267608
 20
159.5
 30
0.0
 11
48.696955356267601
 21
159.5
 31
0.0
  0
LINE
  5
3B7
  8
2
 10
33.696955356267608
 20
159.5
 30
0.0
 11
33.196955356267608
 21
159.0
 31
0.0
  0
LINE
  5
3B8
  8
2
 10
33.696955356267608
 20
161.362134
 30
0.0
 11
33.696955356267608
 21
159.5
 31
0.0
  0
LINE
  5
3B9
  8
2
 10
29.196955356267608
 20
163.0
 30
0.0
 11
33.696955356267608
 21
161.362134
 31
0.0
  0
LINE
  5
3BA
  8
2
 10
48.696955356267601
 20
159.5
 30
0.0
 11
49.196955356267608
 21
159.0
 31
0.0
  0
LINE
  5
3BB
  8
2
 10
48.696955356267601
 20
161.362134
 30
0.0
 11
48.696955356267601
 21
159.5
 31
0.0
  0
LINE
  5
3BC
  8
2
 10
53.196955356267608
 20
163.0
 30
0.0
 11
48.696955356267601
 21
161.362134
 31
0.0
  0
LINE
  5
3BD
  8
0
 10
54.196955356267608
 20
162.5
 30
0.0
 11
53.696955356267601
 21
163.0
 31
0.0
  0
LINE
  5
3BE
  8
0
 10
53.696955356267601
 20
159.0
 30
0.0
 11
54.196955356267608
 21
159.5
 31
0.0
  0
LINE
  5
3BF
  8
0
 10
28.196955356267608
 20
162.5
 30
0.0
 11
28.696955356267608
 21
163.0
 31
0.0
  0
LINE
  5
3C0
  8
0
 10
28.696955356267608
 20
159.0
 30
0.0
 11
28.196955356267608
 21
159.5
 31
0.0
  0
LINE
  5
3C1
  8
0
 10
28.196955356267608
 20
159.5
 30
0.0
 11
28.196955356267608
 21
162.5
 31
0.0
  0
LINE
  5
3C3
  8
0
 10
54.196955356267608
 20
162.5
 30
0.0
 11
54.196955356267608
 21
159.5
 31
0.0
  0
LINE
  5
3C4
  8
0
 10
28.696955356267608
 20
163.0
 30
0.0
 11
53.696955356267601
 21
163.0
 31
0.0
  0
ARC
  5
3C8
  8
0
 10
324.73845927545563
 20
166.92225099999999
 30
0.0
 40
0.4
 50
180.0
 51
270.0
  0
ARC
  5
3C9
  8
0
 10
310.0884592754557
 20
169.03329500000001
 30
0.0
 40
10.488956
 50
96.844374531267604
 51
116.92715299999971
  0
ARC
  5
3CA
  8
0
 10
319.58845927545559
 20
169.03329500000001
 30
0.0
 40
10.488956
 50
63.072847000000309
 51
83.155625468732396
  0
LINE
  5
3CB
  8
0
 10
305.8384592754557
 20
179.52225100000001
 30
0.0
 11
305.33845927545559
 21
179.233576
 31
0.0
  0
LINE
  5
3CC
  8
0
 10
323.83845927545559
 20
179.52225100000001
 30
0.0
 11
324.33845927545559
 21
179.233576
 31
0.0
  0
LINE
  5
3CD
  8
0
 10
324.33845927545559
 20
179.233576
 30
0.0
 11
324.33845927545559
 21
166.92225099999999
 31
0.0
  0
LINE
  5
3CE
  8
0
 10
305.8384592754557
 20
179.52225100000001
 30
0.0
 11
308.8384592754557
 21
179.52225100000001
 31
0.0
  0
LINE
  5
3D0
  8
0
 10
305.33845927545559
 20
179.233576
 30
0.0
 11
305.33845927545559
 21
166.92225099999999
 31
0.0
  0
ARC
  5
3D1
  8
0
 10
314.8384592754557
 20
190.55926299999999
 30
0.0
 40
30.0
 50
293.27163334491019
 51
295.67928899999902
  0
LINE
  5
3D2
  8
0
 10
327.83845927545559
 20
166.02225100000001
 30
0.0
 11
327.83845927545559
 21
163.52225100000001
 31
0.0
  0
LINE
  5
3D3
  8
0
 10
327.3384592754557
 20
166.52225100000001
 30
0.0
 11
327.83845927545559
 21
166.02225100000001
 31
0.0
  0
ARC
  5
3D4
  8
0
 10
304.93845927545573
 20
166.92225099999999
 30
0.0
 40
0.4
 50
270.0
 51
0.0
  0
ARC
  5
3D5
  8
0
 10
314.8384592754557
 20
190.55926299999999
 30
0.0
 40
30.0
 50
244.32071100000101
 51
246.72836665508959
  0
LINE
  5
3D6
  8
0
 10
327.83845927545559
 20
163.52225100000001
 30
0.0
 11
320.8384592754557
 21
163.52225100000001
 31
0.0
  0
LINE
  5
3D7
  8
0
 10
301.8384592754557
 20
166.02225100000001
 30
0.0
 11
301.8384592754557
 21
163.52225100000001
 31
0.0
  0
LINE
  5
3D8
  8
0
 10
302.3384592754557
 20
166.52225100000001
 30
0.0
 11
301.8384592754557
 21
166.02225100000001
 31
0.0
  0
LINE
  5
3D9
  8
0
 10
302.3384592754557
 20
166.52225100000001
 30
0.0
 11
308.8384592754557
 21
166.5222509999999
 31
0.0
  0
LINE
  5
3E2
  8
0
 10
327.83845927545559
 20
162.5
 30
0.0
 11
327.3384592754557
 21
163.0
 31
0.0
  0
LINE
  5
3E3
  8
0
 10
327.3384592754557
 20
159.0
 30
0.0
 11
327.83845927545559
 21
159.5
 31
0.0
  0
LINE
  5
3E4
  8
0
 10
301.8384592754557
 20
162.5
 30
0.0
 11
302.3384592754557
 21
163.0
 31
0.0
  0
LINE
  5
3E5
  8
0
 10
302.3384592754557
 20
159.0
 30
0.0
 11
301.8384592754557
 21
159.5
 31
0.0
  0
LINE
  5
3E6
  8
0
 10
301.8384592754557
 20
159.5
 30
0.0
 11
301.8384592754557
 21
162.5
 31
0.0
  0
LINE
  5
3E8
  8
0
 10
327.83845927545559
 20
162.5
 30
0.0
 11
327.83845927545559
 21
159.5
 31
0.0
  0
LINE
  5
3E9
  8
0
 10
302.3384592754557
 20
163.0
 30
0.0
 11
308.8384592754557
 21
163.0
 31
0.0
  0
ARC
  5
3EB
  8
0
 10
241.45522440043581
 20
254.94518519893401
 30
0.0
 40
12.46770099999997
 50
331.91860189413808
 51
28.081398105861862
  0
LINE
  5
3ED
  8
0
 10
47.196955356267608
 20
65.0
 30
0.0
 11
47.196955356267608
 21
43.0
 31
0.0
  0
LINE
  5
3EE
  8
3
 10
46.29695535626761
 20
65.0
 30
0.0
 11
46.29695535626761
 21
42.099999999999987
 31
0.0
  0
LINE
  5
3EF
  8
3
 10
36.096955356267607
 20
65.0
 30
0.0
 11
36.096955356267607
 21
42.099999999999987
 31
0.0
  0
LINE
  5
3F0
  8
0
 10
35.196955356267608
 20
72.0
 30
0.0
 11
35.196955356267608
 21
140.0
 31
0.0
  0
LINE
  5
3F1
  8
0
 10
47.196955356267608
 20
140.0
 30
0.0
 11
47.196955356267608
 21
72.0
 31
0.0
  0
LINE
  5
3F2
  8
0
 10
35.196955356267608
 20
179.52225100000001
 30
0.0
 11
35.196955356267608
 21
199.0
 31
0.0
  0
LINE
  5
3FA
  8
3
 10
167.35522440043579
 20
65.0
 30
0.0
 11
167.35522440043579
 21
42.099999999999987
 31
0.0
  0
LINE
  5
3FB
  8
0
 10
166.45522440043581
 20
72.0
 30
0.0
 11
166.45522440043581
 21
140.0
 31
0.0
  0
LINE
  5
3FC
  8
0
 10
178.4552244004357
 20
65.0
 30
0.0
 11
178.4552244004357
 21
43.0
 31
0.0
  0
LINE
  5
3FD
  8
3
 10
177.5552244004358
 20
65.0
 30
0.0
 11
177.5552244004358
 21
42.099999999999987
 31
0.0
  0
LINE
  5
3FE
  8
0
 10
166.45522440043581
 20
179.52225100000001
 30
0.0
 11
166.45522440043581
 21
199.0
 31
0.0
  0
LINE
  5
3FF
  8
0
 10
178.4552244004357
 20
140.0
 30
0.0
 11
178.4552244004357
 21
72.0
 31
0.0
  0
LINE
  5
400
  8
0
 10
247.45522440043581
 20
159.0
 30
0.0
 11
247.45522440043581
 21
192.56633600000001
 31
0.0
  0
LINE
  5
401
  8
3
 10
246.50822440043581
 20
140.0
 30
0.0
 11
246.50822440043581
 21
79.019585000000006
 31
0.0
  0
LINE
  5
402
  8
3
 10
236.40222440043581
 20
140.0
 30
0.0
 11
236.40222440043581
 21
79.019585000000006
 31
0.0
  0
LINE
  5
403
  8
0
 10
235.45522440043581
 20
140.0
 30
0.0
 11
235.45522440043581
 21
79.566335999999993
 31
0.0
  0
LINE
  5
458
  8
0
 10
320.8384592754557
 20
140.0
 30
0.0
 11
320.8384592754557
 21
78.0
 31
0.0
  0
LINE
  5
459
  8
3
 10
319.89145927545559
 20
140.0
 30
0.0
 11
319.89145927545559
 21
79.019585000000006
 31
0.0
  0
LINE
  5
45A
  8
3
 10
309.78545927545559
 20
140.0
 30
0.0
 11
309.78545927545559
 21
79.019585000000006
 31
0.0
  0
LINE
  5
45C
  8
0
 10
308.8384592754557
 20
159.0
 30
0.0
 11
308.8384592754557
 21
199.0
 31
0.0
  0
LINE
  5
4A2
  8
0
 10
320.8384592754557
 20
179.52225100000001
 30
0.0
 11
323.83845927545559
 21
179.52225100000001
 31
0.0
  0
LINE
  5
4A5
  8
0
 10
320.8384592754557
 20
163.0
 30
0.0
 11
327.3384592754557
 21
163.0
 31
0.0
  0
LINE
  5
4A6
  8
0
 10
308.8384592754557
 20
163.52225100000001
 30
0.0
 11
301.8384592754557
 21
163.52225100000001
 31
0.0
  0
LINE
  5
4A7
  8
0
 10
320.8384592754557
 20
166.5222509999999
 30
0.0
 11
327.3384592754557
 21
166.52225100000001
 31
0.0
  0
LINE
  5
4A9
  8
0
 10
320.8384592754557
 20
65.0
 30
0.0
 11
320.8384592754557
 21
43.0
 31
0.0
  0
LINE
  5
4AA
  8
3
 10
319.93845927545573
 20
65.0
 30
0.0
 11
319.93845927545573
 21
42.099999999999987
 31
0.0
  0
LINE
  5
4AB
  8
0
 10
308.8384592754557
 20
78.0
 30
0.0
 11
308.8384592754557
 21
140.0
 31
0.0
  0
LINE
  5
4AC
  8
3
 10
309.73845927545563
 20
65.0
 30
0.0
 11
309.73845927545563
 21
42.099999999999987
 31
0.0
  0
LINE
  5
4F2
  8
0
 10
53.696955356267601
 20
66.0
 30
0.0
 11
52.696955356267608
 21
65.0
 31
0.0
  0
LINE
  5
4F3
  8
0
 10
52.696955356267608
 20
71.0
 30
0.0
 11
53.696955356267601
 21
70.0
 31
0.0
  0
LINE
  5
4F4
  8
0
 10
49.196955356267608
 20
78.0
 30
0.0
 11
50.196955356267608
 21
77.0
 31
0.0
  0
LINE
  5
4F5
  8
0
 10
32.196955356267608
 20
77.0
 30
0.0
 11
33.196955356267608
 21
78.0
 31
0.0
  0
LINE
  5
4F6
  8
0
 10
28.696955356267608
 20
70.0
 30
0.0
 11
29.696955356267608
 21
71.0
 31
0.0
  0
LINE
  5
4F7
  8
0
 10
29.696955356267608
 20
65.0
 30
0.0
 11
28.696955356267608
 21
66.0
 31
0.0
  0
ARC
  5
4F8
  8
0
 10
52.196955356267608
 20
73.0
 30
0.0
 40
2.0
 50
180.0
 51
270.0
  0
ARC
  5
4F9
  8
0
 10
30.196955356267608
 20
73.0
 30
0.0
 40
2.0
 50
270.0
 51
0.0
  0
LINE
  5
4FA
  8
0
 10
28.696955356267608
 20
70.0
 30
0.0
 11
28.696955356267608
 21
66.0
 31
0.0
  0
LINE
  5
4FB
  8
0
 10
30.196955356267608
 20
71.0
 30
0.0
 11
29.696955356267608
 21
71.0
 31
0.0
  0
LINE
  5
4FC
  8
0
 10
32.196955356267608
 20
77.0
 30
0.0
 11
32.196955356267608
 21
73.0
 31
0.0
  0
LINE
  5
4FD
  8
0
 10
49.196955356267608
 20
78.0
 30
0.0
 11
47.196955356267608
 21
78.0
 31
0.0
  0
LINE
  5
4FE
  8
0
 10
50.196955356267608
 20
73.0
 30
0.0
 11
50.196955356267608
 21
77.0
 31
0.0
  0
LINE
  5
4FF
  8
0
 10
52.696955356267608
 20
71.0
 30
0.0
 11
52.196955356267608
 21
71.0
 31
0.0
  0
LINE
  5
500
  8
0
 10
53.696955356267601
 20
66.0
 30
0.0
 11
53.696955356267601
 21
70.0
 31
0.0
  0
LINE
  5
501
  8
0
 10
29.696955356267608
 20
65.0
 30
0.0
 11
52.696955356267608
 21
65.0
 31
0.0
  0
LINE
  5
502
  8
0
 10
29.696955356267608
 20
71.0
 30
0.0
 11
31.696955356267608
 21
71.0
 31
0.0
  0
LINE
  5
503
  8
0
 10
35.196955356267608
 20
78.0
 30
0.0
 11
33.196955356267608
 21
78.0
 31
0.0
  0
LINE
  5
504
  8
0
 10
50.696955356267608
 20
71.0
 30
0.0
 11
52.696955356267608
 21
71.0
 31
0.0
  0
LINE
  5
508
  8
0
 10
304.10640870479011
 20
71.0
 30
0.0
 11
305.39473903752281
 21
71.743817966145002
 31
0.0
  0
ARC
  5
509
  8
0
 10
306.61121827545571
 20
66.855261999999996
 30
0.0
 40
4.8560629999999989
 50
107.59812074628741
 51
115.6157529999999
  0
ARC
  5
50A
  8
0
 10
323.06570027545558
 20
66.855261999999996
 30
0.0
 40
4.8560629999999989
 50
64.384247000000045
 51
72.401879253713034
  0
LINE
  5
50B
  8
0
 10
325.57050984612118
 20
71.0
 30
0.0
 11
324.28217951338843
 21
71.743817966145002
 31
0.0
  0
TEXT
  5
5F2
  8
0
 62
     3
 10
0.0
 20
0.0
 30
0.0
 40
10.0
  1
BJ153-12160B3
  7
STANDARD1
  0
ENDSEC
  0
EOF
