  0
SECTION
  2
HEADER
  9
$ACADVER
  1
AC1009
  9
$INSBASE
 10
82.638099999999994
 20
103.82319099999999
 30
0.0
  9
$EXTMIN
 10
0.0
 20
-2.960436562073669
 30
0.0
  9
$EXTMAX
 10
349.3605668671359
 20
274.34305092398131
 30
0.0
  9
$LIMMIN
 10
0.0
 20
0.0
  9
$LIMMAX
 10
375.0
 20
270.0
  9
$ORTHOMODE
 70
     1
  9
$REGENMODE
 70
     1
  9
$FILLMODE
 70
     1
  9
$QTEXTMODE
 70
     0
  9
$MIRRTEXT
 70
     0
  9
$DRAGMODE
 70
     2
  9
$LTSCALE
 40
10.0
  9
$OSMODE
 70
  3071
  9
$ATTMODE
 70
     1
  9
$TEXTSIZE
 40
0.06
  9
$TRACEWID
 40
0.05
  9
$TEXTSTYLE
  7
STANDARD
  9
$CLAYER
  8
0
  9
$CELTYPE
  6
BYLAYER
  9
$CECOLOR
 62
   256
  9
$DIMSCALE
 40
1.0
  9
$DIMASZ
 40
3.0
  9
$DIMEXO
 40
2.0
  9
$DIMDLI
 40
10.0
  9
$DIMRND
 40
0.0
  9
$DIMDLE
 40
0.0
  9
$DIMEXE
 40
2.0
  9
$DIMTP
 40
0.0
  9
$DIMTM
 40
0.0
  9
$DIMTXT
 40
3.0
  9
$DIMCEN
 40
0.0
  9
$DIMTSZ
 40
0.0
  9
$DIMTOL
 70
     0
  9
$DIMLIM
 70
     0
  9
$DIMTIH
 70
     0
  9
$DIMTOH
 70
     0
  9
$DIMSE1
 70
     0
  9
$DIMSE2
 70
     0
  9
$DIMTAD
 70
     1
  9
$DIMZIN
 70
     0
  9
$DIMBLK
  1

  9
$DIMASO
 70
     0
  9
$DIMSHO
 70
     0
  9
$DIMPOST
  1

  9
$DIMAPOST
  1

  9
$DIMALT
 70
     0
  9
$DIMALTD
 70
     2
  9
$DIMALTF
 40
25.399999999999999
  9
$DIMLFAC
 40
1.0
  9
$DIMTOFL
 70
     1
  9
$DIMTVP
 40
1.6000000000000001
  9
$DIMTIX
 70
     1
  9
$DIMSOXD
 70
     0
  9
$DIMSAH
 70
     0
  9
$DIMBLK1
  1

  9
$DIMBLK2
  1

  9
$DIMSTYLE
  2
STANDARD
  9
$DIMCLRD
 70
     0
  9
$DIMCLRE
 70
     0
  9
$DIMCLRT
 70
     0
  9
$DIMTFAC
 40
1.0
  9
$DIMGAP
 40
0.09
  9
$LUNITS
 70
     2
  9
$LUPREC
 70
     4
  9
$SKETCHINC
 40
0.1
  9
$FILLETRAD
 40
0.0
  9
$AUNITS
 70
     0
  9
$AUPREC
 70
     4
  9
$MENU
  1
E:\r13\win\SUPPORT\ACAD
  9
$ELEVATION
 40
0.0
  9
$PELEVATION
 40
0.0
  9
$THICKNESS
 40
0.0
  9
$LIMCHECK
 70
     0
  9
$BLIPMODE
 70
     0
  9
$CHAMFERA
 40
0.0
  9
$CHAMFERB
 40
0.0
  9
$SKPOLY
 70
     0
  9
$TDCREATE
 40
2449840.348113426
  9
$TDUPDATE
 40
2456597.638029919
  9
$TDINDWG
 40
0.1556433681
  9
$TDUSRTIMER
 40
0.1556433681
  9
$USRTIMER
 70
     1
  9
$ANGBASE
 50
0.0
  9
$ANGDIR
 70
     0
  9
$PDMODE
 70
     1
  9
$PDSIZE
 40
0.0
  9
$PLINEWID
 40
0.0
  9
$COORDS
 70
     1
  9
$SPLFRAME
 70
     0
  9
$SPLINETYPE
 70
     6
  9
$SPLINESEGS
 70
     8
  9
$ATTDIA
 70
     0
  9
$ATTREQ
 70
     1
  9
$HANDLING
 70
     1
  9
$HANDSEED
  5
533A
  9
$SURFTAB1
 70
     6
  9
$SURFTAB2
 70
     6
  9
$SURFTYPE
 70
     6
  9
$SURFU
 70
     6
  9
$SURFV
 70
     6
  9
$UCSNAME
  2

  9
$UCSORG
 10
0.0
 20
0.0
 30
0.0
  9
$UCSXDIR
 10
1.0
 20
0.0
 30
0.0
  9
$UCSYDIR
 10
0.0
 20
1.0
 30
0.0
  9
$PUCSNAME
  2

  9
$PUCSORG
 10
0.0
 20
0.0
 30
0.0
  9
$PUCSXDIR
 10
1.0
 20
0.0
 30
0.0
  9
$PUCSYDIR
 10
0.0
 20
1.0
 30
0.0
  9
$USERI1
 70
     3
  9
$USERI2
 70
     1
  9
$USERI3
 70
     0
  9
$USERI4
 70
     0
  9
$USERI5
 70
     0
  9
$USERR1
 40
1.0
  9
$USERR2
 40
3.0
  9
$USERR3
 40
3.0
  9
$USERR4
 40
3.0
  9
$USERR5
 40
10.0
  9
$WORLDVIEW
 70
     1
  9
$SHADEDGE
 70
     3
  9
$SHADEDIF
 70
    70
  9
$TILEMODE
 70
     1
  9
$MAXACTVP
 70
    16
  9
$PLIMCHECK
 70
     0
  9
$PEXTMIN
 10
1.0000000000000000E+020
 20
1.0000000000000000E+020
 30
1.0000000000000000E+020
  9
$PEXTMAX
 10
-1.0000000000000000E+020
 20
-1.0000000000000000E+020
 30
-1.0000000000000000E+020
  9
$PLIMMIN
 10
0.0
 20
0.0
  9
$PLIMMAX
 10
12.0
 20
9.0
  9
$UNITMODE
 70
     0
  9
$VISRETAIN
 70
     0
  9
$PLINEGEN
 70
     0
  9
$PSLTSCALE
 70
     0
  0
ENDSEC
  0
SECTION
  2
TABLES
  0
TABLE
  2
VPORT
 70
     1
  0
VPORT
  2
*ACTIVE
 70
     0
 10
0.0
 20
0.0
 11
1.0
 21
1.0
 12
195.17884743373651
 22
135.68544542460711
 13
0.0
 23
0.0
 14
5.0
 24
5.0
 15
10.0
 25
10.0
 16
0.0
 26
0.0
 36
1.0
 17
0.0
 27
0.0
 37
0.0
 40
279.81923897144702
 41
1.831871345029239
 42
50.0
 43
0.0
 44
0.0
 50
0.0
 51
0.0
 71
     0
 72
   100
 73
     1
 74
     0
 75
     0
 76
     0
 77
     0
 78
     0
  0
ENDTAB
  0
TABLE
  2
LTYPE
 70
     4
  0
LTYPE
  2
CONTINUOUS
 70
     0
  3
Solid Line
 72
    65
 73
     0
 40
0.0
  0
LTYPE
  2
CENTER
 70
     0
  3
____ _ ____ _ ____ _ ____ _ ____ _ ____ _ ____
 72
    65
 73
     4
 40
2.0
 49
1.25
 49
-0.25
 49
0.25
 49
-0.25
  0
LTYPE
  2
HIDDEN
 70
     0
  3
__ __ __ __ __ __ __ __ __ __ __ __ __ __ __ __
 72
    65
 73
     2
 40
0.375
 49
0.25
 49
-0.125
  0
LTYPE
  2
PHANTOM2
 70
     0
  3
___ _ _ ___ _ _ ___ _ _ ___ _ _
 72
    65
 73
     6
 40
1.25
 49
0.625
 49
-0.125
 49
0.125
 49
-0.125
 49
0.125
 49
-0.125
  0
ENDTAB
  0
TABLE
  2
LAYER
 70
     5
  0
LAYER
  2
0
 70
     0
 62
     7
  6
CONTINUOUS
  0
LAYER
  2
1
 70
     0
 62
     1
  6
CENTER
  0
LAYER
  2
2
 70
     0
 62
     2
  6
HIDDEN
  0
LAYER
  2
3
 70
     0
 62
     3
  6
CONTINUOUS
  0
LAYER
  2
DEFPOINTS
 70
     0
 62
     7
  6
CONTINUOUS
  0
ENDTAB
  0
TABLE
  2
STYLE
 70
     2
  0
STYLE
  2
STANDARD
 70
     0
 40
0.0
 41
1.0
 50
0.0
 71
     0
 42
0.06
  3
TXT
  4
BIGFONT
  0
STYLE
  2
STANDARD1
 70
     0
 40
0.0
 41
1.0
 50
0.0
 71
     0
 42
3.0
  3
txt
  4

  0
ENDTAB
  0
TABLE
  2
VIEW
 70
     0
  0
ENDTAB
  0
TABLE
  2
UCS
 70
     0
  0
ENDTAB
  0
TABLE
  2
APPID
 70
     3
  0
APPID
  2
ACAD
 70
     0
  0
APPID
  2
ACAD_MLEADERVER
 70
     0
  0
APPID
  2
ACAD_NAV_VCDISPLAY
 70
     0
  0
ENDTAB
  0
TABLE
  2
DIMSTYLE
 70
     1
  0
DIMSTYLE
  2
STANDARD
 70
     0
  3

  4

  5

  6

  7

 40
1.0
 41
0.18
 42
0.0625
 43
0.38
 44
0.18
 45
0.0
 46
0.0
 47
0.0
 48
0.0
140
0.18
141
0.09
142
0.0
143
25.399999999999999
144
1.0
145
0.0
146
1.0
147
0.09
 71
     0
 72
     0
 73
     1
 74
     1
 75
     0
 76
     0
 77
     0
 78
     0
170
     0
171
     2
172
     0
173
     0
174
     0
175
     0
176
     0
177
     0
178
     0
  0
ENDTAB
  0
ENDSEC
  0
SECTION
  2
BLOCKS
  0
BLOCK
  8
0
  2
$MODEL_SPACE
 70
     0
 10
0.0
 20
0.0
 30
0.0
  3
$MODEL_SPACE
  1

  0
ENDBLK
  5
223
  8
0
  0
BLOCK
 67
     1
  8
0
  2
$PAPER_SPACE
 70
     0
 10
0.0
 20
0.0
 30
0.0
  3
$PAPER_SPACE
  1

  0
ENDBLK
  5
221
 67
     1
  8
0
  0
ENDSEC
  0
SECTION
  2
ENTITIES
  0
LINE
  5
3F20
  8
0
 10
339.3605668671355
 20
90.843050923981281
 30
0.0
 11
346.3605668671359
 21
90.843050923981281
 31
0.0
  0
LINE
  5
3F21
  8
0
 10
320.3605668671355
 20
90.843050923981281
 30
0.0
 11
327.3605668671355
 21
90.843050923981281
 31
0.0
  0
LINE
  5
3F22
  8
0
 10
320.8605668671355
 20
94.343050923981281
 30
0.0
 11
327.3605668671355
 21
94.343050923981281
 31
0.0
  0
LINE
  5
3F23
  8
0
 10
339.3605668671355
 20
94.343050923981281
 30
0.0
 11
345.8605668671359
 21
94.343050923981281
 31
0.0
  0
LINE
  5
3F24
  8
0
 10
346.3605668671359
 20
93.843050923981266
 30
0.0
 11
339.3605668671355
 21
93.843050923981266
 31
0.0
  0
LINE
  5
3F25
  8
0
 10
327.3605668671355
 20
93.843050923981266
 30
0.0
 11
320.3605668671355
 21
93.843050923981266
 31
0.0
  0
LINE
  5
3F26
  8
0
 10
323.8605668671355
 20
97.843050923981281
 30
0.0
 11
323.8605668671355
 21
109.7058700133545
 31
0.0
  0
LINE
  5
3F27
  8
0
 10
323.8605668671355
 20
109.7058700133545
 30
0.0
 11
323.8605668671355
 21
110.55437338891549
 31
0.0
  0
POLYLINE
  5
3F28
  8
0
 66
     1
 10
0.0
 20
0.0
 30
0.0
 70
   128
  0
VERTEX
  5
52A0
  8
0
 10
327.3605668671355
 20
110.44560515811079
 30
0.0
  0
VERTEX
  5
52A1
  8
0
 10
326.06319122353511
 20
110.29747992482579
 30
0.0
  0
VERTEX
  5
52A2
  8
0
 10
323.8605668671355
 20
109.7058700133545
 30
0.0
  0
SEQEND
  5
52A3
  8
0
  0
LINE
  5
3F29
  8
0
 10
342.8605668671355
 20
110.55284832104741
 30
0.0
 11
342.8605668671355
 21
109.7058700133546
 31
0.0
  0
LINE
  5
3F2A
  8
0
 10
339.3605668671355
 20
110.84305092398129
 30
0.0
 11
342.3605668671355
 21
110.84305092398129
 31
0.0
  0
LINE
  5
3F2B
  8
0
 10
324.3605668671355
 20
110.84305092398129
 30
0.0
 11
327.3605668671355
 21
110.84305092398129
 31
0.0
  0
LINE
  5
3F2C
  8
0
 10
342.8605668671355
 20
97.843050923981281
 30
0.0
 11
342.8605668671355
 21
109.7058700133546
 31
0.0
  0
POLYLINE
  5
3F2D
  8
0
 66
     1
 10
0.0
 20
0.0
 30
0.0
 70
   128
  0
VERTEX
  5
52A4
  8
0
 10
342.8605668671355
 20
109.7058700133546
 30
0.0
  0
VERTEX
  5
52A5
  8
0
 10
340.37243581971802
 20
110.35087021225461
 30
0.0
  0
VERTEX
  5
52A6
  8
0
 10
339.3605668671355
 20
110.4805430072235
 30
0.0
  0
SEQEND
  5
52A7
  8
0
  0
LINE
  5
3F2E
  8
0
 10
339.3605668671355
 20
97.843050923981281
 30
0.0
 11
346.3605668671359
 21
97.843050923981281
 31
0.0
  0
LINE
  5
3F2F
  8
0
 10
320.3605668671355
 20
97.843050923981281
 30
0.0
 11
327.3605668671355
 21
97.843050923981281
 31
0.0
  0
LINE
  5
3F30
  8
0
 10
339.3605668671355
 20
94.843050923981295
 30
0.0
 11
346.3605668671359
 21
94.843050923981295
 31
0.0
  0
LINE
  5
3F31
  8
0
 10
320.3605668671355
 20
94.843050923981295
 30
0.0
 11
327.3605668671355
 21
94.843050923981295
 31
0.0
  0
LINE
  5
3F32
  8
0
 10
327.9379171363255
 20
181.34305092398111
 30
0.0
 11
338.78321659794642
 21
181.34305092398111
 31
0.0
  0
LINE
  5
3F33
  8
0
 10
339.3605668671355
 20
180.3430509239812
 30
0.0
 11
327.3605668671355
 21
180.3430509239812
 31
0.0
  0
LINE
  5
3F34
  8
0
 10
336.96056686713592
 20
64.95741027792613
 30
0.0
 11
329.76056686713559
 21
64.95741027792613
 31
0.0
  0
LINE
  5
3F36
  8
0
 10
324.3605668671355
 20
64.343050923981224
 30
0.0
 11
342.3605668671355
 21
64.343050923981224
 31
0.0
  0
LINE
  5
3F37
  8
0
 10
320.8605668671355
 20
57.34305092398116
 30
0.0
 11
345.8605668671355
 21
57.34305092398116
 31
0.0
  0
LINE
  5
3F38
  8
0
 10
320.8605668671355
 20
51.343050923981167
 30
0.0
 11
345.8605668671355
 21
51.343050923981167
 31
0.0
  0
LINE
  5
3F39
  8
0
 10
329.37851605956638
 20
65.177987414520175
 30
0.0
 11
328.6105668671355
 21
65.177987414520175
 31
0.0
  0
LINE
  5
3F3A
  8
0
 10
338.1105668671355
 20
65.177987414520175
 30
0.0
 11
337.34261767470463
 21
65.177987414520175
 31
0.0
  0
LINE
  5
3F3B
  8
0
 10
338.28706686713599
 20
192.34305092398111
 30
0.0
 11
328.43406686713593
 21
192.34305092398111
 31
0.0
  0
LINE
  5
3F3C
  8
0
 10
339.3605668671355
 20
191.26955092398109
 30
0.0
 11
327.3605668671355
 21
191.26955092398109
 31
0.0
  0
ARC
  5
3F3D
  8
0
 10
333.3605668671355
 20
32.343050923980712
 30
0.0
 40
8.6068286842488533
 50
0.0000000000032569
 51
179.99999999999261
  0
LINE
  5
3F3E
  8
0
 10
338.1105668671355
 20
42.26461834047322
 30
0.0
 11
328.6105668671355
 21
42.26461834047322
 31
0.0
  0
LINE
  5
3F43
  8
0
 10
344.29492098614969
 20
28.743050923981201
 30
0.0
 11
344.29492098614969
 21
32.343050923981217
 31
0.0
  0
LINE
  5
3F44
  8
0
 10
344.36056686713601
 20
32.343050923981259
 30
0.0
 11
322.36056686713528
 21
32.343050923981217
 31
0.0
  0
LINE
  5
3F45
  8
0
 10
322.42621274812183
 20
32.343050923981217
 30
0.0
 11
322.42621274812183
 21
28.743050923981201
 31
0.0
  0
LINE
  5
3F47
  8
0
 10
344.36056686713499
 20
32.343050923981849
 30
0.0
 11
344.36056686713601
 21
24.343050923981171
 31
0.0
  0
LINE
  5
3F48
  8
0
 10
344.3605668671355
 20
28.743050923981201
 30
0.0
 11
344.29492098614969
 21
28.743050923981201
 31
0.0
  0
POLYLINE
  5
3F49
  8
0
 66
     1
 10
0.0
 20
0.0
 30
0.0
 70
   128
  0
VERTEX
  5
52A8
  8
0
 10
334.92008602380128
 20
24.343050923981171
 30
0.0
  0
VERTEX
  5
52A9
  8
0
 10
337.0661458700236
 20
24.371253673966319
 30
0.0
  0
VERTEX
  5
52AA
  8
0
 10
339.21220571624571
 20
24.555142739799042
 30
0.0
  0
VERTEX
  5
52AB
  8
0
 10
340.64452203330961
 20
24.867358473030691
 30
0.0
  0
VERTEX
  5
52AC
  8
0
 10
342.03823212362317
 20
25.434653676206011
 30
0.0
  0
VERTEX
  5
52AD
  8
0
 10
343.20153973655869
 20
26.28527179004957
 30
0.0
  0
VERTEX
  5
52AE
  8
0
 10
343.6657293105493
 20
26.83141379469393
 30
0.0
  0
VERTEX
  5
52AF
  8
0
 10
344.02997693057767
 20
27.478500876816469
 30
0.0
  0
VERTEX
  5
52B0
  8
0
 10
344.2869606077013
 20
28.520914085131011
 30
0.0
  0
VERTEX
  5
52B1
  8
0
 10
344.29492098614969
 20
28.743050923981201
 30
0.0
  0
SEQEND
  5
52B2
  8
0
  0
LINE
  5
3F4A
  8
0
 10
344.36056686713601
 20
24.343050923981171
 30
0.0
 11
322.36056686713528
 21
24.34305092398111
 31
0.0
  0
POLYLINE
  5
3F4B
  8
0
 66
     1
 10
0.0
 20
0.0
 30
0.0
 70
   128
  0
VERTEX
  5
52B3
  8
0
 10
322.42621274812183
 20
28.743050923981201
 30
0.0
  0
VERTEX
  5
52B4
  8
0
 10
322.51791889423862
 20
27.992339582000881
 30
0.0
  0
VERTEX
  5
52B5
  8
0
 10
322.92621887888731
 20
27.027202535163699
 30
0.0
  0
VERTEX
  5
52B6
  8
0
 10
323.65519624692001
 20
26.156554739966712
 30
0.0
  0
VERTEX
  5
52B7
  8
0
 10
324.35394108833788
 20
25.627384493178429
 30
0.0
  0
VERTEX
  5
52B8
  8
0
 10
325.15023425033201
 20
25.205352821052632
 30
0.0
  0
VERTEX
  5
52B9
  8
0
 10
326.49624860042439
 20
24.753687650766128
 30
0.0
  0
VERTEX
  5
52BA
  8
0
 10
327.9290172582634
 20
24.49814414748008
 30
0.0
  0
VERTEX
  5
52BB
  8
0
 10
329.8582595849719
 20
24.36451686355278
 30
0.0
  0
VERTEX
  5
52BC
  8
0
 10
331.80104771047007
 20
24.343050923981171
 30
0.0
  0
SEQEND
  5
52BD
  8
0
  0
LINE
  5
3F4C
  8
0
 10
322.42621274812183
 20
28.743050923981201
 30
0.0
 11
322.3605668671355
 21
28.743050923981201
 31
0.0
  0
LINE
  5
3F4D
  8
0
 10
322.3605668671355
 20
24.343050923981171
 30
0.0
 11
322.3605668671355
 21
32.343050923980712
 31
0.0
  0
LINE
  5
3F59
  8
0
 10
320.3605668671355
 20
93.843050923981266
 30
0.0
 11
320.3605668671355
 21
90.843050923981281
 31
0.0
  0
LINE
  5
3F5A
  8
0
 10
346.3605668671359
 20
90.843050923981281
 30
0.0
 11
346.3605668671359
 21
93.843050923981266
 31
0.0
  0
LINE
  5
3F5B
  8
0
 10
345.8605668671359
 20
90.343050923981281
 30
0.0
 11
346.3605668671359
 21
90.843050923981281
 31
0.0
  0
LINE
  5
3F5C
  8
0
 10
320.3605668671355
 20
90.843050923981281
 30
0.0
 11
320.8605668671355
 21
90.343050923981281
 31
0.0
  0
LINE
  5
3F5D
  8
0
 10
320.8605668671355
 20
94.343050923981281
 30
0.0
 11
320.3605668671355
 21
93.843050923981266
 31
0.0
  0
LINE
  5
3F5E
  8
0
 10
346.3605668671359
 20
93.843050923981266
 30
0.0
 11
345.8605668671359
 21
94.343050923981281
 31
0.0
  0
LINE
  5
3F5F
  8
0
 10
324.3605668671355
 20
110.84305092398129
 30
0.0
 11
323.8605668671355
 21
110.5543757893864
 31
0.0
  0
LINE
  5
3F60
  8
0
 10
342.8605668671355
 20
110.5543757893865
 30
0.0
 11
342.3605668671355
 21
110.84305092398129
 31
0.0
  0
LINE
  5
3F61
  8
0
 10
346.3605668671359
 20
94.843050923981295
 30
0.0
 11
346.3605668671359
 21
97.843050923981281
 31
0.0
  0
LINE
  5
3F62
  8
0
 10
320.3605668671355
 20
97.843050923981281
 30
0.0
 11
320.3605668671355
 21
94.843050923981295
 31
0.0
  0
POLYLINE
  5
3F63
  8
0
 66
     1
 10
0.0
 20
0.0
 30
0.0
 70
   128
  0
VERTEX
  5
52BE
  8
0
 10
320.3605668671355
 20
94.843050923981295
 30
0.0
  0
VERTEX
  5
52BF
  8
0
 10
321.0204159133898
 20
94.535580984651418
 30
0.0
  0
VERTEX
  5
52C0
  8
0
 10
321.45624041282491
 20
94.343050923981281
 30
0.0
  0
SEQEND
  5
52C1
  8
0
  0
POLYLINE
  5
3F64
  8
0
 66
     1
 10
0.0
 20
0.0
 30
0.0
 70
   128
  0
VERTEX
  5
52C2
  8
0
 10
345.264893321447
 20
94.343050923981281
 30
0.0
  0
VERTEX
  5
52C3
  8
0
 10
345.70071782088161
 20
94.535580984651418
 30
0.0
  0
VERTEX
  5
52C4
  8
0
 10
346.3605668671359
 20
94.843050923981295
 30
0.0
  0
SEQEND
  5
52C5
  8
0
  0
LINE
  5
3F65
  8
0
 10
329.76056686713559
 20
64.95741027792613
 30
0.0
 11
329.76056686713559
 21
64.343050923981224
 31
0.0
  0
LINE
  5
3F66
  8
0
 10
336.96056686713592
 20
64.343050923981224
 30
0.0
 11
336.96056686713592
 21
64.95741027792613
 31
0.0
  0
LINE
  5
3F67
  8
0
 10
327.9379171363255
 20
181.34305092398111
 30
0.0
 11
327.3605668671355
 21
180.3430509239812
 31
0.0
  0
LINE
  5
3F68
  8
0
 10
339.3605668671355
 20
180.3430509239812
 30
0.0
 11
338.78321659794642
 21
181.34305092398111
 31
0.0
  0
LINE
  5
3F69
  8
0
 10
339.3605668671355
 20
90.343050923981195
 30
0.0
 11
339.3605668671355
 21
180.3430509239812
 31
0.0
  0
LINE
  5
3F6A
  8
0
 10
339.3605668671355
 20
66.343050923981167
 30
0.0
 11
339.36056686713562
 21
76.343050923981181
 31
0.0
  0
LINE
  5
3F6B
  8
0
 10
327.3605668671355
 20
76.343050923981181
 30
0.0
 11
327.3605668671355
 21
66.343050923981167
 31
0.0
  0
LINE
  5
3F6C
  8
0
 10
327.3605668671355
 20
180.3430509239812
 30
0.0
 11
327.3605668671355
 21
90.343050923981224
 31
0.0
  0
LINE
  5
3F6D
  8
0
 10
336.96056686713592
 20
64.95741027792613
 30
0.0
 11
339.3605668671355
 21
66.343050923981167
 31
0.0
  0
LINE
  5
3F6E
  8
0
 10
327.3605668671355
 20
66.343050923981167
 30
0.0
 11
329.76056686713559
 21
64.95741027792613
 31
0.0
  0
LINE
  5
3F6F
  8
0
 10
342.3605668671355
 20
57.34305092398116
 30
0.0
 11
342.3605668671355
 21
64.343050923981224
 31
0.0
  0
LINE
  5
3F70
  8
0
 10
324.3605668671355
 20
64.343050923981224
 30
0.0
 11
324.3605668671355
 21
57.34305092398116
 31
0.0
  0
LINE
  5
3F71
  8
0
 10
345.8605668671355
 20
51.343050923981167
 30
0.0
 11
345.8605668671355
 21
57.34305092398116
 31
0.0
  0
LINE
  5
3F72
  8
0
 10
320.8605668671355
 20
57.34305092398116
 30
0.0
 11
320.8605668671355
 21
51.343050923981167
 31
0.0
  0
LINE
  5
3F73
  8
0
 10
328.6105668671355
 20
51.343050923981167
 30
0.0
 11
328.6105668671355
 21
42.26461834047322
 31
0.0
  0
LINE
  5
3F74
  8
0
 10
328.6105668671355
 20
65.177987414520175
 30
0.0
 11
328.6105668671355
 21
64.343050923981224
 31
0.0
  0
LINE
  5
3F75
  8
0
 10
338.1105668671355
 20
64.343050923981224
 30
0.0
 11
338.1105668671355
 21
65.177987414520175
 31
0.0
  0
LINE
  5
3F76
  8
0
 10
338.1105668671355
 20
42.26461834047322
 30
0.0
 11
338.1105668671355
 21
51.343050923981167
 31
0.0
  0
LINE
  5
3F77
  8
0
 10
338.1105668671355
 20
65.177987414520175
 30
0.0
 11
338.49454146335142
 21
65.843050923981281
 31
0.0
  0
LINE
  5
3F78
  8
0
 10
328.22659227092049
 20
65.84305092398111
 30
0.0
 11
328.6105668671355
 21
65.177987414520175
 31
0.0
  0
LINE
  5
3F79
  8
0
 10
328.43406686713593
 20
192.34305092398111
 30
0.0
 11
327.3605668671355
 21
191.26955092398109
 31
0.0
  0
LINE
  5
3F7A
  8
0
 10
339.3605668671355
 20
191.26955092398109
 30
0.0
 11
338.28706686713599
 21
192.34305092398111
 31
0.0
  0
LINE
  5
3F7B
  8
0
 10
327.3605668671355
 20
191.26955092398109
 30
0.0
 11
327.3605668671355
 21
180.34305092398139
 31
0.0
  0
LINE
  5
3F7C
  8
0
 10
339.3605668671355
 20
180.343050923981
 30
0.0
 11
339.3605668671355
 21
191.26955092398109
 31
0.0
  0
ARC
  5
3F7D
  8
0
 10
333.3605668671355
 20
32.343050923980712
 30
0.0
 40
11.000000000000449
 50
0.0000000000024427
 51
64.416998022598108
  0
ARC
  5
3F7E
  8
0
 10
333.3605668671355
 20
32.343050923980712
 30
0.0
 40
11.00000000000024
 50
115.5830019773956
 51
179.9999999999975
  0
LINE
  5
3FD7
  8
1
 10
41.36056686713529
 20
197.34305092398111
 30
0.0
 11
41.360566867134821
 21
19.343050923981139
 31
0.0
  0
LINE
  5
3FDA
  8
3
 10
36.235566867135063
 20
192.14455092398109
 30
0.0
 11
36.235566867135262
 21
110.84305092398129
 31
0.0
  0
LINE
  5
3FDB
  8
3
 10
46.485566867135063
 20
192.14455092398109
 30
0.0
 11
46.485566867135041
 21
110.84305092398129
 31
0.0
  0
LINE
  5
3FDD
  8
0
 10
28.860566867135049
 20
94.343050923981281
 30
0.0
 11
53.860566867135049
 21
94.343050923981281
 31
0.0
  0
LINE
  5
3FDE
  8
0
 10
54.360566867135049
 20
93.843050923981266
 30
0.0
 11
28.360566867135049
 21
93.843050923981266
 31
0.0
  0
LINE
  5
3FDF
  8
0
 10
28.360566867135049
 20
90.843050923981281
 30
0.0
 11
54.360566867134821
 21
90.843050923981224
 31
0.0
  0
LINE
  5
3FE1
  8
0
 10
50.860566867135041
 20
97.843050923981352
 30
0.0
 11
50.860566867135041
 21
109.7058700133546
 31
0.0
  0
ARC
  5
3FE2
  8
0
 10
46.110566867135049
 20
96.582804733167364
 30
0.0
 40
13.95626534385379
 50
70.101865707354079
 51
109.89813429264591
  0
LINE
  5
3FE3
  8
0
 10
50.860566867135041
 20
110.5540458619494
 30
0.0
 11
50.860566867135041
 21
109.7058700133546
 31
0.0
  0
LINE
  5
3FE4
  8
0
 10
31.860566867135049
 20
109.7058700133546
 30
0.0
 11
31.860566867135049
 21
110.55433375570441
 31
0.0
  0
LINE
  5
3FE5
  8
0
 10
32.360566867135049
 20
110.84305092398129
 30
0.0
 11
50.360566867135049
 21
110.84305092398129
 31
0.0
  0
LINE
  5
3FE6
  8
0
 10
41.360566867135041
 20
97.843050923981352
 30
0.0
 11
41.360566867135041
 21
109.7058700133546
 31
0.0
  0
ARC
  5
3FE7
  8
0
 10
36.610566867135049
 20
96.582804733167251
 30
0.0
 40
13.95626534385392
 50
70.101865707354079
 51
109.89813429264591
  0
LINE
  5
3FE8
  8
0
 10
31.860566867135049
 20
97.843050923981352
 30
0.0
 11
31.860566867135049
 21
109.7058700133546
 31
0.0
  0
LINE
  5
3FE9
  8
0
 10
28.360566867135049
 20
94.843050923981295
 30
0.0
 11
54.360566867135049
 21
94.843050923981295
 31
0.0
  0
LINE
  5
3FEA
  8
0
 10
28.360566867135049
 20
97.843050923981352
 30
0.0
 11
54.360566867135049
 21
97.843050923981352
 31
0.0
  0
LINE
  5
3FEB
  8
0
 10
46.110566867135049
 20
64.343050923981224
 30
0.0
 11
50.360566867134587
 21
64.343050923981224
 31
0.0
  0
LINE
  5
3FEC
  8
0
 10
32.360566867134587
 20
64.343050923981224
 30
0.0
 11
36.610566867135049
 21
64.343050923981224
 31
0.0
  0
LINE
  5
3FED
  8
0
 10
46.110566867135049
 20
51.343050923981217
 30
0.0
 11
53.860566867134587
 21
51.343050923981217
 31
0.0
  0
LINE
  5
3FEE
  8
0
 10
28.86056686713459
 20
51.343050923981217
 30
0.0
 11
36.610566867135049
 21
51.343050923981217
 31
0.0
  0
LINE
  5
3FEF
  8
0
 10
46.110566867135049
 20
57.343050923981217
 30
0.0
 11
53.860566867134587
 21
57.343050923981217
 31
0.0
  0
LINE
  5
3FF0
  8
0
 10
28.86056686713459
 20
57.343050923981217
 30
0.0
 11
36.610566867135049
 21
57.343050923981217
 31
0.0
  0
LINE
  5
3FF4
  8
0
 10
46.287066867135088
 20
192.3430509239812
 30
0.0
 11
36.43406686713503
 21
192.34305092398111
 31
0.0
  0
LINE
  5
3FF6
  8
0
 10
47.36056686713529
 20
191.269550923981
 30
0.0
 11
35.360566867135063
 21
191.269550923981
 31
0.0
  0
ARC
  5
3FF7
  8
0
 10
41.360566867135503
 20
32.343050923980769
 30
0.0
 40
8.6068286842488533
 50
0.0000000000032569
 51
179.9999999999967
  0
LINE
  5
3FF9
  8
0
 10
46.110566867135049
 20
42.26461834047322
 30
0.0
 11
36.610566867135049
 21
42.26461834047322
 31
0.0
  0
LINE
  5
3FFE
  8
0
 10
52.294920986149229
 20
28.743050923981201
 30
0.0
 11
52.294920986149229
 21
32.343050923981217
 31
0.0
  0
LINE
  5
3FFF
  8
0
 10
52.360566867135731
 20
32.343050923981217
 30
0.0
 11
30.360566867135049
 21
32.343050923981217
 31
0.0
  0
LINE
  5
4000
  8
0
 10
30.426212748120861
 20
32.343050923981217
 30
0.0
 11
30.426212748120861
 21
28.743050923981201
 31
0.0
  0
LINE
  5
4001
  8
0
 10
30.360566867135049
 20
24.343050923981139
 30
0.0
 11
52.360566867135049
 21
24.343050923981231
 31
0.0
  0
LINE
  5
4002
  8
0
 10
52.360566867134821
 20
32.343050923980769
 30
0.0
 11
52.360566867135049
 21
24.343050923981171
 31
0.0
  0
LINE
  5
4003
  8
0
 10
52.360566867135049
 20
28.743050923981201
 30
0.0
 11
52.294920986149229
 21
28.743050923981201
 31
0.0
  0
POLYLINE
  5
4004
  8
0
 66
     1
 10
0.0
 20
0.0
 30
0.0
 70
   128
  0
VERTEX
  5
52C6
  8
0
 10
42.920086023800422
 20
24.343050923981171
 30
0.0
  0
VERTEX
  5
52C7
  8
0
 10
45.066145870023092
 20
24.371253673966319
 30
0.0
  0
VERTEX
  5
52C8
  8
0
 10
47.212205716244853
 20
24.555142739798981
 30
0.0
  0
VERTEX
  5
52C9
  8
0
 10
48.644522033309158
 20
24.867358473030691
 30
0.0
  0
VERTEX
  5
52CA
  8
0
 10
50.03823212362272
 20
25.434653676205961
 30
0.0
  0
VERTEX
  5
52CB
  8
0
 10
51.201539736558288
 20
26.28527179004951
 30
0.0
  0
VERTEX
  5
52CC
  8
0
 10
51.665729310548841
 20
26.83141379469399
 30
0.0
  0
VERTEX
  5
52CD
  8
0
 10
52.029976930577277
 20
27.478500876816408
 30
0.0
  0
VERTEX
  5
52CE
  8
0
 10
52.286960607700848
 20
28.520914085131071
 30
0.0
  0
VERTEX
  5
52CF
  8
0
 10
52.294920986149229
 20
28.743050923981201
 30
0.0
  0
SEQEND
  5
52D0
  8
0
  0
LINE
  5
4006
  8
0
 10
30.360566867135049
 20
24.343050923981171
 30
0.0
 11
30.360566867135049
 21
32.343050923980769
 31
0.0
  0
POLYLINE
  5
4008
  8
0
 66
     1
 10
0.0
 20
0.0
 30
0.0
 70
   128
  0
VERTEX
  5
52D1
  8
0
 10
30.426212748120861
 20
28.743050923981201
 30
0.0
  0
VERTEX
  5
52D2
  8
0
 10
30.51791889423771
 20
27.99233958200082
 30
0.0
  0
VERTEX
  5
52D3
  8
0
 10
30.926218878886861
 20
27.027202535163699
 30
0.0
  0
VERTEX
  5
52D4
  8
0
 10
31.655196246919559
 20
26.156554739966712
 30
0.0
  0
VERTEX
  5
52D5
  8
0
 10
32.353941088337479
 20
25.627384493178429
 30
0.0
  0
VERTEX
  5
52D6
  8
0
 10
33.15023425033155
 20
25.205352821052688
 30
0.0
  0
VERTEX
  5
52D7
  8
0
 10
34.496248600423542
 20
24.753687650766128
 30
0.0
  0
VERTEX
  5
52D8
  8
0
 10
35.929017258263002
 20
24.49814414748008
 30
0.0
  0
VERTEX
  5
52D9
  8
0
 10
37.858259584971393
 20
24.364516863552719
 30
0.0
  0
VERTEX
  5
52DA
  8
0
 10
39.801047710469668
 20
24.343050923981171
 30
0.0
  0
SEQEND
  5
52DB
  8
0
  0
LINE
  5
4009
  8
0
 10
30.426212748120861
 20
28.743050923981201
 30
0.0
 11
30.360566867135049
 21
28.743050923981201
 31
0.0
  0
LINE
  5
4012
  8
0
 10
28.860566867135049
 20
94.343050923981281
 30
0.0
 11
28.360566867135049
 21
93.843050923981266
 31
0.0
  0
LINE
  5
4013
  8
0
 10
54.360566867135049
 20
93.843050923981266
 30
0.0
 11
53.860566867135049
 21
94.343050923981281
 31
0.0
  0
LINE
  5
4014
  8
0
 10
28.360566867135049
 20
93.843050923981266
 30
0.0
 11
28.360566867135049
 21
90.843050923981281
 31
0.0
  0
LINE
  5
4015
  8
0
 10
54.360566867135049
 20
90.843050923981281
 30
0.0
 11
54.360566867135049
 21
93.843050923981266
 31
0.0
  0
LINE
  5
4016
  8
0
 10
53.860566867135049
 20
90.343050923981281
 30
0.0
 11
54.360566867135049
 21
90.843050923981281
 31
0.0
  0
LINE
  5
4017
  8
0
 10
28.360566867135049
 20
90.843050923981281
 30
0.0
 11
28.860566867135049
 21
90.343050923981281
 31
0.0
  0
LINE
  5
4018
  8
0
 10
32.360566867135049
 20
110.84305092398129
 30
0.0
 11
31.860566867135049
 21
110.5543757893864
 31
0.0
  0
LINE
  5
4019
  8
0
 10
50.860566867135041
 20
110.5543757893864
 30
0.0
 11
50.360566867135049
 21
110.84305092398129
 31
0.0
  0
POLYLINE
  5
401A
  8
0
 66
     1
 10
0.0
 20
0.0
 30
0.0
 70
   128
  0
VERTEX
  5
52DC
  8
0
 10
28.360566867135049
 20
94.843050923981295
 30
0.0
  0
VERTEX
  5
52DD
  8
0
 10
29.020415913389339
 20
94.535580984651489
 30
0.0
  0
VERTEX
  5
52DE
  8
0
 10
29.456240412823949
 20
94.343050923981281
 30
0.0
  0
SEQEND
  5
52DF
  8
0
  0
POLYLINE
  5
401B
  8
0
 66
     1
 10
0.0
 20
0.0
 30
0.0
 70
   128
  0
VERTEX
  5
52E0
  8
0
 10
53.264893321446152
 20
94.343050923981281
 30
0.0
  0
VERTEX
  5
52E1
  8
0
 10
53.700717820880747
 20
94.535580984651489
 30
0.0
  0
VERTEX
  5
52E2
  8
0
 10
54.360566867135049
 20
94.843050923981295
 30
0.0
  0
SEQEND
  5
52E3
  8
0
  0
LINE
  5
401C
  8
0
 10
54.360566867135049
 20
94.843050923981295
 30
0.0
 11
54.360566867135049
 21
97.843050923981352
 31
0.0
  0
LINE
  5
401D
  8
0
 10
28.360566867135049
 20
97.843050923981352
 30
0.0
 11
28.360566867135049
 21
94.843050923981295
 31
0.0
  0
LINE
  5
4020
  8
0
 10
50.360566867134587
 20
57.343050923981217
 30
0.0
 11
50.360566867134587
 21
64.343050923981224
 31
0.0
  0
LINE
  5
4021
  8
0
 10
32.360566867134587
 20
64.343050923981224
 30
0.0
 11
32.360566867134587
 21
57.343050923981217
 31
0.0
  0
LINE
  5
4022
  8
0
 10
53.860566867134587
 20
51.343050923981217
 30
0.0
 11
53.860566867134587
 21
57.343050923981217
 31
0.0
  0
LINE
  5
4023
  8
0
 10
28.86056686713459
 20
57.343050923981217
 30
0.0
 11
28.86056686713459
 21
51.343050923981217
 31
0.0
  0
LINE
  5
4024
  8
0
 10
36.610566867135049
 20
71.343050923981281
 30
0.0
 11
36.610566867135049
 21
42.26461834047322
 31
0.0
  0
LINE
  5
4025
  8
0
 10
46.110566867135049
 20
42.26461834047322
 30
0.0
 11
46.110566867135049
 21
71.343050923981281
 31
0.0
  0
LINE
  5
4028
  8
0
 10
36.43406686713503
 20
192.34305092398111
 30
0.0
 11
35.360566867135063
 21
191.269550923981
 31
0.0
  0
LINE
  5
4029
  8
0
 10
47.360566867135063
 20
191.269550923981
 30
0.0
 11
46.287066867135088
 21
192.34305092398111
 31
0.0
  0
LINE
  5
402A
  8
0
 10
35.360566867135063
 20
191.269550923981
 30
0.0
 11
35.360566867135041
 21
110.84305092398129
 31
0.0
  0
LINE
  5
402B
  8
0
 10
47.360566867135063
 20
110.84305092398129
 30
0.0
 11
47.360566867135063
 21
191.269550923981
 31
0.0
  0
ARC
  5
402C
  8
0
 10
41.360566867135503
 20
32.343050923980769
 30
0.0
 40
11.000000000000229
 50
0.0000000000024427
 51
64.416998022604346
  0
ARC
  5
402D
  8
0
 10
41.360566867135503
 20
32.343050923980769
 30
0.0
 40
11.00000000000041
 50
115.58300197740191
 51
179.9999999999975
  0
LINE
  5
402F
  8
1
 10
102.3605668671355
 20
258.3430509239812
 30
0.0
 11
273.8605668671355
 21
258.3430509239812
 31
0.0
  0
CIRCLE
  5
4030
  8
3
 10
256.3605668671355
 20
258.3430509239812
 30
0.0
 40
5.1249999999999432
  0
CIRCLE
  5
4031
  8
3
 10
187.3605668671355
 20
258.34305092398102
 30
0.0
 40
5.125
  0
CIRCLE
  5
403A
  8
0
 10
187.3605668671355
 20
258.34305092398108
 30
0.0
 40
13.0
  0
LINE
  5
403B
  8
0
 10
181.87573930983419
 20
248.843050923981
 30
0.0
 11
176.39091175253239
 21
258.34305092398108
 31
0.0
  0
LINE
  5
403C
  8
0
 10
192.84539442443679
 20
248.843050923981
 30
0.0
 11
181.87573930983419
 21
248.843050923981
 31
0.0
  0
LINE
  5
403D
  8
0
 10
198.33022198173811
 20
258.34305092398108
 30
0.0
 11
192.84539442443679
 21
248.843050923981
 31
0.0
  0
LINE
  5
403E
  8
0
 10
192.84539442443679
 20
267.84305092398108
 30
0.0
 11
198.33022198173811
 21
258.34305092398108
 31
0.0
  0
LINE
  5
403F
  8
0
 10
181.8757393098337
 20
267.84305092398108
 30
0.0
 11
192.84539442443679
 21
267.84305092398108
 31
0.0
  0
LINE
  5
4040
  8
0
 10
176.39091175253239
 20
258.34305092398108
 30
0.0
 11
181.8757393098337
 21
267.84305092398108
 31
0.0
  0
CIRCLE
  5
4042
  8
0
 10
187.3605668671355
 20
258.34305092398108
 30
0.0
 40
9.0
  0
ARC
  5
4043
  8
0
 10
256.3605668671355
 20
258.34305092398131
 30
0.0
 40
12.500000000000091
 50
331.64236342367309
 51
28.357636576326961
  0
LINE
  5
4044
  8
0
 10
259.82466848227318
 20
258.34305092398108
 30
0.0
 11
258.09261767470412
 21
261.34305092398108
 31
0.0
  0
LINE
  5
4045
  8
0
 10
258.09261767470412
 20
255.34305092398111
 30
0.0
 11
259.82466848227318
 21
258.34305092398108
 31
0.0
  0
LINE
  5
4046
  8
0
 10
254.62851605956641
 20
255.34305092398111
 30
0.0
 11
258.09261767470412
 21
255.34305092398111
 31
0.0
  0
LINE
  5
4047
  8
0
 10
252.8964652519978
 20
258.34305092398108
 30
0.0
 11
254.62851605956641
 21
255.34305092398111
 31
0.0
  0
LINE
  5
4048
  8
0
 10
254.62851605956641
 20
261.34305092398108
 30
0.0
 11
252.8964652519978
 21
258.34305092398108
 31
0.0
  0
LINE
  5
4049
  8
0
 10
258.09261767470412
 20
261.34305092398108
 30
0.0
 11
254.62851605956641
 21
261.34305092398108
 31
0.0
  0
CIRCLE
  5
404A
  8
0
 10
256.3605668671355
 20
258.34305092398108
 30
0.0
 40
6.0
  0
CIRCLE
  5
404D
  8
0
 10
187.3605668671355
 20
258.34305092398102
 30
0.0
 40
6.0
  0
LINE
  5
40B0
  8
1
 10
256.3605668671355
 20
46.343050923981188
 30
0.0
 11
256.3605668671355
 21
186.3430509239812
 31
0.0
  0
LINE
  5
40B5
  8
1
 10
187.3605668671355
 20
19.343050923981171
 30
0.0
 11
187.3605668671355
 21
197.3430509239812
 31
0.0
  0
LINE
  5
40B6
  8
3
 10
251.2355668671355
 20
181.34305092398111
 30
0.0
 11
251.2355668671357
 21
90.343050923981224
 31
0.0
  0
LINE
  5
40B7
  8
3
 10
261.4855668671355
 20
181.34305092398111
 30
0.0
 11
261.4855668671355
 21
90.343050923981224
 31
0.0
  0
LINE
  5
40B8
  8
3
 10
182.2355668671355
 20
192.14455092398109
 30
0.0
 11
182.2355668671355
 21
110.84305092398129
 31
0.0
  0
LINE
  5
40B9
  8
3
 10
192.4855668671355
 20
192.14455092398109
 30
0.0
 11
192.48556686713539
 21
110.84305092398129
 31
0.0
  0
LINE
  5
40D1
  8
1
 10
127.3605668671353
 20
93.343050923981224
 30
0.0
 11
127.3605668671355
 21
68.343050923981792
 31
0.0
  0
LINE
  5
40D2
  8
0
 10
174.8605668671355
 20
94.343050923981281
 30
0.0
 11
199.8605668671355
 21
94.343050923981281
 31
0.0
  0
LINE
  5
40D3
  8
0
 10
200.3605668671355
 20
93.843050923981266
 30
0.0
 11
174.3605668671355
 21
93.843050923981266
 31
0.0
  0
LINE
  5
40D4
  8
0
 10
174.3605668671355
 20
90.843050923981281
 30
0.0
 11
200.3605668671355
 21
90.843050923981281
 31
0.0
  0
LINE
  5
40D5
  8
0
 10
198.33022198173811
 20
97.843050923981281
 30
0.0
 11
198.33022198173811
 21
109.7058700133546
 31
0.0
  0
LINE
  5
40D6
  8
0
 10
192.84539442443679
 20
97.843050923981281
 30
0.0
 11
192.84539442443679
 21
109.7058700133545
 31
0.0
  0
ARC
  5
40D7
  8
0
 10
187.3605668671355
 20
92.010296177510185
 30
0.0
 40
18.526107705428931
 50
72.778928004650751
 51
107.22107199534921
  0
ARC
  5
40D8
  8
0
 10
195.58780820308789
 20
105.5626810163307
 30
0.0
 40
4.968586156885304
 50
56.499069126498263
 51
123.5009308735017
  0
LINE
  5
40D9
  8
0
 10
178.3605668671355
 20
110.84305092398129
 30
0.0
 11
196.3605668671355
 21
110.84305092398129
 31
0.0
  0
LINE
  5
40DB
  8
0
 10
181.87573930983419
 20
97.843050923981281
 30
0.0
 11
181.87573930983419
 21
109.7058700133545
 31
0.0
  0
ARC
  5
40DC
  8
0
 10
179.13332553118309
 20
105.5626810163307
 30
0.0
 40
4.9685861568853591
 50
56.49906912649805
 51
123.5009308735017
  0
LINE
  5
40DD
  8
0
 10
176.39091175253239
 20
97.843050923981281
 30
0.0
 11
176.39091175253239
 21
109.7058700133545
 31
0.0
  0
LINE
  5
40DE
  8
0
 10
174.3605668671355
 20
94.843050923981295
 30
0.0
 11
200.3605668671355
 21
94.843050923981224
 31
0.0
  0
LINE
  5
40E0
  8
0
 10
174.3605668671355
 20
97.843050923981281
 30
0.0
 11
200.3605668671355
 21
97.843050923981224
 31
0.0
  0
LINE
  5
40E2
  8
0
 10
259.96056686713541
 20
64.95741027792613
 30
0.0
 11
252.76056686713559
 21
64.95741027792613
 31
0.0
  0
LINE
  5
40E3
  8
0
 10
250.93791713632501
 20
181.34305092398111
 30
0.0
 11
261.78321659794602
 21
181.34305092398111
 31
0.0
  0
LINE
  5
40E4
  8
0
 10
262.3605668671355
 20
180.3430509239812
 30
0.0
 11
250.3605668671355
 21
180.3430509239812
 31
0.0
  0
LINE
  5
40E5
  8
0
 10
247.3605668671355
 20
64.343050923981224
 30
0.0
 11
265.3605668671355
 21
64.343050923981224
 31
0.0
  0
LINE
  5
40E7
  8
0
 10
243.8605668671355
 20
57.34305092398116
 30
0.0
 11
268.8605668671355
 21
57.34305092398116
 31
0.0
  0
LINE
  5
40E9
  8
0
 10
243.8605668671355
 20
51.343050923981167
 30
0.0
 11
268.8605668671355
 21
51.343050923981188
 31
0.0
  0
LINE
  5
40EB
  8
0
 10
192.28706686713551
 20
192.34305092398111
 30
0.0
 11
182.4340668671355
 21
192.34305092398111
 31
0.0
  0
LINE
  5
40EC
  8
0
 10
193.3605668671355
 20
191.26955092398109
 30
0.0
 11
181.3605668671355
 21
191.26955092398109
 31
0.0
  0
LINE
  5
40F1
  8
0
 10
198.3605668671355
 20
32.343050923981217
 30
0.0
 11
187.3605668671355
 21
32.343050923981217
 31
0.0
  0
LINE
  5
40F2
  8
0
 10
187.3605668671355
 20
32.343050923981217
 30
0.0
 11
176.3605668671355
 21
32.343050923981259
 31
0.0
  0
LINE
  5
40F3
  8
0
 10
176.42621274812129
 20
32.343050923981217
 30
0.0
 11
176.42621274812129
 21
28.743050923981201
 31
0.0
  0
LINE
  5
40F6
  8
0
 10
198.29492098614969
 20
28.743050923981201
 30
0.0
 11
198.29492098614969
 21
32.343050923981217
 31
0.0
  0
LINE
  5
40F7
  8
0
 10
194.21056686713541
 20
40.949879608229558
 30
0.0
 11
194.2105668671349
 21
32.343050923981217
 31
0.0
  0
LINE
  5
40F8
  8
0
 10
180.51056686713559
 20
32.343050923981217
 30
0.0
 11
180.51056686713559
 21
40.949879608229558
 31
0.0
  0
LINE
  5
40F9
  8
0
 10
192.1105668671355
 20
42.26461834047322
 30
0.0
 11
182.6105668671355
 21
42.26461834047322
 31
0.0
  0
LINE
  5
40FA
  8
0
 10
198.3605668671355
 20
32.343050923981217
 30
0.0
 11
198.3605668671355
 21
24.343050923981171
 31
0.0
  0
LINE
  5
40FB
  8
0
 10
198.3605668671355
 20
28.743050923981201
 30
0.0
 11
198.29492098614969
 21
28.743050923981201
 31
0.0
  0
POLYLINE
  5
40FC
  8
0
 66
     1
 10
0.0
 20
0.0
 30
0.0
 70
   128
  0
VERTEX
  5
52E4
  8
0
 10
188.92008602380091
 20
24.343050923981171
 30
0.0
  0
VERTEX
  5
52E5
  8
0
 10
191.06614587002309
 20
24.371253673966319
 30
0.0
  0
VERTEX
  5
52E6
  8
0
 10
193.21220571624531
 20
24.555142739799042
 30
0.0
  0
VERTEX
  5
52E7
  8
0
 10
194.6445220333091
 20
24.867358473030691
 30
0.0
  0
VERTEX
  5
52E8
  8
0
 10
196.03823212362309
 20
25.434653676206011
 30
0.0
  0
VERTEX
  5
52E9
  8
0
 10
197.20153973655869
 20
26.28527179004957
 30
0.0
  0
VERTEX
  5
52EA
  8
0
 10
197.66572931054881
 20
26.83141379469393
 30
0.0
  0
VERTEX
  5
52EB
  8
0
 10
198.0299769305777
 20
27.478500876816469
 30
0.0
  0
VERTEX
  5
52EC
  8
0
 10
198.2869606077013
 20
28.520914085131011
 30
0.0
  0
VERTEX
  5
52ED
  8
0
 10
198.29492098614969
 20
28.743050923981201
 30
0.0
  0
SEQEND
  5
52EE
  8
0
  0
LINE
  5
40FD
  8
0
 10
198.3605668671355
 20
24.343050923981171
 30
0.0
 11
176.3605668671355
 21
24.343050923981171
 31
0.0
  0
LINE
  5
40FE
  8
0
 10
176.3605668671355
 20
24.343050923981171
 30
0.0
 11
176.3605668671355
 21
32.343050923981259
 31
0.0
  0
POLYLINE
  5
40FF
  8
0
 66
     1
 10
0.0
 20
0.0
 30
0.0
 70
   128
  0
VERTEX
  5
52EF
  8
0
 10
176.42621274812129
 20
28.743050923981201
 30
0.0
  0
VERTEX
  5
52F0
  8
0
 10
176.51791889423811
 20
27.992339582000881
 30
0.0
  0
VERTEX
  5
52F1
  8
0
 10
176.92621887888731
 20
27.027202535163699
 30
0.0
  0
VERTEX
  5
52F2
  8
0
 10
177.6551962469195
 20
26.156554739966712
 30
0.0
  0
VERTEX
  5
52F3
  8
0
 10
178.3539410883379
 20
25.627384493178429
 30
0.0
  0
VERTEX
  5
52F4
  8
0
 10
179.15023425033149
 20
25.205352821052632
 30
0.0
  0
VERTEX
  5
52F5
  8
0
 10
180.496248600424
 20
24.753687650766128
 30
0.0
  0
VERTEX
  5
52F6
  8
0
 10
181.929017258263
 20
24.49814414748008
 30
0.0
  0
VERTEX
  5
52F7
  8
0
 10
183.85825958497139
 20
24.36451686355278
 30
0.0
  0
VERTEX
  5
52F8
  8
0
 10
185.8010477104701
 20
24.343050923981171
 30
0.0
  0
SEQEND
  5
52F9
  8
0
  0
LINE
  5
4100
  8
0
 10
176.42621274812129
 20
28.743050923981201
 30
0.0
 11
176.3605668671355
 21
28.743050923981201
 31
0.0
  0
LINE
  5
4108
  8
0
 10
174.8605668671355
 20
94.343050923981281
 30
0.0
 11
174.3605668671355
 21
93.843050923981266
 31
0.0
  0
LINE
  5
4109
  8
0
 10
200.3605668671355
 20
93.843050923981266
 30
0.0
 11
199.8605668671355
 21
94.343050923981281
 31
0.0
  0
LINE
  5
410A
  8
0
 10
174.3605668671355
 20
93.843050923981266
 30
0.0
 11
174.3605668671355
 21
90.843050923981281
 31
0.0
  0
LINE
  5
410B
  8
0
 10
200.3605668671355
 20
90.843050923981281
 30
0.0
 11
200.3605668671355
 21
93.843050923981266
 31
0.0
  0
LINE
  5
410C
  8
0
 10
199.8605668671355
 20
90.343050923981281
 30
0.0
 11
200.3605668671355
 21
90.843050923981281
 31
0.0
  0
LINE
  5
410D
  8
0
 10
174.3605668671355
 20
90.843050923981281
 30
0.0
 11
174.8605668671355
 21
90.343050923981281
 31
0.0
  0
LINE
  5
410E
  8
0
 10
178.3605668671355
 20
110.84305092398129
 30
0.0
 11
176.39091175253239
 21
109.7058700133545
 31
0.0
  0
LINE
  5
410F
  8
0
 10
198.33022198173811
 20
109.7058700133546
 30
0.0
 11
196.3605668671355
 21
110.84305092398129
 31
0.0
  0
POLYLINE
  5
4110
  8
0
 66
     1
 10
0.0
 20
0.0
 30
0.0
 70
   128
  0
VERTEX
  5
52FA
  8
0
 10
199.26489332144661
 20
94.343050923981281
 30
0.0
  0
VERTEX
  5
52FB
  8
0
 10
199.70071782088121
 20
94.535580984651418
 30
0.0
  0
VERTEX
  5
52FC
  8
0
 10
200.3605668671355
 20
94.843050923981295
 30
0.0
  0
SEQEND
  5
52FD
  8
0
  0
POLYLINE
  5
4111
  8
0
 66
     1
 10
0.0
 20
0.0
 30
0.0
 70
   128
  0
VERTEX
  5
52FE
  8
0
 10
174.3605668671355
 20
94.843050923981295
 30
0.0
  0
VERTEX
  5
52FF
  8
0
 10
175.02041591338929
 20
94.535580984651418
 30
0.0
  0
VERTEX
  5
5300
  8
0
 10
175.4562404128244
 20
94.343050923981281
 30
0.0
  0
SEQEND
  5
5301
  8
0
  0
LINE
  5
4112
  8
0
 10
200.3605668671355
 20
94.843050923981295
 30
0.0
 11
200.3605668671355
 21
97.843050923981281
 31
0.0
  0
LINE
  5
4113
  8
0
 10
174.3605668671355
 20
97.843050923981281
 30
0.0
 11
174.3605668671355
 21
94.843050923981295
 31
0.0
  0
LINE
  5
4114
  8
0
 10
252.76056686713559
 20
64.95741027792613
 30
0.0
 11
252.76056686713559
 21
64.343050923981224
 31
0.0
  0
LINE
  5
4115
  8
0
 10
259.96056686713541
 20
64.343050923981224
 30
0.0
 11
259.96056686713541
 21
64.95741027792613
 31
0.0
  0
LINE
  5
4118
  8
0
 10
250.93791713632501
 20
181.34305092398111
 30
0.0
 11
250.3605668671355
 21
180.3430509239812
 31
0.0
  0
LINE
  5
4119
  8
0
 10
262.3605668671355
 20
180.3430509239812
 30
0.0
 11
261.78321659794602
 21
181.34305092398111
 31
0.0
  0
LINE
  5
411A
  8
0
 10
262.3605668671355
 20
90.343050923981238
 30
0.0
 11
262.3605668671355
 21
180.3430509239812
 31
0.0
  0
LINE
  5
411B
  8
0
 10
250.3605668671355
 20
180.3430509239812
 30
0.0
 11
250.3605668671355
 21
90.343050923981238
 31
0.0
  0
LINE
  5
411C
  8
0
 10
265.3605668671355
 20
57.34305092398116
 30
0.0
 11
265.3605668671355
 21
64.343050923981224
 31
0.0
  0
LINE
  5
411D
  8
0
 10
247.3605668671355
 20
64.343050923981224
 30
0.0
 11
247.3605668671355
 21
57.34305092398116
 31
0.0
  0
LINE
  5
411E
  8
0
 10
268.8605668671355
 20
51.343050923981167
 30
0.0
 11
268.8605668671355
 21
57.34305092398116
 31
0.0
  0
LINE
  5
411F
  8
0
 10
243.8605668671355
 20
57.34305092398116
 30
0.0
 11
243.8605668671355
 21
51.343050923981167
 31
0.0
  0
LINE
  5
4120
  8
0
 10
182.6105668671355
 20
71.343050923981252
 30
0.0
 11
182.6105668671355
 21
42.26461834047322
 31
0.0
  0
LINE
  5
4121
  8
0
 10
192.1105668671355
 20
42.26461834047322
 30
0.0
 11
192.1105668671355
 21
71.343050923981252
 31
0.0
  0
LINE
  5
4122
  8
0
 10
182.4340668671355
 20
192.34305092398111
 30
0.0
 11
181.3605668671355
 21
191.26955092398109
 31
0.0
  0
LINE
  5
4123
  8
0
 10
193.3605668671355
 20
191.26955092398109
 30
0.0
 11
192.28706686713551
 21
192.34305092398111
 31
0.0
  0
LINE
  5
4124
  8
0
 10
181.3605668671355
 20
191.26955092398109
 30
0.0
 11
181.3605668671355
 21
110.84305092398129
 31
0.0
  0
LINE
  5
4125
  8
0
 10
193.3605668671355
 20
110.84305092398129
 30
0.0
 11
193.3605668671355
 21
191.26955092398109
 31
0.0
  0
ARC
  5
4128
  8
0
 10
187.3605668671355
 20
32.343050923980712
 30
0.0
 40
11.00000000000038
 50
51.484430947522519
 51
64.416998022598293
  0
ARC
  5
4129
  8
0
 10
187.3605668671355
 20
32.343050923980712
 30
0.0
 40
11.000000000000419
 50
115.58300197740169
 51
128.51556905247739
  0
LINE
  5
487D
  8
1
 10
333.36056686713619
 20
197.343050923981
 30
0.0
 11
333.36056686713567
 21
19.343050923981021
 31
0.0
  0
LINE
  5
4883
  8
1
 10
127.3605668671355
 20
267.84305092398108
 30
0.0
 11
127.3605668671355
 21
248.84305092398111
 31
0.0
  0
LINE
  5
4884
  8
1
 10
187.3605668671355
 20
274.34305092398108
 30
0.0
 11
187.3605668671359
 21
242.34305092398111
 31
0.0
  0
LINE
  5
4885
  8
1
 10
256.36056686713567
 20
267.34305092398108
 30
0.0
 11
256.36056686713567
 21
249.34305092398111
 31
0.0
  0
LINE
  5
4893
  8
3
 10
338.48556686713619
 20
192.14455092398109
 30
0.0
 11
338.4855668671363
 21
90.343050923981224
 31
0.0
  0
LINE
  5
4894
  8
3
 10
328.23556686713619
 20
192.14455092398109
 30
0.0
 11
328.23556686713619
 21
90.343050923981224
 31
0.0
  0
LINE
  5
4895
  8
3
 10
338.48556686713607
 20
76.343050923981167
 30
0.0
 11
338.48556686713619
 21
65.827506467358518
 31
0.0
  0
LINE
  5
4896
  8
3
 10
328.23556686713192
 20
76.343050923981167
 30
0.0
 11
328.23556686713619
 21
65.827506467358518
 31
0.0
  0
LINE
  5
4E64
  8
0
 10
339.3605668671355
 20
66.343050923981167
 30
0.0
 11
327.3605668671355
 21
66.343050923981167
 31
0.0
  0
LINE
  5
4E65
  8
0
 10
262.3605668671355
 20
66.343050923981167
 30
0.0
 11
250.3605668671355
 21
66.343050923981167
 31
0.0
  0
LINE
  5
4E66
  8
3
 10
261.48556686713619
 20
71.34305092398121
 30
0.0
 11
261.48556686713619
 21
65.827506467358518
 31
0.0
  0
LINE
  5
4E67
  8
0
 10
259.96056686713592
 20
64.95741027792613
 30
0.0
 11
262.3605668671355
 21
66.343050923981167
 31
0.0
  0
LINE
  5
4E68
  8
0
 10
262.3605668671355
 20
66.343050923981167
 30
0.0
 11
262.36056686713562
 21
71.343050923981224
 31
0.0
  0
LINE
  5
4E69
  8
3
 10
251.23556686713391
 20
71.343050923981224
 30
0.0
 11
251.23556686713621
 21
65.827506467358518
 31
0.0
  0
LINE
  5
4E6A
  8
0
 10
250.3605668671355
 20
66.343050923981167
 30
0.0
 11
252.76056686713559
 21
64.95741027792613
 31
0.0
  0
LINE
  5
4E6B
  8
0
 10
250.3605668671355
 20
71.343050923981224
 30
0.0
 11
250.3605668671355
 21
66.343050923981167
 31
0.0
  0
LINE
  5
4F1E
  8
0
 10
35.360566867134928
 20
66.343050923981735
 30
0.0
 11
36.610566867135063
 21
65.6213630874947
 31
0.0
  0
LINE
  5
4F1F
  8
0
 10
35.36056686713497
 20
71.343050923981792
 30
0.0
 11
35.360566867134928
 21
66.343050923981735
 31
0.0
  0
LINE
  5
4F20
  8
0
 10
47.360566867134928
 20
66.343050923981735
 30
0.0
 11
46.110566867135049
 21
66.343050923981735
 31
0.0
  0
LINE
  5
4F21
  8
0
 10
47.360566867134928
 20
66.343050923981735
 30
0.0
 11
47.360566867134978
 21
71.343050923981792
 31
0.0
  0
LINE
  5
4F22
  8
0
 10
46.110566867135049
 20
65.6213630874947
 30
0.0
 11
47.360566867134928
 21
66.343050923981735
 31
0.0
  0
LINE
  5
4F23
  8
3
 10
36.235566867133322
 20
71.343050923981792
 30
0.0
 11
36.235566867135617
 21
65.827506467359086
 31
0.0
  0
LINE
  5
4F24
  8
3
 10
46.48556686713561
 20
71.343050923981778
 30
0.0
 11
46.48556686713561
 21
65.827506467359086
 31
0.0
  0
LINE
  5
4F25
  8
0
 10
36.610566867135049
 20
66.343050923981735
 30
0.0
 11
35.360566867134928
 21
66.343050923981735
 31
0.0
  0
LINE
  5
5155
  8
0
 10
317.3605668671359
 20
90.343050923981281
 30
0.0
 11
349.3605668671359
 21
90.343050923981281
 31
0.0
  0
LINE
  5
5156
  8
0
 10
317.3605668671359
 20
71.343050923981281
 30
0.0
 11
327.3605668671355
 21
71.343050923981266
 31
0.0
  0
LINE
  5
5157
  8
0
 10
317.3605668671359
 20
90.343050923981281
 30
0.0
 11
317.3605668671359
 21
71.343050923981281
 31
0.0
  0
LINE
  5
5158
  8
0
 10
326.8605668671359
 20
76.343050923981281
 30
0.0
 11
339.8605668671359
 21
76.343050923981281
 31
0.0
  0
LINE
  5
5159
  8
0
 10
339.8605668671359
 20
76.343050923981281
 30
0.0
 11
339.8605668671359
 21
71.343050923981281
 31
0.0
  0
LINE
  5
515A
  8
0
 10
319.3605668671359
 20
90.343050923981281
 30
0.0
 11
319.3605668671359
 21
71.343050923981281
 31
0.0
  0
LINE
  5
515B
  8
0
 10
326.8605668671359
 20
76.343050923981281
 30
0.0
 11
326.8605668671359
 21
71.343050923981281
 31
0.0
  0
LINE
  5
515C
  8
0
 10
349.3605668671359
 20
90.343050923981281
 30
0.0
 11
349.3605668671359
 21
71.343050923981281
 31
0.0
  0
LINE
  5
515D
  8
0
 10
347.3605668671359
 20
90.343050923981281
 30
0.0
 11
347.3605668671359
 21
71.343050923981281
 31
0.0
  0
LINE
  5
515E
  8
0
 10
57.360566867135049
 20
90.343050923981281
 30
0.0
 11
57.360566867135049
 21
71.343050923981281
 31
0.0
  0
LINE
  5
515F
  8
0
 10
50.360566867135162
 20
85.343050923981281
 30
0.0
 11
50.360566867135162
 21
71.343050923981281
 31
0.0
  0
LINE
  5
5160
  8
0
 10
57.360566867135049
 20
71.343050923981281
 30
0.0
 11
25.360566867134931
 21
71.343050923981281
 31
0.0
  0
LINE
  5
5161
  8
0
 10
57.360566867135049
 20
90.343050923981281
 30
0.0
 11
25.360566867134931
 21
90.343050923981281
 31
0.0
  0
LINE
  5
5162
  8
0
 10
25.360566867134931
 20
90.343050923981281
 30
0.0
 11
25.360566867134931
 21
71.343050923981281
 31
0.0
  0
LINE
  5
5163
  8
0
 10
32.360566867135162
 20
85.343050923981281
 30
0.0
 11
32.360566867135162
 21
71.343050923981281
 31
0.0
  0
LINE
  5
5164
  8
0
 10
27.360566867135049
 20
90.343050923981281
 30
0.0
 11
32.360566867135162
 21
85.343050923981281
 31
0.0
  0
LINE
  5
5165
  8
0
 10
50.360566867135162
 20
85.343050923981281
 30
0.0
 11
32.360566867135162
 21
85.343050923981281
 31
0.0
  0
LINE
  5
5166
  8
0
 10
55.360566867135049
 20
90.343050923981281
 30
0.0
 11
50.360566867135162
 21
85.343050923981281
 31
0.0
  0
LINE
  5
5167
  8
2
 10
267.36056686713528
 20
264.84305092398142
 30
0.0
 11
176.10223661793759
 21
264.84305092398068
 31
0.0
  0
LINE
  5
5168
  8
2
 10
267.36056686713528
 20
251.84305092398151
 30
0.0
 11
176.10223661793771
 21
251.8430509239808
 31
0.0
  0
ARC
  5
5169
  8
2
 10
187.36056686713519
 20
258.3430509239808
 30
0.0
 40
6.5
 50
270.0
 51
90.0
  0
LINE
  5
516A
  8
0
 10
107.3605668671353
 20
249.34305092398029
 30
0.0
 11
107.3605668671353
 21
267.34305092398029
 31
0.0
  0
LINE
  5
516B
  8
0
 10
107.36056686713511
 20
267.34305092397972
 30
0.0
 11
119.4849225201171
 21
274.3430509239804
 31
0.0
  0
LINE
  5
516C
  8
0
 10
116.0208209049797
 20
244.34305092398029
 30
0.0
 11
116.0208209049797
 21
272.34305092398029
 31
0.0
  0
LINE
  5
516D
  8
0
 10
107.36056686713511
 20
249.3430509239808
 30
0.0
 11
119.4849225201171
 21
242.34305092398029
 31
0.0
  0
LINE
  5
516E
  8
0
 10
119.4849225201171
 20
242.34305092398029
 30
0.0
 11
265.36056686713528
 21
242.34305092398139
 31
0.0
  0
LINE
  5
516F
  8
0
 10
265.36056686713528
 20
242.34305092398139
 30
0.0
 11
267.36056686713528
 21
244.34305092398139
 31
0.0
  0
LINE
  5
5170
  8
0
 10
267.36056686713528
 20
272.34305092398142
 30
0.0
 11
267.36056686713528
 21
244.34305092398139
 31
0.0
  0
LINE
  5
5171
  8
0
 10
265.36056686713528
 20
274.34305092398131
 30
0.0
 11
267.36056686713528
 21
272.34305092398142
 31
0.0
  0
LINE
  5
5172
  8
0
 10
119.4849225201171
 20
274.3430509239804
 30
0.0
 11
265.36056686713528
 21
274.34305092398131
 31
0.0
  0
LINE
  5
5173
  8
0
 10
127.3605668671353
 20
264.8430509239804
 30
0.0
 11
176.10223661793751
 21
264.84305092398068
 31
0.0
  0
LINE
  5
5174
  8
0
 10
176.10223661793751
 20
251.84305092398071
 30
0.0
 11
127.3605668671353
 21
251.8430509239804
 31
0.0
  0
ARC
  5
5175
  8
0
 10
127.3605668671353
 20
258.3430509239804
 30
0.0
 40
6.500000000000056
 50
90.0
 51
270.0
  0
LINE
  5
5176
  8
2
 10
193.8605668671353
 20
76.343050923981792
 30
0.0
 11
193.8605668671353
 21
90.343050923981792
 31
0.0
  0
LINE
  5
5177
  8
2
 10
120.8605668671353
 20
90.343050923981792
 30
0.0
 11
120.8605668671353
 21
71.343050923981792
 31
0.0
  0
LINE
  5
5178
  8
2
 10
187.36056686713519
 20
90.343050923981792
 30
0.0
 11
187.36056686713519
 21
76.343050923981792
 31
0.0
  0
LINE
  5
5179
  8
2
 10
187.36056686713519
 20
90.343050923981792
 30
0.0
 11
187.36056686713519
 21
76.343050923981792
 31
0.0
  0
LINE
  5
517A
  8
2
 10
267.36056686713528
 20
76.343050923981792
 30
0.0
 11
187.36056686713519
 21
76.343050923981792
 31
0.0
  0
LINE
  5
517B
  8
0
 10
267.36056686713528
 20
90.343050923981792
 30
0.0
 11
267.36056686713528
 21
71.343050923981792
 31
0.0
  0
LINE
  5
517C
  8
0
 10
107.3605668671353
 20
71.343050923981792
 30
0.0
 11
267.36056686713528
 21
71.343050923981806
 31
0.0
  0
LINE
  5
517D
  8
0
 10
116.0208209049797
 20
90.343050923981792
 30
0.0
 11
267.36056686713528
 21
90.343050923981792
 31
0.0
  0
LINE
  5
517E
  8
0
 10
116.0208209049797
 20
90.343050923981792
 30
0.0
 11
107.3605668671353
 21
85.343050923981792
 31
0.0
  0
LINE
  5
517F
  8
0
 10
107.3605668671353
 20
85.343050923981792
 30
0.0
 11
107.3605668671353
 21
71.343050923981792
 31
0.0
  0
LINE
  5
5180
  8
0
 10
265.36056686713528
 20
90.343050923981792
 30
0.0
 11
265.36056686713528
 21
71.343050923981792
 31
0.0
  0
LINE
  5
5181
  8
0
 10
119.4849225201171
 20
90.343050923981792
 30
0.0
 11
119.4849225201171
 21
71.343050923981792
 31
0.0
  0
LINE
  5
51A2
  8
0
 10
339.36056686713562
 20
71.343050923981266
 30
0.0
 11
349.3605668671359
 21
71.343050923981281
 31
0.0
  0
TEXT
  5
5249
  8
0
 62
     3
 10
0.0
 20
0.0
 30
0.0
 40
10.0
  1
BJ153-12160B3-T
  7
STANDARD1
  0
ENDSEC
  0
EOF
