  0
SECTION
  2
HEADER
  9
$ACADVER
  1
AC1009
  9
$INSBASE
 10
0.0
 20
0.0
 30
0.0
  9
$EXTMIN
 10
0.0
 20
-2.960436562073669
 30
0.0
  9
$EXTMAX
 10
182.5
 20
102.5
 30
0.0
  9
$LIMMIN
 10
0.0
 20
0.0
  9
$LIMMAX
 10
187.5
 20
135.0
  9
$ORTHOMODE
 70
     1
  9
$REGENMODE
 70
     1
  9
$FILLMODE
 70
     1
  9
$QTEXTMODE
 70
     0
  9
$MIRRTEXT
 70
     0
  9
$DRAGMODE
 70
     2
  9
$LTSCALE
 40
5.0
  9
$OSMODE
 70
  3071
  9
$ATTMODE
 70
     1
  9
$TEXTSIZE
 40
0.2
  9
$TRACEWID
 40
0.05
  9
$TEXTSTYLE
  7
STANDARD
  9
$CLAYER
  8
0
  9
$CELTYPE
  6
BYLAYER
  9
$CECOLOR
 62
   256
  9
$DIMSCALE
 40
0.5
  9
$DIMASZ
 40
3.0
  9
$DIMEXO
 40
2.0
  9
$DIMDLI
 40
0.38
  9
$DIMRND
 40
0.0
  9
$DIMDLE
 40
0.0
  9
$DIMEXE
 40
2.0
  9
$DIMTP
 40
0.0
  9
$DIMTM
 40
0.0
  9
$DIMTXT
 40
3.2000000000000002
  9
$DIMCEN
 40
0.0
  9
$DIMTSZ
 40
0.0
  9
$DIMTOL
 70
     0
  9
$DIMLIM
 70
     0
  9
$DIMTIH
 70
     0
  9
$DIMTOH
 70
     0
  9
$DIMSE1
 70
     0
  9
$DIMSE2
 70
     0
  9
$DIMTAD
 70
     1
  9
$DIMZIN
 70
     0
  9
$DIMBLK
  1

  9
$DIMASO
 70
     0
  9
$DIMSHO
 70
     0
  9
$DIMPOST
  1

  9
$DIMAPOST
  1

  9
$DIMALT
 70
     0
  9
$DIMALTD
 70
     2
  9
$DIMALTF
 40
25.399999999999999
  9
$DIMLFAC
 40
1.0
  9
$DIMTOFL
 70
     1
  9
$DIMTVP
 40
1.6000000000000001
  9
$DIMTIX
 70
     1
  9
$DIMSOXD
 70
     0
  9
$DIMSAH
 70
     0
  9
$DIMBLK1
  1

  9
$DIMBLK2
  1

  9
$DIMSTYLE
  2
STANDARD
  9
$DIMCLRD
 70
     0
  9
$DIMCLRE
 70
     0
  9
$DIMCLRT
 70
     0
  9
$DIMTFAC
 40
1.0
  9
$DIMGAP
 40
0.09
  9
$LUNITS
 70
     2
  9
$LUPREC
 70
     4
  9
$SKETCHINC
 40
0.1
  9
$FILLETRAD
 40
0.0
  9
$AUNITS
 70
     0
  9
$AUPREC
 70
     4
  9
$MENU
  1
E:\r13\win\SUPPORT\ACAD
  9
$ELEVATION
 40
0.0
  9
$PELEVATION
 40
0.0
  9
$THICKNESS
 40
0.0
  9
$LIMCHECK
 70
     0
  9
$BLIPMODE
 70
     0
  9
$CHAMFERA
 40
0.0
  9
$CHAMFERB
 40
0.0
  9
$SKPOLY
 70
     0
  9
$TDCREATE
 40
2449839.7524189819
  9
$TDUPDATE
 40
2456597.6356838769
  9
$TDINDWG
 40
0.0000982639
  9
$TDUSRTIMER
 40
0.0000982639
  9
$USRTIMER
 70
     1
  9
$ANGBASE
 50
0.0
  9
$ANGDIR
 70
     0
  9
$PDMODE
 70
     0
  9
$PDSIZE
 40
0.0
  9
$PLINEWID
 40
0.0
  9
$COORDS
 70
     1
  9
$SPLFRAME
 70
     0
  9
$SPLINETYPE
 70
     6
  9
$SPLINESEGS
 70
     8
  9
$ATTDIA
 70
     0
  9
$ATTREQ
 70
     1
  9
$HANDLING
 70
     1
  9
$HANDSEED
  5
23A
  9
$SURFTAB1
 70
     6
  9
$SURFTAB2
 70
     6
  9
$SURFTYPE
 70
     6
  9
$SURFU
 70
     6
  9
$SURFV
 70
     6
  9
$UCSNAME
  2

  9
$UCSORG
 10
0.0
 20
0.0
 30
0.0
  9
$UCSXDIR
 10
1.0
 20
0.0
 30
0.0
  9
$UCSYDIR
 10
0.0
 20
1.0
 30
0.0
  9
$PUCSNAME
  2

  9
$PUCSORG
 10
0.0
 20
0.0
 30
0.0
  9
$PUCSXDIR
 10
1.0
 20
0.0
 30
0.0
  9
$PUCSYDIR
 10
0.0
 20
1.0
 30
0.0
  9
$USERI1
 70
     0
  9
$USERI2
 70
     1
  9
$USERI3
 70
     0
  9
$USERI4
 70
     0
  9
$USERI5
 70
     0
  9
$USERR1
 40
0.0
  9
$USERR2
 40
0.0
  9
$USERR3
 40
0.0
  9
$USERR4
 40
0.0
  9
$USERR5
 40
0.0
  9
$WORLDVIEW
 70
     1
  9
$SHADEDGE
 70
     3
  9
$SHADEDIF
 70
    70
  9
$TILEMODE
 70
     1
  9
$MAXACTVP
 70
    16
  9
$PLIMCHECK
 70
     0
  9
$PEXTMIN
 10
1.0000000000000000E+020
 20
1.0000000000000000E+020
 30
1.0000000000000000E+020
  9
$PEXTMAX
 10
-1.0000000000000000E+020
 20
-1.0000000000000000E+020
 30
-1.0000000000000000E+020
  9
$PLIMMIN
 10
0.0
 20
0.0
  9
$PLIMMAX
 10
12.0
 20
9.0
  9
$UNITMODE
 70
     0
  9
$VISRETAIN
 70
     0
  9
$PLINEGEN
 70
     0
  9
$PSLTSCALE
 70
     0
  0
ENDSEC
  0
SECTION
  2
TABLES
  0
TABLE
  2
VPORT
 70
     1
  0
VPORT
  2
*ACTIVE
 70
     0
 10
0.0
 20
0.0
 11
1.0
 21
1.0
 12
97.570150770051072
 22
66.014785922033241
 13
0.0
 23
0.0
 14
5.0
 24
5.0
 15
5.0
 25
5.0
 16
0.0
 26
0.0
 36
1.0
 17
0.0
 27
0.0
 37
0.0
 40
139.20783109903601
 41
1.831871345029239
 42
50.0
 43
0.0
 44
0.0
 50
0.0
 51
0.0
 71
     0
 72
   500
 73
     1
 74
     0
 75
     0
 76
     0
 77
     0
 78
     2
  0
ENDTAB
  0
TABLE
  2
LTYPE
 70
     4
  0
LTYPE
  2
CONTINUOUS
 70
     0
  3
Solid Line
 72
    65
 73
     0
 40
0.0
  0
LTYPE
  2
CENTER
 70
     0
  3
____ _ ____ _ ____ _ ____ _ ____ _ ____ _ ____
 72
    65
 73
     4
 40
2.0
 49
1.25
 49
-0.25
 49
0.25
 49
-0.25
  0
LTYPE
  2
HIDDEN
 70
     0
  3
_ _ _ _ _ _ _ _ _ _ _ _ _ _ _ _ _ _ _ _ _ _ _
 72
    65
 73
     2
 40
0.375
 49
0.25
 49
-0.125
  0
LTYPE
  2
PHANTOM2
 70
     0
  3
___ _ _ ___ _ _ ___ _ _ ___ _ _
 72
    65
 73
     6
 40
1.25
 49
0.625
 49
-0.125
 49
0.125
 49
-0.125
 49
0.125
 49
-0.125
  0
ENDTAB
  0
TABLE
  2
LAYER
 70
     4
  0
LAYER
  2
0
 70
     0
 62
     7
  6
CONTINUOUS
  0
LAYER
  2
1
 70
     0
 62
     1
  6
CENTER
  0
LAYER
  2
2
 70
     0
 62
     2
  6
HIDDEN
  0
LAYER
  2
3
 70
     0
 62
     3
  6
CONTINUOUS
  0
ENDTAB
  0
TABLE
  2
STYLE
 70
     2
  0
STYLE
  2
STANDARD
 70
     0
 40
0.0
 41
1.0
 50
0.0
 71
     0
 42
0.2
  3
TXT
  4
BIGFONT
  0
STYLE
  2
STANDARD1
 70
     0
 40
0.0
 41
1.0
 50
0.0
 71
     0
 42
3.0
  3
txt
  4

  0
ENDTAB
  0
TABLE
  2
VIEW
 70
     1
  0
VIEW
  2
ALL
 70
     0
 40
135.0
 10
110.4957983193277
 20
67.5
 41
0.0
 11
0.0
 21
0.0
 31
1.0
 12
0.0
 22
0.0
 32
0.0
 42
0.0
 43
0.0
 44
0.0
 50
0.0
 71
     0
  0
ENDTAB
  0
TABLE
  2
UCS
 70
     0
  0
ENDTAB
  0
TABLE
  2
APPID
 70
     3
  0
APPID
  2
ACAD
 70
     0
  0
APPID
  2
ACAD_MLEADERVER
 70
     0
  0
APPID
  2
ACAD_NAV_VCDISPLAY
 70
     0
  0
ENDTAB
  0
TABLE
  2
DIMSTYLE
 70
     1
  0
DIMSTYLE
  2
STANDARD
 70
     0
  3

  4

  5

  6

  7

 40
1.0
 41
0.18
 42
0.0625
 43
0.38
 44
0.18
 45
0.0
 46
0.0
 47
0.0
 48
0.0
140
0.18
141
0.09
142
0.0
143
25.399999999999999
144
1.0
145
0.0
146
1.0
147
0.09
 71
     0
 72
     0
 73
     1
 74
     1
 75
     0
 76
     0
 77
     0
 78
     0
170
     0
171
     2
172
     0
173
     0
174
     0
175
     0
176
     0
177
     0
178
     0
  0
ENDTAB
  0
ENDSEC
  0
SECTION
  2
BLOCKS
  0
BLOCK
  8
0
  2
$MODEL_SPACE
 70
     0
 10
0.0
 20
0.0
 30
0.0
  3
$MODEL_SPACE
  1

  0
ENDBLK
  5
EE
  8
0
  0
BLOCK
 67
     1
  8
0
  2
$PAPER_SPACE
 70
     0
 10
0.0
 20
0.0
 30
0.0
  3
$PAPER_SPACE
  1

  0
ENDBLK
  5
EC
 67
     1
  8
0
  0
ENDSEC
  0
SECTION
  2
ENTITIES
  0
LINE
  5
43
  8
0
 10
177.5
 20
53.0
 30
0.0
 11
180.5
 21
56.0
 31
0.0
  0
LINE
  5
44
  8
0
 10
162.5
 20
53.0
 30
0.0
 11
159.5
 21
56.0
 31
0.0
  0
LINE
  5
45
  8
0
 10
181.5
 20
56.0
 30
0.0
 11
182.5
 21
55.0
 31
0.0
  0
LINE
  5
46
  8
0
 10
157.5
 20
55.0
 30
0.0
 11
158.5
 21
56.0
 31
0.0
  0
LINE
  5
47
  8
0
 10
158.5
 20
40.0
 30
0.0
 11
157.5
 21
41.0
 31
0.0
  0
LINE
  5
48
  8
0
 10
181.5
 20
40.0
 30
0.0
 11
182.5
 21
41.0
 31
0.0
  0
LINE
  5
49
  8
0
 10
162.5
 20
53.0
 30
0.0
 11
177.5
 21
53.0
 31
0.0
  0
LINE
  5
4A
  8
1
 10
170.0
 20
61.0
 30
0.0
 11
170.0
 21
35.0
 31
0.0
  0
LINE
  5
4B
  8
0
 10
181.5
 20
56.0
 30
0.0
 11
158.5
 21
56.0
 31
0.0
  0
LINE
  5
4C
  8
0
 10
182.5
 20
41.0
 30
0.0
 11
182.5
 21
55.0
 31
0.0
  0
LINE
  5
4D
  8
0
 10
158.5
 20
40.0
 30
0.0
 11
181.5
 21
40.0
 31
0.0
  0
LINE
  5
4E
  8
0
 10
157.5
 20
55.0
 30
0.0
 11
157.5
 21
41.0
 31
0.0
  0
LINE
  5
4F
  8
0
 10
162.5
 20
53.0
 30
0.0
 11
162.5
 21
40.0
 31
0.0
  0
LINE
  5
50
  8
0
 10
177.5
 20
53.0
 30
0.0
 11
177.5
 21
40.0
 31
0.0
  0
LINE
  5
51
  8
0
 10
8.5
 20
40.000000000000007
 30
0.0
 11
7.5
 21
41.000000000000007
 31
0.0
  0
LINE
  5
52
  8
0
 10
32.5
 20
40.99999999999995
 30
0.0
 11
31.5
 21
39.99999999999995
 31
0.0
  0
LINE
  5
53
  8
0
 10
31.5
 20
55.99999999999995
 30
0.0
 11
32.5
 21
54.99999999999995
 31
0.0
  0
LINE
  5
54
  8
0
 10
8.5
 20
56.000000000000007
 30
0.0
 11
7.5
 21
55.000000000000007
 31
0.0
  0
LINE
  5
55
  8
0
 10
22.0
 20
45.000000000000007
 30
0.0
 11
14.395233812949639
 21
45.000000000000007
 31
0.0
  0
LINE
  5
56
  8
0
 10
14.5
 20
45.000000000000007
 30
0.0
 11
14.5
 21
40.000000000000007
 31
0.0
  0
LINE
  5
57
  8
0
 10
25.5
 20
44.99999999999995
 30
0.0
 11
25.5
 21
39.999999999999957
 31
0.0
  0
LINE
  5
58
  8
0
 10
20.0
 20
45.000000000000007
 30
0.0
 11
25.5
 21
44.99999999999995
 31
0.0
  0
LINE
  5
59
  8
1
 10
20.0
 20
34.999999999999957
 30
0.0
 11
20.0
 21
60.999999999999957
 31
0.0
  0
LINE
  5
5A
  8
0
 10
8.5
 20
40.000000000000007
 30
0.0
 11
31.5
 21
39.99999999999995
 31
0.0
  0
LINE
  5
5B
  8
0
 10
7.5
 20
55.000000000000007
 30
0.0
 11
7.5
 21
41.000000000000007
 31
0.0
  0
LINE
  5
5C
  8
0
 10
31.5
 20
55.99999999999995
 30
0.0
 11
8.5
 21
56.000000000000007
 31
0.0
  0
LINE
  5
5D
  8
0
 10
32.5
 20
40.99999999999995
 30
0.0
 11
32.5
 21
54.99999999999995
 31
0.0
  0
LINE
  5
5E
  8
0
 10
47.0
 20
77.500000000000057
 30
0.0
 11
136.3397459621556
 21
77.500000000000057
 31
0.0
  0
LINE
  5
5F
  8
0
 10
145.0
 20
82.500000000000057
 30
0.0
 11
145.0
 21
97.500000000000028
 31
0.0
  0
LINE
  5
60
  8
0
 10
136.33974596215549
 20
102.5
 30
0.0
 11
47.0
 21
102.5
 31
0.0
  0
LINE
  5
61
  8
0
 10
45.0
 20
100.5
 30
0.0
 11
45.0
 21
79.500000000000057
 31
0.0
  0
LINE
  5
62
  8
1
 10
55.0
 20
81.020833333333385
 30
0.0
 11
55.0
 21
98.956235011990472
 31
0.0
  0
LINE
  5
63
  8
1
 10
90.0
 20
81.020833333333385
 30
0.0
 11
90.0
 21
98.956235011990472
 31
0.0
  0
LINE
  5
64
  8
1
 10
130.0
 20
81.020833333333385
 30
0.0
 11
130.0
 21
98.956235011990472
 31
0.0
  0
LINE
  5
65
  8
0
 10
90.0
 20
84.500000000000057
 30
0.0
 11
130.0
 21
84.500000000000057
 31
0.0
  0
LINE
  5
66
  8
0
 10
90.0
 20
95.500000000000014
 30
0.0
 11
130.0
 21
95.500000000000014
 31
0.0
  0
CIRCLE
  5
67
  8
3
 10
55.0
 20
90.000000000000028
 30
0.0
 40
5.0
  0
ARC
  5
68
  8
0
 10
90.0
 20
90.000000000000028
 30
0.0
 40
5.5
 50
90.0
 51
270.0
  0
ARC
  5
69
  8
0
 10
130.0
 20
90.000000000000028
 30
0.0
 40
5.5
 50
270.0
 51
90.0
  0
LINE
  5
6A
  8
0
 10
145.0
 20
82.500000000000057
 30
0.0
 11
136.3397459621556
 21
77.500000000000057
 31
0.0
  0
LINE
  5
6B
  8
0
 10
145.0
 20
97.500000000000028
 30
0.0
 11
136.33974596215549
 21
102.5
 31
0.0
  0
LINE
  5
6C
  8
0
 10
47.0
 20
102.5
 30
0.0
 11
45.0
 21
100.5
 31
0.0
  0
LINE
  5
6D
  8
0
 10
45.0
 20
79.500000000000057
 30
0.0
 11
47.0
 21
77.500000000000057
 31
0.0
  0
LINE
  5
6E
  8
2
 10
90.0
 20
84.500000000000057
 30
0.0
 11
45.0
 21
84.500000000000057
 31
0.0
  0
LINE
  5
6F
  8
2
 10
90.0
 20
95.500000000000014
 30
0.0
 11
45.0
 21
95.500000000000014
 31
0.0
  0
LINE
  5
70
  8
0
 10
140.07030661266521
 20
100.5
 30
0.0
 11
140.07030661266521
 21
79.500000000000057
 31
0.0
  0
LINE
  5
71
  8
1
 10
35.0
 20
90.000000000000028
 30
0.0
 11
155.0
 21
90.000000000000028
 31
0.0
  0
CIRCLE
  5
72
  8
0
 10
55.0
 20
90.000000000000028
 30
0.0
 40
4.1879999999999988
  0
LINE
  5
73
  8
0
 10
136.44586282408949
 20
56.057553956834482
 30
0.0
 11
136.44586282408949
 21
40.000599520383638
 31
0.0
  0
LINE
  5
74
  8
2
 10
60.0
 20
44.999999999999972
 30
0.0
 11
60.0
 21
55.999999999999972
 31
0.0
  0
LINE
  5
75
  8
2
 10
59.188000000000009
 20
44.999999999999972
 30
0.0
 11
59.188000000000009
 21
55.999999999999972
 31
0.0
  0
LINE
  5
76
  8
2
 10
50.812000000000012
 20
44.999999999999972
 30
0.0
 11
50.812000000000012
 21
55.999999999999972
 31
0.0
  0
LINE
  5
77
  8
2
 10
50.0
 20
44.999999999999972
 30
0.0
 11
50.0
 21
55.999999999999972
 31
0.0
  0
LINE
  5
78
  8
2
 10
46.0
 20
44.999999999999972
 30
0.0
 11
90.0
 21
44.999999999999972
 31
0.0
  0
LINE
  5
79
  8
0
 10
144.0
 20
39.999999999999972
 30
0.0
 11
145.0
 21
40.999999999999957
 31
0.0
  0
LINE
  5
7A
  8
0
 10
45.0
 20
40.999999999999957
 30
0.0
 11
46.0
 21
39.999999999999972
 31
0.0
  0
LINE
  5
7B
  8
0
 10
46.0
 20
55.999999999999972
 30
0.0
 11
45.0
 21
54.999999999999972
 31
0.0
  0
LINE
  5
7C
  8
0
 10
145.0
 20
52.999999999999972
 30
0.0
 11
139.80384757729331
 21
55.999999999999972
 31
0.0
  0
LINE
  5
7D
  8
2
 10
135.5
 20
39.999999999999972
 30
0.0
 11
135.5
 21
55.999999999999972
 31
0.0
  0
LINE
  5
7E
  8
2
 10
84.500000000000014
 20
44.999999999999972
 30
0.0
 11
84.500000000000014
 21
55.999999999999972
 31
0.0
  0
LINE
  5
7F
  8
1
 10
130.0
 20
34.99999999999995
 30
0.0
 11
130.0
 21
60.999999999999943
 31
0.0
  0
LINE
  5
80
  8
1
 10
90.0
 20
34.99999999999995
 30
0.0
 11
89.999999999999986
 21
60.999999999999943
 31
0.0
  0
LINE
  5
81
  8
1
 10
55.0
 20
34.99999999999995
 30
0.0
 11
55.0
 21
60.999999999999943
 31
0.0
  0
LINE
  5
82
  8
0
 10
45.0
 20
54.999999999999972
 30
0.0
 11
45.0
 21
40.999999999999957
 31
0.0
  0
LINE
  5
83
  8
0
 10
139.80384757729331
 20
55.999999999999972
 30
0.0
 11
46.0
 21
55.999999999999972
 31
0.0
  0
LINE
  5
84
  8
0
 10
145.0
 20
40.999999999999957
 30
0.0
 11
145.0
 21
52.999999999999972
 31
0.0
  0
LINE
  5
85
  8
0
 10
46.0
 20
39.999999999999972
 30
0.0
 11
144.0
 21
39.999999999999972
 31
0.0
  0
TEXT
  5
1A9
  8
0
 62
     3
 10
0.0
 20
0.0
 30
0.0
 40
10.0
  1
BJ153-10100
  7
STANDARD1
  0
ENDSEC
  0
EOF
