  0
SECTION
  2
HEADER
  9
$ACADVER
  1
AC1009
  9
$INSBASE
 10
82.638099999999994
 20
103.82319099999999
 30
0.0
  9
$EXTMIN
 10
0.0
 20
-2.960436562073669
 30
0.0
  9
$EXTMAX
 10
287.5
 20
221.0
 30
0.0
  9
$LIMMIN
 10
0.0
 20
0.0
  9
$LIMMAX
 10
375.0
 20
270.0
  9
$ORTHOMODE
 70
     1
  9
$REGENMODE
 70
     1
  9
$FILLMODE
 70
     1
  9
$QTEXTMODE
 70
     0
  9
$MIRRTEXT
 70
     0
  9
$DRAGMODE
 70
     2
  9
$LTSCALE
 40
10.0
  9
$OSMODE
 70
  3071
  9
$ATTMODE
 70
     1
  9
$TEXTSIZE
 40
0.06
  9
$TRACEWID
 40
0.05
  9
$TEXTSTYLE
  7
STANDARD
  9
$CLAYER
  8
0
  9
$CELTYPE
  6
BYLAYER
  9
$CECOLOR
 62
   256
  9
$DIMSCALE
 40
1.0
  9
$DIMASZ
 40
3.0
  9
$DIMEXO
 40
2.0
  9
$DIMDLI
 40
10.0
  9
$DIMRND
 40
0.0
  9
$DIMDLE
 40
0.0
  9
$DIMEXE
 40
2.0
  9
$DIMTP
 40
0.0
  9
$DIMTM
 40
0.0
  9
$DIMTXT
 40
3.0
  9
$DIMCEN
 40
0.0
  9
$DIMTSZ
 40
0.0
  9
$DIMTOL
 70
     0
  9
$DIMLIM
 70
     0
  9
$DIMTIH
 70
     0
  9
$DIMTOH
 70
     0
  9
$DIMSE1
 70
     0
  9
$DIMSE2
 70
     0
  9
$DIMTAD
 70
     1
  9
$DIMZIN
 70
     0
  9
$DIMBLK
  1

  9
$DIMASO
 70
     0
  9
$DIMSHO
 70
     0
  9
$DIMPOST
  1

  9
$DIMAPOST
  1

  9
$DIMALT
 70
     0
  9
$DIMALTD
 70
     2
  9
$DIMALTF
 40
25.399999999999999
  9
$DIMLFAC
 40
1.0
  9
$DIMTOFL
 70
     1
  9
$DIMTVP
 40
1.6000000000000001
  9
$DIMTIX
 70
     1
  9
$DIMSOXD
 70
     0
  9
$DIMSAH
 70
     0
  9
$DIMBLK1
  1

  9
$DIMBLK2
  1

  9
$DIMSTYLE
  2
STANDARD
  9
$DIMCLRD
 70
     0
  9
$DIMCLRE
 70
     0
  9
$DIMCLRT
 70
     0
  9
$DIMTFAC
 40
1.0
  9
$DIMGAP
 40
0.09
  9
$LUNITS
 70
     2
  9
$LUPREC
 70
     4
  9
$SKETCHINC
 40
0.1
  9
$FILLETRAD
 40
0.0
  9
$AUNITS
 70
     0
  9
$AUPREC
 70
     4
  9
$MENU
  1
E:\r13\win\SUPPORT\ACAD
  9
$ELEVATION
 40
0.0
  9
$PELEVATION
 40
0.0
  9
$THICKNESS
 40
0.0
  9
$LIMCHECK
 70
     0
  9
$BLIPMODE
 70
     0
  9
$CHAMFERA
 40
0.0
  9
$CHAMFERB
 40
0.0
  9
$SKPOLY
 70
     0
  9
$TDCREATE
 40
2449840.3458796302
  9
$TDUPDATE
 40
2456597.6353415619
  9
$TDINDWG
 40
0.0035952083
  9
$TDUSRTIMER
 40
0.0035952083
  9
$USRTIMER
 70
     1
  9
$ANGBASE
 50
0.0
  9
$ANGDIR
 70
     0
  9
$PDMODE
 70
     1
  9
$PDSIZE
 40
0.0
  9
$PLINEWID
 40
0.0
  9
$COORDS
 70
     1
  9
$SPLFRAME
 70
     0
  9
$SPLINETYPE
 70
     6
  9
$SPLINESEGS
 70
     8
  9
$ATTDIA
 70
     0
  9
$ATTREQ
 70
     1
  9
$HANDLING
 70
     1
  9
$HANDSEED
  5
78C
  9
$SURFTAB1
 70
     6
  9
$SURFTAB2
 70
     6
  9
$SURFTYPE
 70
     6
  9
$SURFU
 70
     6
  9
$SURFV
 70
     6
  9
$UCSNAME
  2

  9
$UCSORG
 10
0.0
 20
0.0
 30
0.0
  9
$UCSXDIR
 10
1.0
 20
0.0
 30
0.0
  9
$UCSYDIR
 10
0.0
 20
1.0
 30
0.0
  9
$PUCSNAME
  2

  9
$PUCSORG
 10
0.0
 20
0.0
 30
0.0
  9
$PUCSXDIR
 10
1.0
 20
0.0
 30
0.0
  9
$PUCSYDIR
 10
0.0
 20
1.0
 30
0.0
  9
$USERI1
 70
     3
  9
$USERI2
 70
     1
  9
$USERI3
 70
     0
  9
$USERI4
 70
     0
  9
$USERI5
 70
     0
  9
$USERR1
 40
1.0
  9
$USERR2
 40
3.0
  9
$USERR3
 40
3.0
  9
$USERR4
 40
3.0
  9
$USERR5
 40
10.0
  9
$WORLDVIEW
 70
     1
  9
$SHADEDGE
 70
     3
  9
$SHADEDIF
 70
    70
  9
$TILEMODE
 70
     1
  9
$MAXACTVP
 70
    16
  9
$PLIMCHECK
 70
     0
  9
$PEXTMIN
 10
1.0000000000000000E+020
 20
1.0000000000000000E+020
 30
1.0000000000000000E+020
  9
$PEXTMAX
 10
-1.0000000000000000E+020
 20
-1.0000000000000000E+020
 30
-1.0000000000000000E+020
  9
$PLIMMIN
 10
0.0
 20
0.0
  9
$PLIMMAX
 10
12.0
 20
9.0
  9
$UNITMODE
 70
     0
  9
$VISRETAIN
 70
     0
  9
$PLINEGEN
 70
     0
  9
$PSLTSCALE
 70
     0
  0
ENDSEC
  0
SECTION
  2
TABLES
  0
TABLE
  2
VPORT
 70
     1
  0
VPORT
  2
*ACTIVE
 70
     0
 10
0.0
 20
0.0
 11
1.0
 21
1.0
 12
195.0581083320873
 22
133.5127261426681
 13
0.0
 23
0.0
 14
5.0
 24
5.0
 15
10.0
 25
10.0
 16
0.0
 26
0.0
 36
1.0
 17
0.0
 27
0.0
 37
0.0
 40
275.42274993631997
 41
1.831871345029239
 42
50.0
 43
0.0
 44
0.0
 50
0.0
 51
0.0
 71
     0
 72
   100
 73
     1
 74
     0
 75
     0
 76
     0
 77
     0
 78
     0
  0
ENDTAB
  0
TABLE
  2
LTYPE
 70
     4
  0
LTYPE
  2
CONTINUOUS
 70
     0
  3
Solid Line
 72
    65
 73
     0
 40
0.0
  0
LTYPE
  2
CENTER
 70
     0
  3
____ _ ____ _ ____ _ ____ _ ____ _ ____ _ ____
 72
    65
 73
     4
 40
2.0
 49
1.25
 49
-0.25
 49
0.25
 49
-0.25
  0
LTYPE
  2
HIDDEN
 70
     0
  3
__ __ __ __ __ __ __ __ __ __ __ __ __ __ __ __
 72
    65
 73
     2
 40
0.375
 49
0.25
 49
-0.125
  0
LTYPE
  2
PHANTOM2
 70
     0
  3
___ _ _ ___ _ _ ___ _ _ ___ _ _
 72
    65
 73
     6
 40
1.25
 49
0.625
 49
-0.125
 49
0.125
 49
-0.125
 49
0.125
 49
-0.125
  0
ENDTAB
  0
TABLE
  2
LAYER
 70
     4
  0
LAYER
  2
0
 70
     0
 62
     7
  6
CONTINUOUS
  0
LAYER
  2
1
 70
     0
 62
     1
  6
CENTER
  0
LAYER
  2
2
 70
     0
 62
     2
  6
HIDDEN
  0
LAYER
  2
3
 70
     0
 62
     3
  6
CONTINUOUS
  0
ENDTAB
  0
TABLE
  2
STYLE
 70
     2
  0
STYLE
  2
STANDARD
 70
     0
 40
0.0
 41
1.0
 50
0.0
 71
     0
 42
0.06
  3
TXT
  4
BIGFONT
  0
STYLE
  2
STANDARD1
 70
     0
 40
0.0
 41
1.0
 50
0.0
 71
     0
 42
3.0
  3
txt
  4

  0
ENDTAB
  0
TABLE
  2
VIEW
 70
     0
  0
ENDTAB
  0
TABLE
  2
UCS
 70
     0
  0
ENDTAB
  0
TABLE
  2
APPID
 70
     4
  0
APPID
  2
ACAD
 70
     0
  0
APPID
  2
ACAD_MLEADERVER
 70
     0
  0
APPID
  2
ACAD_EXEMPT_FROM_CAD_STANDARDS
 70
     0
  0
APPID
  2
ACAD_NAV_VCDISPLAY
 70
     0
  0
ENDTAB
  0
TABLE
  2
DIMSTYLE
 70
     1
  0
DIMSTYLE
  2
STANDARD
 70
     0
  3

  4

  5

  6

  7

 40
1.0
 41
0.18
 42
0.0625
 43
0.38
 44
0.18
 45
0.0
 46
0.0
 47
0.0
 48
0.0
140
0.18
141
0.09
142
0.0
143
25.399999999999999
144
1.0
145
0.0
146
1.0
147
0.09
 71
     0
 72
     0
 73
     1
 74
     1
 75
     0
 76
     0
 77
     0
 78
     0
170
     0
171
     2
172
     0
173
     0
174
     0
175
     0
176
     0
177
     0
178
     0
  0
ENDTAB
  0
ENDSEC
  0
SECTION
  2
BLOCKS
  0
BLOCK
  8
0
  2
$MODEL_SPACE
 70
     0
 10
0.0
 20
0.0
 30
0.0
  3
$MODEL_SPACE
  1

  0
ENDBLK
  5
23A
  8
0
  0
BLOCK
 67
     1
  8
0
  2
$PAPER_SPACE
 70
     0
 10
0.0
 20
0.0
 30
0.0
  3
$PAPER_SPACE
  1

  0
ENDBLK
  5
238
 67
     1
  8
0
  0
ENDSEC
  0
SECTION
  2
ENTITIES
  0
CIRCLE
  5
445
  8
0
 10
180.0
 20
205.0
 30
0.0
 40
4.25
  0
CIRCLE
  5
446
  8
3
 10
180.0
 20
205.0
 30
0.0
 40
5.0
  0
LINE
  5
447
  8
0
 10
189.53793899999999
 20
204.520196
 30
0.0
 11
185.18449199999989
 21
196.979804
 31
0.0
  0
ARC
  5
448
  8
0
 10
180.0
 20
205.0
 30
0.0
 40
9.5500000000000007
 50
357.12017299999968
 51
2.879827000000224
  0
ARC
  5
449
  8
0
 10
180.0
 20
205.0
 30
0.0
 40
9.5500000000000007
 50
57.12017300000079
 51
62.879826999999629
  0
LINE
  5
44A
  8
0
 10
185.18449199999989
 20
213.020196
 30
0.0
 11
189.53793899999999
 21
205.479804
 31
0.0
  0
ARC
  5
44B
  8
0
 10
180.0
 20
205.0
 30
0.0
 40
9.5500000000000007
 50
117.12017300000031
 51
122.8798269999992
  0
LINE
  5
44C
  8
0
 10
175.64655300000001
 20
213.5
 30
0.0
 11
184.3534469999999
 21
213.5
 31
0.0
  0
ARC
  5
44D
  8
0
 10
180.0
 20
205.0
 30
0.0
 40
9.5500000000000007
 50
177.12017299999971
 51
182.8798270000002
  0
LINE
  5
44E
  8
0
 10
170.46206100000001
 20
205.479804
 30
0.0
 11
174.81550799999999
 21
213.020196
 31
0.0
  0
ARC
  5
44F
  8
0
 10
180.0
 20
205.0
 30
0.0
 40
9.5500000000000007
 50
237.12017300000079
 51
242.87982699999969
  0
LINE
  5
450
  8
0
 10
174.81550799999999
 20
196.979804
 30
0.0
 11
170.46206100000001
 21
204.520196
 31
0.0
  0
ARC
  5
451
  8
0
 10
180.0
 20
205.0
 30
0.0
 40
9.5500000000000007
 50
297.12017300000042
 51
302.87982699999918
  0
LINE
  5
452
  8
0
 10
184.3534469999999
 20
196.5
 30
0.0
 11
175.64655300000001
 21
196.5
 31
0.0
  0
CIRCLE
  5
453
  8
0
 10
180.0
 20
205.0
 30
0.0
 40
8.0
  0
CIRCLE
  5
454
  8
0
 10
180.0
 20
205.0
 30
0.0
 40
11.0
  0
LINE
  5
455
  8
1
 10
180.0
 20
221.0
 30
0.0
 11
180.0
 21
189.0
 31
0.0
  0
LINE
  5
456
  8
0
 10
169.0
 20
130.0
 30
0.0
 11
169.5
 21
130.5
 31
0.0
  0
LINE
  5
457
  8
0
 10
169.5
 20
127.0
 30
0.0
 11
169.0
 21
127.5
 31
0.0
  0
LINE
  5
458
  8
0
 10
191.0
 20
130.0
 30
0.0
 11
190.5
 21
130.5
 31
0.0
  0
LINE
  5
459
  8
0
 10
190.5
 20
127.0
 30
0.0
 11
191.0
 21
127.5
 31
0.0
  0
LINE
  5
45A
  8
0
 10
169.0
 20
127.5
 30
0.0
 11
169.0
 21
130.0
 31
0.0
  0
LINE
  5
45B
  8
0
 10
190.5
 20
127.0
 30
0.0
 11
169.5
 21
127.0
 31
0.0
  0
LINE
  5
45C
  8
0
 10
191.0
 20
130.0
 30
0.0
 11
191.0
 21
127.5
 31
0.0
  0
LINE
  5
45D
  8
0
 10
169.5
 20
130.5
 30
0.0
 11
190.5
 21
130.5
 31
0.0
  0
LINE
  5
45E
  8
0
 10
191.0
 20
132.528246
 30
0.0
 11
191.0
 21
130.928246
 31
0.0
  0
LINE
  5
45F
  8
0
 10
184.77499999999989
 20
143.133353
 30
0.0
 11
184.77499999999989
 21
133.028246
 31
0.0
  0
ARC
  5
460
  8
0
 10
180.0
 20
130.84149600000001
 30
0.0
 40
13.18675
 50
68.770416999998034
 51
90.0
  0
ARC
  5
461
  8
0
 10
187.16249999999999
 20
140.403246
 30
0.0
 40
3.6267949999999991
 50
71.169949999999602
 51
131.1699499999996
  0
ARC
  5
462
  8
0
 10
180.0
 20
153.37818999999999
 30
0.0
 40
25.0
 50
243.89611899999761
 51
246.2238544403458
  0
ARC
  5
463
  8
0
 10
180.0
 20
153.37818999999999
 30
0.0
 40
25.0
 50
293.7761455596542
 51
296.10388100000239
  0
LINE
  5
464
  8
0
 10
191.0
 20
130.928246
 30
0.0
 11
169.0
 21
130.928246
 31
0.0
  0
LINE
  5
465
  8
0
 10
189.55000000000001
 20
143.133353
 30
0.0
 11
189.55000000000001
 21
133.428246
 31
0.0
  0
LINE
  5
466
  8
0
 10
189.55000000000001
 20
143.133353
 30
0.0
 11
188.0
 21
144.028246
 31
0.0
  0
LINE
  5
467
  8
0
 10
170.44999999999999
 20
143.133353
 30
0.0
 11
172.0
 21
144.028246
 31
0.0
  0
ARC
  5
468
  8
0
 10
172.83749999999989
 20
140.403246
 30
0.0
 40
3.6267949999999991
 50
48.830050000000362
 51
108.8300500000004
  0
ARC
  5
469
  8
0
 10
172.83749999999989
 20
140.403246
 30
0.0
 40
3.6267949999999991
 50
131.1699499999996
 51
131.1699499999996
  0
ARC
  5
46A
  8
0
 10
180.0
 20
130.84149600000001
 30
0.0
 40
13.18675
 50
90.0
 51
111.2295830000019
  0
LINE
  5
46B
  8
0
 10
188.0
 20
144.028246
 30
0.0
 11
172.0
 21
144.028246
 31
0.0
  0
LINE
  5
46C
  8
0
 10
175.22499999999999
 20
143.133353
 30
0.0
 11
175.22499999999999
 21
133.028246
 31
0.0
  0
LINE
  5
46D
  8
0
 10
170.44999999999999
 20
143.133353
 30
0.0
 11
170.44999999999999
 21
133.466465
 31
0.0
  0
ARC
  5
46E
  8
0
 10
189.94999999999999
 20
133.428246
 30
0.0
 40
0.4
 50
180.0
 51
270.0
  0
LINE
  5
46F
  8
0
 10
190.5
 20
133.028246
 30
0.0
 11
191.0
 21
132.528246
 31
0.0
  0
ARC
  5
470
  8
0
 10
170.05000000000001
 20
133.428246
 30
0.0
 40
0.4
 50
270.0
 51
0.0
  0
LINE
  5
471
  8
0
 10
169.0
 20
132.528246
 30
0.0
 11
169.0
 21
130.928246
 31
0.0
  0
LINE
  5
472
  8
0
 10
169.5
 20
133.028246
 30
0.0
 11
169.0
 21
132.528246
 31
0.0
  0
LINE
  5
473
  8
0
 10
169.5
 20
133.028246
 30
0.0
 11
190.5
 21
133.028246
 31
0.0
  0
LINE
  5
474
  8
1
 10
180.0
 20
177.0
 30
0.0
 11
180.0
 21
65.0
 31
0.0
  0
LINE
  5
475
  8
0
 10
175.0
 20
168.5
 30
0.0
 11
185.0
 21
168.5
 31
0.0
  0
LINE
  5
476
  8
3
 10
175.75
 20
144.028246
 30
0.0
 11
175.75
 21
169.25
 31
0.0
  0
LINE
  5
477
  8
3
 10
184.25
 20
144.028246
 30
0.0
 11
184.25
 21
169.25
 31
0.0
  0
LINE
  5
478
  8
3
 10
184.25
 20
110.0
 30
0.0
 11
185.0
 21
111.299038
 31
0.0
  0
LINE
  5
479
  8
3
 10
184.25
 20
110.0
 30
0.0
 11
184.25
 21
96.0
 31
0.0
  0
LINE
  5
47A
  8
3
 10
184.25
 20
90.0
 30
0.0
 11
184.25
 21
70.75
 31
0.0
  0
LINE
  5
47B
  8
3
 10
175.75
 20
110.0
 30
0.0
 11
175.0
 21
111.299038
 31
0.0
  0
LINE
  5
47C
  8
0
 10
175.0
 20
71.5
 30
0.0
 11
185.0
 21
71.5
 31
0.0
  0
LINE
  5
47D
  8
3
 10
175.75
 20
110.0
 30
0.0
 11
175.75
 21
96.0
 31
0.0
  0
LINE
  5
47E
  8
3
 10
175.75
 20
90.0
 30
0.0
 11
175.75
 21
70.75
 31
0.0
  0
LINE
  5
47F
  8
0
 10
185.0
 20
110.0
 30
0.0
 11
175.0
 21
110.0
 31
0.0
  0
LINE
  5
480
  8
0
 10
183.5
 20
170.0
 30
0.0
 11
185.0
 21
168.5
 31
0.0
  0
LINE
  5
481
  8
0
 10
175.0
 20
168.5
 30
0.0
 11
176.5
 21
170.0
 31
0.0
  0
LINE
  5
482
  8
0
 10
176.5
 20
70.0
 30
0.0
 11
175.0
 21
71.5
 31
0.0
  0
LINE
  5
483
  8
0
 10
183.5
 20
70.0
 30
0.0
 11
185.0
 21
71.5
 31
0.0
  0
LINE
  5
484
  8
0
 10
185.0
 20
168.5
 30
0.0
 11
185.0
 21
144.028246
 31
0.0
  0
LINE
  5
485
  8
0
 10
185.0
 20
115.0
 30
0.0
 11
185.0
 21
96.0
 31
0.0
  0
LINE
  5
486
  8
0
 10
185.0
 20
90.0
 30
0.0
 11
185.0
 21
71.5
 31
0.0
  0
LINE
  5
487
  8
0
 10
176.5
 20
170.0
 30
0.0
 11
183.5
 21
170.0
 31
0.0
  0
LINE
  5
488
  8
0
 10
175.0
 20
71.5
 30
0.0
 11
175.0
 21
90.0
 31
0.0
  0
LINE
  5
489
  8
0
 10
175.0
 20
96.0
 30
0.0
 11
175.0
 21
115.0
 31
0.0
  0
LINE
  5
48A
  8
0
 10
175.0
 20
144.028246
 30
0.0
 11
175.0
 21
168.5
 31
0.0
  0
LINE
  5
48B
  8
0
 10
183.5
 20
70.0
 30
0.0
 11
176.5
 21
70.0
 31
0.0
  0
LINE
  5
48C
  8
0
 10
188.25
 20
90.0
 30
0.0
 11
171.75
 21
90.0
 31
0.0
  0
LINE
  5
48D
  8
0
 10
171.75
 20
96.0
 30
0.0
 11
188.25
 21
96.0
 31
0.0
  0
ARC
  5
48E
  8
0
 10
187.36121600000001
 20
91.510763999999995
 30
0.0
 40
4.344898999999999
 50
64.384247000000045
 51
124.3842470000003
  0
LINE
  5
48F
  8
0
 10
189.814955
 20
95.096473000000003
 30
0.0
 11
188.25
 21
96.0
 31
0.0
  0
LINE
  5
490
  8
0
 10
189.814955
 20
90.903526999999997
 30
0.0
 11
188.25
 21
90.0
 31
0.0
  0
ARC
  5
491
  8
0
 10
187.36121600000001
 20
94.489236000000005
 30
0.0
 40
4.344898999999999
 50
235.6157529999997
 51
295.61575299999998
  0
LINE
  5
492
  8
0
 10
189.814955
 20
95.096473000000003
 30
0.0
 11
189.814955
 21
90.903526999999997
 31
0.0
  0
LINE
  5
493
  8
0
 10
184.90747699999989
 20
95.096473000000003
 30
0.0
 11
184.90747699999989
 21
90.903526999999997
 31
0.0
  0
LINE
  5
494
  8
0
 10
175.092523
 20
95.096473000000003
 30
0.0
 11
175.092523
 21
90.903526999999997
 31
0.0
  0
LINE
  5
495
  8
0
 10
170.185045
 20
95.096473000000003
 30
0.0
 11
170.185045
 21
90.903526999999997
 31
0.0
  0
ARC
  5
496
  8
0
 10
180.0
 20
106.385148
 30
0.0
 40
16.24081099999999
 50
252.412046000001
 51
287.58795399999912
  0
ARC
  5
497
  8
0
 10
172.63878399999999
 20
94.489236000000005
 30
0.0
 40
4.344898999999999
 50
244.38424699999999
 51
304.3842470000003
  0
LINE
  5
498
  8
0
 10
170.185045
 20
90.903526999999997
 30
0.0
 11
171.75
 21
90.0
 31
0.0
  0
LINE
  5
499
  8
0
 10
170.185045
 20
95.096473000000003
 30
0.0
 11
171.75
 21
96.0
 31
0.0
  0
ARC
  5
49A
  8
0
 10
180.0
 20
79.614851999999999
 30
0.0
 40
16.24081099999999
 50
72.41204600000097
 51
107.587953999999
  0
ARC
  5
49B
  8
0
 10
172.63878399999999
 20
91.510763999999995
 30
0.0
 40
4.344898999999999
 50
55.615752999999721
 51
115.6157529999999
  0
LINE
  5
49C
  8
0
 10
210.0
 20
118.5
 30
0.0
 11
210.0
 21
115.40000000000001
 31
0.0
  0
LINE
  5
49D
  8
0
 10
214.5
 20
114.42265
 30
0.0
 11
214.5
 21
107.57735
 31
0.0
  0
LINE
  5
49E
  8
0
 10
213.925455
 20
114.42265
 30
0.0
 11
213.925455
 21
107.57735
 31
0.0
  0
LINE
  5
49F
  8
0
 10
209.50957399999999
 20
114.42265
 30
0.0
 11
209.50957399999999
 21
107.57735
 31
0.0
  0
LINE
  5
4A0
  8
0
 10
208.122499
 20
114.42265
 30
0.0
 11
208.122499
 21
107.57735
 31
0.0
  0
LINE
  5
4A1
  8
0
 10
213.5
 20
115.0
 30
0.0
 11
214.5
 21
114.42265
 31
0.0
  0
LINE
  5
4A2
  8
0
 10
214.5
 20
114.42265
 30
0.0
 11
213.925455
 21
114.42265
 31
0.0
  0
LINE
  5
4A3
  8
0
 10
209.50957399999999
 20
114.42265
 30
0.0
 11
208.122499
 21
114.42265
 31
0.0
  0
LINE
  5
4A4
  8
0
 10
201.877501
 20
114.42265
 30
0.0
 11
201.877501
 21
107.57735
 31
0.0
  0
LINE
  5
4A5
  8
0
 10
209.50957399999999
 20
107.57735
 30
0.0
 11
208.122499
 21
107.57735
 31
0.0
  0
LINE
  5
4A6
  8
0
 10
214.5
 20
107.57735
 30
0.0
 11
213.925455
 21
107.57735
 31
0.0
  0
LINE
  5
4A7
  8
0
 10
213.5
 20
107.0
 30
0.0
 11
214.5
 21
107.57735
 31
0.0
  0
LINE
  5
4A8
  8
0
 10
195.5
 20
107.57735
 30
0.0
 11
196.074545
 21
107.57735
 31
0.0
  0
LINE
  5
4A9
  8
0
 10
200.49042600000001
 20
107.57735
 30
0.0
 11
201.877501
 21
107.57735
 31
0.0
  0
LINE
  5
4AA
  8
0
 10
200.49042600000001
 20
114.42265
 30
0.0
 11
201.877501
 21
114.42265
 31
0.0
  0
LINE
  5
4AB
  8
0
 10
195.5
 20
114.42265
 30
0.0
 11
196.074545
 21
114.42265
 31
0.0
  0
LINE
  5
4AC
  8
0
 10
201.877501
 20
114.42265
 30
0.0
 11
201.877501
 21
107.57735
 31
0.0
  0
LINE
  5
4AD
  8
0
 10
200.49042600000001
 20
114.42265
 30
0.0
 11
200.49042600000001
 21
107.57735
 31
0.0
  0
LINE
  5
4AE
  8
0
 10
196.074545
 20
114.42265
 30
0.0
 11
196.074545
 21
107.57735
 31
0.0
  0
LINE
  5
4AF
  8
0
 10
195.5
 20
114.42265
 30
0.0
 11
195.5
 21
107.57735
 31
0.0
  0
LINE
  5
4B0
  8
0
 10
213.5
 20
115.0
 30
0.0
 11
196.5
 21
115.0
 31
0.0
  0
LINE
  5
4B1
  8
0
 10
200.0
 20
106.59999999999999
 30
0.0
 11
200.0
 21
96.0
 31
0.0
  0
LINE
  5
4B2
  8
0
 10
200.0
 20
90.0
 30
0.0
 11
200.0
 21
61.5
 31
0.0
  0
LINE
  5
4B3
  8
3
 10
200.81200000000001
 20
105.193575
 30
0.0
 11
200.81200000000001
 21
96.0
 31
0.0
  0
LINE
  5
4B4
  8
3
 10
200.81200000000001
 20
90.0
 30
0.0
 11
200.81200000000001
 21
60.688000000000002
 31
0.0
  0
LINE
  5
4B5
  8
3
 10
209.18799999999999
 20
105.193575
 30
0.0
 11
209.18799999999999
 21
96.0
 31
0.0
  0
LINE
  5
4B6
  8
3
 10
209.18799999999999
 20
90.0
 30
0.0
 11
209.18799999999999
 21
60.688000000000002
 31
0.0
  0
LINE
  5
4B7
  8
0
 10
210.0
 20
106.59999999999999
 30
0.0
 11
210.0
 21
96.0
 31
0.0
  0
LINE
  5
4B8
  8
0
 10
210.0
 20
90.0
 30
0.0
 11
210.0
 21
61.5
 31
0.0
  0
LINE
  5
4B9
  8
0
 10
210.0
 20
105.193575
 30
0.0
 11
200.0
 21
105.193575
 31
0.0
  0
LINE
  5
4BA
  8
3
 10
209.18799999999999
 20
105.193575
 30
0.0
 11
210.0
 21
106.59999999999999
 31
0.0
  0
LINE
  5
4BB
  8
3
 10
200.81200000000001
 20
105.193575
 30
0.0
 11
200.0
 21
106.59999999999999
 31
0.0
  0
LINE
  5
4BC
  8
0
 10
196.5
 20
107.0
 30
0.0
 11
213.5
 21
107.0
 31
0.0
  0
ARC
  5
4BD
  8
0
 10
210.40000000000001
 20
106.59999999999999
 30
0.0
 40
0.4
 50
90.0
 51
180.0
  0
ARC
  5
4BE
  8
0
 10
199.59999999999999
 20
106.59999999999999
 30
0.0
 40
0.4
 50
0.0
 51
90.0
  0
LINE
  5
4BF
  8
0
 10
196.5
 20
115.0
 30
0.0
 11
195.5
 21
114.42265
 31
0.0
  0
LINE
  5
4C0
  8
0
 10
196.5
 20
107.0
 30
0.0
 11
195.5
 21
107.57735
 31
0.0
  0
ARC
  5
4C1
  8
0
 10
211.71751399999999
 20
108.52889999999999
 30
0.0
 40
6.2937500000000002
 50
69.462844000001112
 51
110.5371559999989
  0
ARC
  5
4C2
  8
0
 10
205.0
 20
102.43514999999999
 30
0.0
 40
12.387499999999999
 50
75.40004900000207
 51
104.5999509999979
  0
ARC
  5
4C3
  8
0
 10
211.71751399999999
 20
113.47110000000001
 30
0.0
 40
6.2937500000000002
 50
249.4628440000011
 51
290.5371559999989
  0
ARC
  5
4C4
  8
0
 10
205.0
 20
119.56485000000001
 30
0.0
 40
12.387499999999999
 50
255.4000490000021
 51
284.59995099999787
  0
ARC
  5
4C5
  8
0
 10
198.28248600000001
 20
113.47110000000001
 30
0.0
 40
6.2937500000000002
 50
249.4628440000011
 51
290.5371559999989
  0
ARC
  5
4C6
  8
0
 10
198.28248600000001
 20
108.52889999999999
 30
0.0
 40
6.2937500000000002
 50
69.462844000001112
 51
110.5371559999989
  0
LINE
  5
4C7
  8
1
 10
205.0
 20
124.0
 30
0.0
 11
205.0
 21
55.0
 31
0.0
  0
ARC
  5
4C8
  8
0
 10
210.40000000000001
 20
115.40000000000001
 30
0.0
 40
0.4
 50
180.0
 51
270.0
  0
LINE
  5
4C9
  8
0
 10
208.5
 20
60.0
 30
0.0
 11
201.5
 21
60.0
 31
0.0
  0
LINE
  5
4CA
  8
0
 10
210.0
 20
61.5
 30
0.0
 11
208.5
 21
60.0
 31
0.0
  0
LINE
  5
4CB
  8
0
 10
201.5
 20
60.0
 30
0.0
 11
200.0
 21
61.5
 31
0.0
  0
LINE
  5
4CC
  8
0
 10
210.0
 20
61.5
 30
0.0
 11
200.0
 21
61.5
 31
0.0
  0
LINE
  5
4CD
  8
0
 10
213.25
 20
90.0
 30
0.0
 11
196.75
 21
90.0
 31
0.0
  0
LINE
  5
4CE
  8
0
 10
196.75
 20
96.0
 30
0.0
 11
213.25
 21
96.0
 31
0.0
  0
ARC
  5
4CF
  8
0
 10
212.36121600000001
 20
91.510763999999995
 30
0.0
 40
4.344898999999999
 50
64.384247000000045
 51
124.3842470000003
  0
LINE
  5
4D0
  8
0
 10
214.814955
 20
95.096473000000003
 30
0.0
 11
213.25
 21
96.0
 31
0.0
  0
LINE
  5
4D1
  8
0
 10
214.814955
 20
90.903526999999997
 30
0.0
 11
213.25
 21
90.0
 31
0.0
  0
ARC
  5
4D2
  8
0
 10
212.36121600000001
 20
94.489236000000005
 30
0.0
 40
4.344898999999999
 50
235.6157529999997
 51
295.61575299999998
  0
LINE
  5
4D3
  8
0
 10
214.814955
 20
95.096473000000003
 30
0.0
 11
214.814955
 21
90.903526999999997
 31
0.0
  0
LINE
  5
4D4
  8
0
 10
209.907477
 20
95.096473000000003
 30
0.0
 11
209.907477
 21
90.903526999999997
 31
0.0
  0
LINE
  5
4D5
  8
0
 10
200.092523
 20
95.096473000000003
 30
0.0
 11
200.092523
 21
90.903526999999997
 31
0.0
  0
LINE
  5
4D6
  8
0
 10
195.185045
 20
95.096473000000003
 30
0.0
 11
195.185045
 21
90.903526999999997
 31
0.0
  0
ARC
  5
4D7
  8
0
 10
205.0
 20
106.385148
 30
0.0
 40
16.24081099999999
 50
252.412046000001
 51
287.58795399999912
  0
ARC
  5
4D8
  8
0
 10
197.63878399999999
 20
94.489236000000005
 30
0.0
 40
4.344898999999999
 50
244.38424699999999
 51
304.3842470000003
  0
LINE
  5
4D9
  8
0
 10
195.185045
 20
90.903526999999997
 30
0.0
 11
196.75
 21
90.0
 31
0.0
  0
LINE
  5
4DA
  8
0
 10
195.185045
 20
95.096473000000003
 30
0.0
 11
196.75
 21
96.0
 31
0.0
  0
ARC
  5
4DB
  8
0
 10
205.0
 20
79.614851999999999
 30
0.0
 40
16.24081099999999
 50
72.41204600000097
 51
107.587953999999
  0
ARC
  5
4DC
  8
0
 10
197.63878399999999
 20
91.510763999999995
 30
0.0
 40
4.344898999999999
 50
55.615752999999721
 51
115.6157529999999
  0
ARC
  5
4DD
  8
0
 10
205.0
 20
205.0
 30
0.0
 40
5.0
 50
130.48230073512681
 51
229.5176992648731
  0
ARC
  5
4DE
  8
0
 10
205.0
 20
205.0
 30
0.0
 40
10.0
 50
18.19487200000059
 51
26.805128000000028
  0
LINE
  5
4DF
  8
0
 10
210.0
 20
196.56497100000001
 30
0.0
 11
213.925455
 21
200.49042600000001
 31
0.0
  0
LINE
  5
4E0
  8
0
 10
214.5
 20
201.877501
 30
0.0
 11
214.5
 21
208.122499
 31
0.0
  0
LINE
  5
4E1
  8
0
 10
213.925455
 20
209.50957399999999
 30
0.0
 11
210.0
 21
213.4350289999999
 31
0.0
  0
ARC
  5
4E2
  8
0
 10
205.0
 20
205.0
 30
0.0
 40
10.0
 50
333.19487199999998
 51
341.8051279999994
  0
LINE
  5
4E3
  8
1
 10
219.5
 20
205.0
 30
0.0
 11
190.5
 21
205.0
 31
0.0
  0
LINE
  5
4E4
  8
1
 10
205.0
 20
190.5
 30
0.0
 11
205.0
 21
219.5
 31
0.0
  0
ARC
  5
4E5
  8
0
 10
205.0
 20
205.0
 30
0.0
 40
8.5
 50
159.68076713687199
 51
200.31923286312789
  0
ARC
  5
4E6
  8
0
 10
205.0
 20
205.0
 30
0.0
 40
8.5
 50
306.03187907246911
 51
53.96812092753094
  0
ARC
  5
4E7
  8
0
 10
279.25
 20
83.580155999999988
 30
0.0
 40
12.275506999999999
 50
69.743841999999802
 51
110.2561580000002
  0
LINE
  5
4E8
  8
0
 10
283.5
 20
95.855661999999995
 30
0.0
 11
283.25
 21
96.0
 31
0.0
  0
LINE
  5
4E9
  8
0
 10
283.5
 20
90.144338000000005
 30
0.0
 11
283.25
 21
90.0
 31
0.0
  0
ARC
  5
4EA
  8
0
 10
279.25
 20
102.419844
 30
0.0
 40
12.275506999999999
 50
249.7438419999998
 51
290.2561580000002
  0
LINE
  5
4EB
  8
0
 10
283.5
 20
95.855661999999995
 30
0.0
 11
283.5
 21
90.144338000000005
 31
0.0
  0
LINE
  5
4EC
  8
0
 10
275.0
 20
95.096473000000003
 30
0.0
 11
275.0
 21
90.903526999999997
 31
0.0
  0
LINE
  5
4ED
  8
0
 10
266.5
 20
95.855661999999995
 30
0.0
 11
266.5
 21
90.144338000000005
 31
0.0
  0
LINE
  5
4EE
  8
0
 10
266.5
 20
90.144338000000005
 30
0.0
 11
266.75
 21
90.0
 31
0.0
  0
ARC
  5
4EF
  8
0
 10
270.75
 20
102.419844
 30
0.0
 40
12.275506999999999
 50
249.7438419999998
 51
290.2561580000002
  0
LINE
  5
4F0
  8
0
 10
266.5
 20
95.855661999999995
 30
0.0
 11
266.75
 21
96.0
 31
0.0
  0
ARC
  5
4F1
  8
0
 10
270.75
 20
83.580155999999988
 30
0.0
 40
12.275506999999999
 50
69.743841999999802
 51
110.2561580000002
  0
LINE
  5
4F2
  8
0
 10
283.25
 20
96.0
 30
0.0
 11
266.75
 21
96.0
 31
0.0
  0
LINE
  5
4F3
  8
0
 10
266.75
 20
90.0
 30
0.0
 11
283.25
 21
90.0
 31
0.0
  0
LINE
  5
4F4
  8
1
 10
100.0
 20
177.0
 30
0.0
 11
100.0
 21
55.0
 31
0.0
  0
LINE
  5
4F5
  8
0
 10
95.0
 20
168.5
 30
0.0
 11
105.0
 21
168.5
 31
0.0
  0
LINE
  5
4F6
  8
3
 10
95.750000000000014
 20
144.028246
 30
0.0
 11
95.750000000000014
 21
169.25
 31
0.0
  0
LINE
  5
4F7
  8
3
 10
104.25
 20
144.028246
 30
0.0
 11
104.25
 21
169.25
 31
0.0
  0
LINE
  5
4F8
  8
3
 10
104.25
 20
110.0
 30
0.0
 11
105.0
 21
111.299038
 31
0.0
  0
LINE
  5
4F9
  8
3
 10
104.25
 20
110.0
 30
0.0
 11
104.25
 21
96.0
 31
0.0
  0
LINE
  5
4FA
  8
3
 10
104.25
 20
90.0
 30
0.0
 11
104.25
 21
70.75
 31
0.0
  0
LINE
  5
4FB
  8
3
 10
95.750000000000014
 20
110.0
 30
0.0
 11
95.0
 21
111.299038
 31
0.0
  0
LINE
  5
4FC
  8
0
 10
95.0
 20
71.5
 30
0.0
 11
105.0
 21
71.5
 31
0.0
  0
LINE
  5
4FD
  8
3
 10
95.750000000000014
 20
110.0
 30
0.0
 11
95.750000000000014
 21
96.0
 31
0.0
  0
LINE
  5
4FE
  8
3
 10
95.750000000000014
 20
90.0
 30
0.0
 11
95.750000000000014
 21
70.75
 31
0.0
  0
LINE
  5
4FF
  8
0
 10
105.0
 20
110.0
 30
0.0
 11
95.0
 21
110.0
 31
0.0
  0
LINE
  5
500
  8
0
 10
103.5
 20
170.0
 30
0.0
 11
105.0
 21
168.5
 31
0.0
  0
LINE
  5
501
  8
0
 10
95.0
 20
168.5
 30
0.0
 11
96.5
 21
170.0
 31
0.0
  0
LINE
  5
502
  8
0
 10
96.5
 20
70.0
 30
0.0
 11
95.0
 21
71.5
 31
0.0
  0
LINE
  5
503
  8
0
 10
103.5
 20
70.0
 30
0.0
 11
105.0
 21
71.5
 31
0.0
  0
LINE
  5
504
  8
0
 10
105.0
 20
168.5
 30
0.0
 11
105.0
 21
144.028246
 31
0.0
  0
LINE
  5
505
  8
0
 10
105.0
 20
115.0
 30
0.0
 11
105.0
 21
96.0
 31
0.0
  0
LINE
  5
506
  8
0
 10
105.0
 20
90.0
 30
0.0
 11
105.0
 21
71.5
 31
0.0
  0
LINE
  5
507
  8
0
 10
96.5
 20
170.0
 30
0.0
 11
103.5
 21
170.0
 31
0.0
  0
LINE
  5
508
  8
0
 10
95.0
 20
71.5
 30
0.0
 11
95.0
 21
90.0
 31
0.0
  0
LINE
  5
509
  8
0
 10
95.0
 20
96.0
 30
0.0
 11
95.0
 21
115.0
 31
0.0
  0
LINE
  5
50A
  8
0
 10
95.0
 20
144.028246
 30
0.0
 11
95.0
 21
168.5
 31
0.0
  0
LINE
  5
50B
  8
0
 10
103.5
 20
70.0
 30
0.0
 11
96.5
 21
70.0
 31
0.0
  0
ARC
  5
50C
  8
0
 10
104.25
 20
83.580155999999988
 30
0.0
 40
12.275506999999999
 50
69.743841999999802
 51
110.2561580000002
  0
LINE
  5
50D
  8
0
 10
108.5
 20
95.855661999999995
 30
0.0
 11
108.25
 21
96.0
 31
0.0
  0
LINE
  5
50E
  8
0
 10
108.5
 20
90.144338000000005
 30
0.0
 11
108.25
 21
90.0
 31
0.0
  0
ARC
  5
50F
  8
0
 10
104.25
 20
102.419844
 30
0.0
 40
12.275506999999999
 50
249.7438419999998
 51
290.2561580000002
  0
LINE
  5
510
  8
0
 10
108.5
 20
95.855661999999995
 30
0.0
 11
108.5
 21
90.144338000000005
 31
0.0
  0
LINE
  5
511
  8
0
 10
100.0
 20
95.096473000000003
 30
0.0
 11
100.0
 21
90.903526999999997
 31
0.0
  0
LINE
  5
512
  8
0
 10
91.5
 20
95.855661999999995
 30
0.0
 11
91.5
 21
90.144338000000005
 31
0.0
  0
LINE
  5
513
  8
0
 10
91.5
 20
90.144338000000005
 30
0.0
 11
91.75
 21
90.0
 31
0.0
  0
ARC
  5
514
  8
0
 10
95.750000000000014
 20
102.419844
 30
0.0
 40
12.275506999999999
 50
249.7438419999998
 51
290.2561580000002
  0
LINE
  5
515
  8
0
 10
91.5
 20
95.855661999999995
 30
0.0
 11
91.75
 21
96.0
 31
0.0
  0
ARC
  5
516
  8
0
 10
95.750000000000014
 20
83.580155999999988
 30
0.0
 40
12.275506999999999
 50
69.743841999999802
 51
110.2561580000002
  0
LINE
  5
517
  8
0
 10
108.25
 20
96.0
 30
0.0
 11
91.75
 21
96.0
 31
0.0
  0
LINE
  5
518
  8
0
 10
91.75
 20
90.0
 30
0.0
 11
108.25
 21
90.0
 31
0.0
  0
LINE
  5
519
  8
0
 10
208.0
 20
192.5
 30
0.0
 11
155.66025400000001
 21
192.5
 31
0.0
  0
LINE
  5
51A
  8
0
 10
147.0
 20
197.5
 30
0.0
 11
147.0
 21
212.5
 31
0.0
  0
LINE
  5
51B
  8
0
 10
155.66025400000001
 20
217.5
 30
0.0
 11
208.0
 21
217.5
 31
0.0
  0
LINE
  5
51C
  8
0
 10
210.0
 20
215.5
 30
0.0
 11
210.0
 21
194.5
 31
0.0
  0
LINE
  5
51D
  8
1
 10
200.0
 20
196.02083300000001
 30
0.0
 11
200.0
 21
213.95623499999999
 31
0.0
  0
LINE
  5
51E
  8
1
 10
162.0
 20
196.02083300000001
 30
0.0
 11
162.0
 21
213.95623499999999
 31
0.0
  0
LINE
  5
51F
  8
0
 10
170.4737205583711
 20
199.5
 30
0.0
 11
162.0
 21
199.5
 31
0.0
  0
LINE
  5
520
  8
0
 10
170.4737205583711
 20
210.5
 30
0.0
 11
162.0
 21
210.5
 31
0.0
  0
CIRCLE
  5
521
  8
3
 10
200.0
 20
205.0
 30
0.0
 40
5.0
  0
ARC
  5
522
  8
2
 10
180.0
 20
205.0
 30
0.0
 40
5.5
 50
270.0
 51
90.0
  0
ARC
  5
523
  8
0
 10
162.0
 20
205.0
 30
0.0
 40
5.5
 50
90.0
 51
270.0
  0
LINE
  5
524
  8
0
 10
147.0
 20
197.5
 30
0.0
 11
155.66025400000001
 21
192.5
 31
0.0
  0
LINE
  5
525
  8
0
 10
147.0
 20
212.5
 30
0.0
 11
155.66025400000001
 21
217.5
 31
0.0
  0
LINE
  5
526
  8
0
 10
208.0
 20
217.5
 30
0.0
 11
210.0
 21
215.5
 31
0.0
  0
LINE
  5
527
  8
0
 10
210.0
 20
194.5
 30
0.0
 11
208.0
 21
192.5
 31
0.0
  0
LINE
  5
528
  8
2
 10
170.4737205583711
 20
199.5
 30
0.0
 11
210.0
 21
199.5
 31
0.0
  0
LINE
  5
529
  8
2
 10
170.4737205583711
 20
210.5
 30
0.0
 11
210.0
 21
210.5
 31
0.0
  0
LINE
  5
52A
  8
1
 10
215.0
 20
205.0
 30
0.0
 11
142.0
 21
205.0
 31
0.0
  0
CIRCLE
  5
52B
  8
0
 10
200.0
 20
205.0
 30
0.0
 40
4.1879999999999988
  0
LINE
  5
52C
  8
2
 10
195.0
 20
120.0
 30
0.0
 11
195.0
 21
127.0
 31
0.0
  0
LINE
  5
52D
  8
2
 10
205.0
 20
120.0
 30
0.0
 11
205.0
 21
127.0
 31
0.0
  0
LINE
  5
52E
  8
2
 10
210.0
 20
120.0
 30
0.0
 11
180.0
 21
120.0
 31
0.0
  0
LINE
  5
52F
  8
0
 10
148.0
 20
115.0
 30
0.0
 11
147.0
 21
116.0
 31
0.0
  0
LINE
  5
530
  8
0
 10
210.0
 20
116.0
 30
0.0
 11
209.0
 21
115.0
 31
0.0
  0
LINE
  5
531
  8
0
 10
209.0
 20
127.0
 30
0.0
 11
210.0
 21
126.0
 31
0.0
  0
LINE
  5
532
  8
0
 10
147.0
 20
124.0
 30
0.0
 11
155.19615200000001
 21
127.0
 31
0.0
  0
LINE
  5
533
  8
2
 10
156.5
 20
115.0
 30
0.0
 11
156.5
 21
127.0
 31
0.0
  0
LINE
  5
534
  8
2
 10
185.5
 20
120.0
 30
0.0
 11
185.5
 21
127.0
 31
0.0
  0
LINE
  5
535
  8
1
 10
162.0
 20
112.0
 30
0.0
 11
162.0
 21
130.16726600000001
 31
0.0
  0
LINE
  5
536
  8
1
 10
200.0
 20
112.0
 30
0.0
 11
200.0
 21
130.04451399999999
 31
0.0
  0
LINE
  5
537
  8
0
 10
210.0
 20
126.0
 30
0.0
 11
210.0
 21
116.0
 31
0.0
  0
LINE
  5
538
  8
0
 10
155.19615200000001
 20
127.0
 30
0.0
 11
209.0
 21
127.0
 31
0.0
  0
LINE
  5
539
  8
0
 10
147.0
 20
116.0
 30
0.0
 11
147.0
 21
124.0
 31
0.0
  0
LINE
  5
53A
  8
0
 10
209.0
 20
115.0
 30
0.0
 11
148.0
 21
115.0
 31
0.0
  0
LINE
  5
53B
  8
0
 10
155.66025400000001
 20
127.0
 30
0.0
 11
155.66025400000001
 21
115.0
 31
0.0
  0
LINE
  5
53C
  8
2
 10
204.18799999999999
 20
127.0
 30
0.0
 11
204.18799999999999
 21
120.0
 31
0.0
  0
LINE
  5
53D
  8
2
 10
195.81200000000001
 20
127.0
 30
0.0
 11
195.81200000000001
 21
120.0
 31
0.0
  0
LINE
  5
53E
  8
0
 10
287.5
 20
116.0
 30
0.0
 11
287.5
 21
126.0
 31
0.0
  0
LINE
  5
53F
  8
0
 10
286.5
 20
127.0
 30
0.0
 11
263.5
 21
127.0
 31
0.0
  0
LINE
  5
540
  8
0
 10
262.5
 20
126.0
 30
0.0
 11
262.5
 21
116.0
 31
0.0
  0
LINE
  5
541
  8
0
 10
263.5
 20
115.0
 30
0.0
 11
286.5
 21
115.0
 31
0.0
  0
LINE
  5
542
  8
0
 10
275.0
 20
120.0
 30
0.0
 11
280.5
 21
120.0
 31
0.0
  0
LINE
  5
543
  8
0
 10
280.5
 20
120.0
 30
0.0
 11
280.5
 21
115.0
 31
0.0
  0
LINE
  5
544
  8
0
 10
269.5
 20
120.0
 30
0.0
 11
269.5
 21
115.0
 31
0.0
  0
LINE
  5
545
  8
0
 10
277.0
 20
120.0
 30
0.0
 11
269.5
 21
120.0
 31
0.0
  0
LINE
  5
546
  8
0
 10
263.5
 20
127.0
 30
0.0
 11
262.5
 21
126.0
 31
0.0
  0
LINE
  5
547
  8
0
 10
286.5
 20
127.0
 30
0.0
 11
287.5
 21
126.0
 31
0.0
  0
LINE
  5
548
  8
0
 10
287.5
 20
116.0
 30
0.0
 11
286.5
 21
115.0
 31
0.0
  0
LINE
  5
549
  8
0
 10
263.5
 20
115.0
 30
0.0
 11
262.5
 21
116.0
 31
0.0
  0
LINE
  5
54A
  8
0
 10
280.0
 20
118.5
 30
0.0
 11
280.0
 21
115.40000000000001
 31
0.0
  0
LINE
  5
54B
  8
0
 10
279.5
 20
119.0
 30
0.0
 11
270.5
 21
119.0
 31
0.0
  0
LINE
  5
54C
  8
0
 10
284.5
 20
114.42265
 30
0.0
 11
284.5
 21
107.57735
 31
0.0
  0
LINE
  5
54D
  8
0
 10
283.92545499999989
 20
114.42265
 30
0.0
 11
283.92545499999989
 21
107.57735
 31
0.0
  0
LINE
  5
54E
  8
0
 10
279.50957399999999
 20
114.42265
 30
0.0
 11
279.50957399999999
 21
107.57735
 31
0.0
  0
LINE
  5
54F
  8
0
 10
278.122499
 20
114.42265
 30
0.0
 11
278.122499
 21
107.57735
 31
0.0
  0
LINE
  5
550
  8
0
 10
283.5
 20
115.0
 30
0.0
 11
284.5
 21
114.42265
 31
0.0
  0
LINE
  5
551
  8
0
 10
284.5
 20
114.42265
 30
0.0
 11
283.92545499999989
 21
114.42265
 31
0.0
  0
LINE
  5
552
  8
0
 10
279.50957399999999
 20
114.42265
 30
0.0
 11
278.122499
 21
114.42265
 31
0.0
  0
LINE
  5
553
  8
0
 10
271.87750100000011
 20
114.42265
 30
0.0
 11
271.87750100000011
 21
107.57735
 31
0.0
  0
LINE
  5
554
  8
0
 10
279.50957399999999
 20
107.57735
 30
0.0
 11
278.122499
 21
107.57735
 31
0.0
  0
LINE
  5
555
  8
0
 10
284.5
 20
107.57735
 30
0.0
 11
283.92545499999989
 21
107.57735
 31
0.0
  0
LINE
  5
556
  8
0
 10
283.5
 20
107.0
 30
0.0
 11
284.5
 21
107.57735
 31
0.0
  0
LINE
  5
557
  8
0
 10
265.5
 20
107.57735
 30
0.0
 11
266.07454500000011
 21
107.57735
 31
0.0
  0
LINE
  5
558
  8
0
 10
270.49042600000001
 20
107.57735
 30
0.0
 11
271.87750100000011
 21
107.57735
 31
0.0
  0
LINE
  5
559
  8
0
 10
270.49042600000001
 20
114.42265
 30
0.0
 11
271.87750100000011
 21
114.42265
 31
0.0
  0
LINE
  5
55A
  8
0
 10
265.5
 20
114.42265
 30
0.0
 11
266.07454500000011
 21
114.42265
 31
0.0
  0
LINE
  5
55B
  8
0
 10
271.87750100000011
 20
114.42265
 30
0.0
 11
271.87750100000011
 21
107.57735
 31
0.0
  0
LINE
  5
55C
  8
0
 10
270.49042600000001
 20
114.42265
 30
0.0
 11
270.49042600000001
 21
107.57735
 31
0.0
  0
LINE
  5
55D
  8
0
 10
266.07454500000011
 20
114.42265
 30
0.0
 11
266.07454500000011
 21
107.57735
 31
0.0
  0
LINE
  5
55E
  8
0
 10
265.5
 20
114.42265
 30
0.0
 11
265.5
 21
107.57735
 31
0.0
  0
LINE
  5
55F
  8
0
 10
283.5
 20
115.0
 30
0.0
 11
266.5
 21
115.0
 31
0.0
  0
LINE
  5
560
  8
0
 10
270.0
 20
106.59999999999999
 30
0.0
 11
270.0
 21
95.999999999999986
 31
0.0
  0
LINE
  5
561
  8
0
 10
270.0
 20
90.0
 30
0.0
 11
270.0
 21
61.5
 31
0.0
  0
LINE
  5
562
  8
3
 10
270.81200000000001
 20
105.193575
 30
0.0
 11
270.81200000000001
 21
96.0
 31
0.0
  0
LINE
  5
563
  8
3
 10
270.81200000000001
 20
90.0
 30
0.0
 11
270.81200000000001
 21
60.688000000000002
 31
0.0
  0
LINE
  5
564
  8
3
 10
279.18799999999999
 20
105.193575
 30
0.0
 11
279.18799999999999
 21
96.0
 31
0.0
  0
LINE
  5
565
  8
3
 10
279.18799999999999
 20
90.0
 30
0.0
 11
279.18799999999999
 21
60.688000000000002
 31
0.0
  0
LINE
  5
566
  8
0
 10
280.0
 20
106.59999999999999
 30
0.0
 11
280.0
 21
95.999999999999986
 31
0.0
  0
LINE
  5
567
  8
0
 10
280.0
 20
90.0
 30
0.0
 11
280.0
 21
61.5
 31
0.0
  0
LINE
  5
568
  8
0
 10
280.0
 20
105.193575
 30
0.0
 11
270.0
 21
105.193575
 31
0.0
  0
LINE
  5
569
  8
3
 10
279.18799999999999
 20
105.193575
 30
0.0
 11
280.0
 21
106.59999999999999
 31
0.0
  0
LINE
  5
56A
  8
3
 10
270.81200000000001
 20
105.193575
 30
0.0
 11
270.0
 21
106.59999999999999
 31
0.0
  0
LINE
  5
56B
  8
0
 10
266.5
 20
107.0
 30
0.0
 11
283.5
 21
107.0
 31
0.0
  0
ARC
  5
56C
  8
0
 10
280.39999999999998
 20
106.59999999999999
 30
0.0
 40
0.4
 50
90.0
 51
180.0
  0
ARC
  5
56D
  8
0
 10
269.60000000000002
 20
106.59999999999999
 30
0.0
 40
0.4
 50
0.0
 51
90.0
  0
LINE
  5
56E
  8
0
 10
266.5
 20
115.0
 30
0.0
 11
265.5
 21
114.42265
 31
0.0
  0
LINE
  5
56F
  8
0
 10
266.5
 20
107.0
 30
0.0
 11
265.5
 21
107.57735
 31
0.0
  0
ARC
  5
570
  8
0
 10
281.71751400000011
 20
108.52889999999999
 30
0.0
 40
6.2937500000000002
 50
69.462844000001112
 51
110.5371559999989
  0
ARC
  5
571
  8
0
 10
275.0
 20
102.43514999999999
 30
0.0
 40
12.387499999999999
 50
75.400048999998717
 51
104.5999510000013
  0
ARC
  5
572
  8
0
 10
281.71751400000011
 20
113.47110000000001
 30
0.0
 40
6.2937500000000002
 50
249.4628440000011
 51
290.5371559999989
  0
ARC
  5
573
  8
0
 10
275.0
 20
119.56485000000001
 30
0.0
 40
12.387499999999999
 50
255.40004899999869
 51
284.59995100000128
  0
ARC
  5
574
  8
0
 10
268.28248600000001
 20
113.47110000000001
 30
0.0
 40
6.2937500000000002
 50
249.4628440000011
 51
290.5371559999989
  0
ARC
  5
575
  8
0
 10
268.28248600000001
 20
108.52889999999999
 30
0.0
 40
6.2937500000000002
 50
69.462844000001112
 51
110.5371559999989
  0
LINE
  5
576
  8
1
 10
275.0
 20
177.0
 30
0.0
 11
275.0
 21
55.0
 31
0.0
  0
ARC
  5
577
  8
0
 10
280.39999999999998
 20
115.40000000000001
 30
0.0
 40
0.4
 50
180.0
 51
270.0
  0
ARC
  5
578
  8
0
 10
269.60000000000002
 20
115.40000000000001
 30
0.0
 40
0.4
 50
270.0
 51
0.0
  0
LINE
  5
579
  8
0
 10
270.0
 20
118.5
 30
0.0
 11
270.0
 21
115.40000000000001
 31
0.0
  0
LINE
  5
57A
  8
0
 10
280.0
 20
118.5
 30
0.0
 11
279.5
 21
119.0
 31
0.0
  0
LINE
  5
57B
  8
0
 10
270.5
 20
119.0
 30
0.0
 11
270.0
 21
118.5
 31
0.0
  0
LINE
  5
57C
  8
0
 10
278.5
 20
60.0
 30
0.0
 11
271.5
 21
60.0
 31
0.0
  0
LINE
  5
57D
  8
0
 10
280.0
 20
61.5
 30
0.0
 11
278.5
 21
60.0
 31
0.0
  0
LINE
  5
57E
  8
0
 10
271.5
 20
60.0
 30
0.0
 11
270.0
 21
61.5
 31
0.0
  0
LINE
  5
57F
  8
0
 10
280.0
 20
61.5
 30
0.0
 11
270.0
 21
61.5
 31
0.0
  0
LINE
  5
580
  8
0
 10
264.0
 20
130.0
 30
0.0
 11
264.5
 21
130.5
 31
0.0
  0
LINE
  5
581
  8
0
 10
264.5
 20
127.0
 30
0.0
 11
264.0
 21
127.5
 31
0.0
  0
LINE
  5
582
  8
0
 10
286.0
 20
130.0
 30
0.0
 11
285.5
 21
130.5
 31
0.0
  0
LINE
  5
583
  8
0
 10
285.5
 20
127.0
 30
0.0
 11
286.0
 21
127.5
 31
0.0
  0
LINE
  5
584
  8
0
 10
264.0
 20
127.5
 30
0.0
 11
264.0
 21
130.0
 31
0.0
  0
LINE
  5
585
  8
0
 10
285.5
 20
127.0
 30
0.0
 11
264.5
 21
127.0
 31
0.0
  0
LINE
  5
586
  8
0
 10
286.0
 20
130.0
 30
0.0
 11
286.0
 21
127.5
 31
0.0
  0
LINE
  5
587
  8
0
 10
264.5
 20
130.5
 30
0.0
 11
285.5
 21
130.5
 31
0.0
  0
LINE
  5
588
  8
0
 10
283.5
 20
143.57824600000001
 30
0.0
 11
283.5
 21
133.428246
 31
0.0
  0
ARC
  5
589
  8
0
 10
283.89999999999998
 20
133.428246
 30
0.0
 40
0.4
 50
180.0
 51
270.0
  0
LINE
  5
58A
  8
0
 10
275.0
 20
143.124719
 30
0.0
 11
275.0
 21
133.028246
 31
0.0
  0
LINE
  5
58B
  8
0
 10
266.5
 20
143.57824600000001
 30
0.0
 11
266.5
 21
133.428246
 31
0.0
  0
LINE
  5
58C
  8
0
 10
283.05000000000013
 20
144.028246
 30
0.0
 11
266.94999999999987
 21
144.028246
 31
0.0
  0
LINE
  5
58D
  8
0
 10
266.94999999999987
 20
144.028246
 30
0.0
 11
266.5
 21
143.57824600000001
 31
0.0
  0
LINE
  5
58E
  8
0
 10
283.5
 20
143.57824600000001
 30
0.0
 11
283.05000000000013
 21
144.028246
 31
0.0
  0
ARC
  5
58F
  8
0
 10
270.75
 20
133.58093099999999
 30
0.0
 40
10.447315
 50
65.995832000001201
 51
114.0041679999988
  0
ARC
  5
590
  8
0
 10
279.25
 20
133.58093099999999
 30
0.0
 40
10.447315
 50
65.995832000001201
 51
114.0041679999988
  0
LINE
  5
591
  8
0
 10
275.0
 20
143.124719
 30
0.0
 11
275.0
 21
138.93177299999999
 31
0.0
  0
ARC
  5
592
  8
0
 10
266.10000000000002
 20
133.428246
 30
0.0
 40
0.4
 50
270.0
 51
0.0
  0
LINE
  5
593
  8
0
 10
264.5
 20
133.028246
 30
0.0
 11
285.5
 21
133.028246
 31
0.0
  0
LINE
  5
594
  8
0
 10
264.5
 20
133.028246
 30
0.0
 11
264.0
 21
132.528246
 31
0.0
  0
LINE
  5
595
  8
0
 10
264.0
 20
132.528246
 30
0.0
 11
264.0
 21
130.928246
 31
0.0
  0
LINE
  5
596
  8
0
 10
285.5
 20
133.028246
 30
0.0
 11
286.0
 21
132.528246
 31
0.0
  0
LINE
  5
597
  8
0
 10
286.0
 20
130.928246
 30
0.0
 11
264.0
 21
130.928246
 31
0.0
  0
ARC
  5
598
  8
0
 10
275.0
 20
153.37818999999999
 30
0.0
 40
25.0
 50
293.7761455596542
 51
296.10388099999881
  0
ARC
  5
599
  8
0
 10
275.0
 20
153.37818999999999
 30
0.0
 40
25.0
 50
243.89611900000119
 51
246.2238544403458
  0
LINE
  5
59A
  8
0
 10
286.0
 20
132.528246
 30
0.0
 11
286.0
 21
130.928246
 31
0.0
  0
LINE
  5
59B
  8
0
 10
107.5
 20
124.0
 30
0.0
 11
110.34616
 21
127.0
 31
0.0
  0
LINE
  5
59C
  8
0
 10
92.5
 20
124.0
 30
0.0
 11
89.653840000000002
 21
127.0
 31
0.0
  0
LINE
  5
59D
  8
0
 10
87.5
 20
126.0
 30
0.0
 11
87.5
 21
116.0
 31
0.0
  0
LINE
  5
59E
  8
0
 10
88.499999999999986
 20
115.0
 30
0.0
 11
111.5
 21
115.0
 31
0.0
  0
LINE
  5
59F
  8
0
 10
112.5
 20
116.0
 30
0.0
 11
112.5
 21
126.0
 31
0.0
  0
LINE
  5
5A0
  8
0
 10
111.5
 20
127.0
 30
0.0
 11
88.499999999999986
 21
127.0
 31
0.0
  0
LINE
  5
5A1
  8
0
 10
92.5
 20
124.0
 30
0.0
 11
107.5
 21
124.0
 31
0.0
  0
LINE
  5
5A2
  8
0
 10
111.5
 20
115.0
 30
0.0
 11
112.5
 21
116.0
 31
0.0
  0
LINE
  5
5A3
  8
0
 10
88.499999999999986
 20
115.0
 30
0.0
 11
87.5
 21
116.0
 31
0.0
  0
LINE
  5
5A4
  8
0
 10
87.5
 20
126.0
 30
0.0
 11
88.499999999999986
 21
127.0
 31
0.0
  0
LINE
  5
5A5
  8
0
 10
111.5
 20
127.0
 30
0.0
 11
112.5
 21
126.0
 31
0.0
  0
LINE
  5
5A6
  8
0
 10
92.5
 20
124.0
 30
0.0
 11
92.5
 21
115.0
 31
0.0
  0
LINE
  5
5A7
  8
0
 10
107.5
 20
124.0
 30
0.0
 11
107.5
 21
115.0
 31
0.0
  0
LINE
  5
5A8
  8
0
 10
89.0
 20
130.0
 30
0.0
 11
89.500000000000014
 21
130.5
 31
0.0
  0
LINE
  5
5A9
  8
0
 10
89.500000000000014
 20
127.0
 30
0.0
 11
89.0
 21
127.5
 31
0.0
  0
LINE
  5
5AA
  8
0
 10
111.0
 20
130.0
 30
0.0
 11
110.5
 21
130.5
 31
0.0
  0
LINE
  5
5AB
  8
0
 10
110.5
 20
127.0
 30
0.0
 11
111.0
 21
127.5
 31
0.0
  0
LINE
  5
5AC
  8
0
 10
89.0
 20
127.5
 30
0.0
 11
89.0
 21
130.0
 31
0.0
  0
LINE
  5
5AD
  8
0
 10
110.5
 20
127.0
 30
0.0
 11
89.500000000000014
 21
127.0
 31
0.0
  0
LINE
  5
5AE
  8
0
 10
111.0
 20
130.0
 30
0.0
 11
111.0
 21
127.5
 31
0.0
  0
LINE
  5
5AF
  8
0
 10
89.500000000000014
 20
130.5
 30
0.0
 11
110.5
 21
130.5
 31
0.0
  0
LINE
  5
5B0
  8
0
 10
108.5
 20
143.57824600000001
 30
0.0
 11
108.5
 21
133.428246
 31
0.0
  0
ARC
  5
5B1
  8
0
 10
108.89999999999991
 20
133.428246
 30
0.0
 40
0.4
 50
180.0
 51
270.0
  0
LINE
  5
5B2
  8
0
 10
100.0
 20
143.124719
 30
0.0
 11
100.0
 21
133.028246
 31
0.0
  0
LINE
  5
5B3
  8
0
 10
91.5
 20
143.57824600000001
 30
0.0
 11
91.5
 21
133.428246
 31
0.0
  0
LINE
  5
5B4
  8
0
 10
108.05
 20
144.028246
 30
0.0
 11
91.949999999999974
 21
144.028246
 31
0.0
  0
LINE
  5
5B5
  8
0
 10
91.949999999999974
 20
144.028246
 30
0.0
 11
91.5
 21
143.57824600000001
 31
0.0
  0
LINE
  5
5B6
  8
0
 10
108.5
 20
143.57824600000001
 30
0.0
 11
108.05
 21
144.028246
 31
0.0
  0
ARC
  5
5B7
  8
0
 10
95.750000000000014
 20
133.58093099999999
 30
0.0
 40
10.447315
 50
65.995832000001144
 51
114.0041679999988
  0
ARC
  5
5B8
  8
0
 10
104.25
 20
133.58093099999999
 30
0.0
 40
10.447315
 50
65.995832000001144
 51
114.0041679999988
  0
ARC
  5
5B9
  8
0
 10
91.100000000000023
 20
133.428246
 30
0.0
 40
0.4
 50
270.0
 51
0.0
  0
LINE
  5
5BA
  8
0
 10
89.500000000000014
 20
133.028246
 30
0.0
 11
110.5
 21
133.028246
 31
0.0
  0
LINE
  5
5BB
  8
0
 10
89.500000000000014
 20
133.028246
 30
0.0
 11
89.0
 21
132.528246
 31
0.0
  0
LINE
  5
5BC
  8
0
 10
89.0
 20
132.528246
 30
0.0
 11
89.0
 21
130.928246
 31
0.0
  0
LINE
  5
5BD
  8
0
 10
110.5
 20
133.028246
 30
0.0
 11
111.0
 21
132.528246
 31
0.0
  0
LINE
  5
5BE
  8
0
 10
111.0
 20
130.928246
 30
0.0
 11
89.0
 21
130.928246
 31
0.0
  0
ARC
  5
5BF
  8
0
 10
100.0
 20
153.37818999999999
 30
0.0
 40
25.0
 50
293.7761455596542
 51
296.10388099999892
  0
ARC
  5
5C0
  8
0
 10
100.0
 20
153.37818999999999
 30
0.0
 40
25.0
 50
243.89611900000111
 51
246.2238544403458
  0
LINE
  5
5C1
  8
0
 10
111.0
 20
132.528246
 30
0.0
 11
111.0
 21
130.928246
 31
0.0
  0
LINE
  5
5C2
  8
0
 10
270.0
 20
168.5
 30
0.0
 11
280.0
 21
168.5
 31
0.0
  0
LINE
  5
5C3
  8
3
 10
270.75
 20
144.028246
 30
0.0
 11
270.75
 21
169.25
 31
0.0
  0
LINE
  5
5C4
  8
3
 10
279.25
 20
144.028246
 30
0.0
 11
279.25
 21
169.25
 31
0.0
  0
LINE
  5
5C5
  8
0
 10
278.5
 20
170.0
 30
0.0
 11
280.0
 21
168.5
 31
0.0
  0
LINE
  5
5C6
  8
0
 10
270.0
 20
168.5
 30
0.0
 11
271.5
 21
170.0
 31
0.0
  0
LINE
  5
5C7
  8
0
 10
280.0
 20
168.5
 30
0.0
 11
280.0
 21
144.028246
 31
0.0
  0
LINE
  5
5C8
  8
0
 10
271.5
 20
170.0
 30
0.0
 11
278.5
 21
170.0
 31
0.0
  0
LINE
  5
5C9
  8
0
 10
270.0
 20
144.028246
 30
0.0
 11
270.0
 21
168.5
 31
0.0
  0
LINE
  5
5CA
  8
0
 10
109.5
 20
114.42265
 30
0.0
 11
109.5
 21
107.57735
 31
0.0
  0
LINE
  5
5CB
  8
0
 10
108.925455
 20
114.42265
 30
0.0
 11
108.925455
 21
107.57735
 31
0.0
  0
LINE
  5
5CC
  8
0
 10
108.5
 20
115.0
 30
0.0
 11
109.5
 21
114.42265
 31
0.0
  0
LINE
  5
5CD
  8
0
 10
109.5
 20
114.42265
 30
0.0
 11
108.925455
 21
114.42265
 31
0.0
  0
LINE
  5
5CE
  8
0
 10
109.5
 20
107.57735
 30
0.0
 11
108.925455
 21
107.57735
 31
0.0
  0
LINE
  5
5CF
  8
0
 10
108.5
 20
107.0
 30
0.0
 11
109.5
 21
107.57735
 31
0.0
  0
LINE
  5
5D0
  8
0
 10
90.5
 20
107.57735
 30
0.0
 11
91.074545000000015
 21
107.57735
 31
0.0
  0
LINE
  5
5D1
  8
0
 10
90.5
 20
114.42265
 30
0.0
 11
91.074545000000015
 21
114.42265
 31
0.0
  0
LINE
  5
5D2
  8
0
 10
91.074545000000015
 20
114.42265
 30
0.0
 11
91.074545000000015
 21
107.57735
 31
0.0
  0
LINE
  5
5D3
  8
0
 10
90.5
 20
114.42265
 30
0.0
 11
90.5
 21
107.57735
 31
0.0
  0
LINE
  5
5D4
  8
0
 10
91.5
 20
107.0
 30
0.0
 11
95.0
 21
107.0
 31
0.0
  0
LINE
  5
5D5
  8
0
 10
105.0
 20
107.0
 30
0.0
 11
108.5
 21
107.0
 31
0.0
  0
LINE
  5
5D6
  8
0
 10
91.5
 20
115.0
 30
0.0
 11
90.5
 21
114.42265
 31
0.0
  0
LINE
  5
5D7
  8
0
 10
91.5
 20
107.0
 30
0.0
 11
90.5
 21
107.57735
 31
0.0
  0
ARC
  5
5D8
  8
0
 10
106.71751399999999
 20
108.52889999999999
 30
0.0
 40
6.2937500000000002
 50
69.462844000001112
 51
105.8364301968379
  0
ARC
  5
5D9
  8
0
 10
106.71751399999999
 20
113.47110000000001
 30
0.0
 40
6.2937500000000002
 50
254.16356980316209
 51
290.5371559999989
  0
ARC
  5
5DA
  8
0
 10
93.282486000000006
 20
113.47110000000001
 30
0.0
 40
6.2937500000000002
 50
249.4628440000011
 51
285.83643019683791
  0
ARC
  5
5DB
  8
0
 10
93.282486000000006
 20
108.52889999999999
 30
0.0
 40
6.2937500000000002
 50
74.16356980316209
 51
110.5371559999989
  0
LINE
  5
5DC
  8
0
 10
95.0
 20
71.5
 30
0.0
 11
95.0
 21
61.5
 31
0.0
  0
LINE
  5
5DD
  8
3
 10
95.811999999999998
 20
70.687999999999988
 30
0.0
 11
95.811999999999998
 21
60.688000000000002
 31
0.0
  0
LINE
  5
5DE
  8
3
 10
104.188
 20
70.687999999999988
 30
0.0
 11
104.188
 21
60.688000000000002
 31
0.0
  0
LINE
  5
5DF
  8
0
 10
105.0
 20
71.5
 30
0.0
 11
105.0
 21
61.5
 31
0.0
  0
LINE
  5
5E0
  8
0
 10
103.5
 20
60.0
 30
0.0
 11
96.5
 21
60.0
 31
0.0
  0
LINE
  5
5E1
  8
0
 10
105.0
 20
61.5
 30
0.0
 11
103.5
 21
60.0
 31
0.0
  0
LINE
  5
5E2
  8
0
 10
96.5
 20
60.0
 30
0.0
 11
95.0
 21
61.5
 31
0.0
  0
LINE
  5
5E3
  8
0
 10
105.0
 20
61.5
 30
0.0
 11
95.0
 21
61.5
 31
0.0
  0
TEXT
  5
726
  8
0
 62
     3
 10
0.0
 20
0.0
 30
0.0
 40
10.0
  1
BJ153-10063A2
  7
STANDARD1
  0
ENDSEC
  0
EOF
