  0
SECTION
  2
HEADER
  9
$ACADVER
  1
AC1009
  9
$INSBASE
 10
82.638099999999994
 20
103.82319099999999
 30
0.0
  9
$EXTMIN
 10
0.0
 20
-2.960436562073669
 30
0.0
  9
$EXTMAX
 10
287.5
 20
221.0
 30
0.0
  9
$LIMMIN
 10
0.0
 20
0.0
  9
$LIMMAX
 10
375.0
 20
270.0
  9
$ORTHOMODE
 70
     1
  9
$REGENMODE
 70
     1
  9
$FILLMODE
 70
     1
  9
$QTEXTMODE
 70
     0
  9
$MIRRTEXT
 70
     0
  9
$DRAGMODE
 70
     2
  9
$LTSCALE
 40
10.0
  9
$OSMODE
 70
  3071
  9
$ATTMODE
 70
     1
  9
$TEXTSIZE
 40
0.06
  9
$TRACEWID
 40
0.05
  9
$TEXTSTYLE
  7
STANDARD
  9
$CLAYER
  8
0
  9
$CELTYPE
  6
BYLAYER
  9
$CECOLOR
 62
   256
  9
$DIMSCALE
 40
1.0
  9
$DIMASZ
 40
3.0
  9
$DIMEXO
 40
2.0
  9
$DIMDLI
 40
10.0
  9
$DIMRND
 40
0.0
  9
$DIMDLE
 40
0.0
  9
$DIMEXE
 40
2.0
  9
$DIMTP
 40
0.0
  9
$DIMTM
 40
0.0
  9
$DIMTXT
 40
3.0
  9
$DIMCEN
 40
0.0
  9
$DIMTSZ
 40
0.0
  9
$DIMTOL
 70
     0
  9
$DIMLIM
 70
     0
  9
$DIMTIH
 70
     0
  9
$DIMTOH
 70
     0
  9
$DIMSE1
 70
     0
  9
$DIMSE2
 70
     0
  9
$DIMTAD
 70
     1
  9
$DIMZIN
 70
     0
  9
$DIMBLK
  1

  9
$DIMASO
 70
     0
  9
$DIMSHO
 70
     0
  9
$DIMPOST
  1

  9
$DIMAPOST
  1

  9
$DIMALT
 70
     0
  9
$DIMALTD
 70
     2
  9
$DIMALTF
 40
25.399999999999999
  9
$DIMLFAC
 40
1.0
  9
$DIMTOFL
 70
     1
  9
$DIMTVP
 40
1.6000000000000001
  9
$DIMTIX
 70
     1
  9
$DIMSOXD
 70
     0
  9
$DIMSAH
 70
     0
  9
$DIMBLK1
  1

  9
$DIMBLK2
  1

  9
$DIMSTYLE
  2
STANDARD
  9
$DIMCLRD
 70
     0
  9
$DIMCLRE
 70
     0
  9
$DIMCLRT
 70
     0
  9
$DIMTFAC
 40
1.0
  9
$DIMGAP
 40
0.09
  9
$LUNITS
 70
     2
  9
$LUPREC
 70
     4
  9
$SKETCHINC
 40
0.1
  9
$FILLETRAD
 40
0.0
  9
$AUNITS
 70
     0
  9
$AUPREC
 70
     4
  9
$MENU
  1
E:\r13\win\SUPPORT\ACAD
  9
$ELEVATION
 40
0.0
  9
$PELEVATION
 40
0.0
  9
$THICKNESS
 40
0.0
  9
$LIMCHECK
 70
     0
  9
$BLIPMODE
 70
     0
  9
$CHAMFERA
 40
0.0
  9
$CHAMFERB
 40
0.0
  9
$SKPOLY
 70
     0
  9
$TDCREATE
 40
2449840.3458564822
  9
$TDUPDATE
 40
2456597.6353082992
  9
$TDINDWG
 40
0.0074198611
  9
$TDUSRTIMER
 40
0.0074198611
  9
$USRTIMER
 70
     1
  9
$ANGBASE
 50
0.0
  9
$ANGDIR
 70
     0
  9
$PDMODE
 70
     1
  9
$PDSIZE
 40
0.0
  9
$PLINEWID
 40
0.0
  9
$COORDS
 70
     1
  9
$SPLFRAME
 70
     0
  9
$SPLINETYPE
 70
     6
  9
$SPLINESEGS
 70
     8
  9
$ATTDIA
 70
     0
  9
$ATTREQ
 70
     1
  9
$HANDLING
 70
     1
  9
$HANDSEED
  5
5DE
  9
$SURFTAB1
 70
     6
  9
$SURFTAB2
 70
     6
  9
$SURFTYPE
 70
     6
  9
$SURFU
 70
     6
  9
$SURFV
 70
     6
  9
$UCSNAME
  2

  9
$UCSORG
 10
0.0
 20
0.0
 30
0.0
  9
$UCSXDIR
 10
1.0
 20
0.0
 30
0.0
  9
$UCSYDIR
 10
0.0
 20
1.0
 30
0.0
  9
$PUCSNAME
  2

  9
$PUCSORG
 10
0.0
 20
0.0
 30
0.0
  9
$PUCSXDIR
 10
1.0
 20
0.0
 30
0.0
  9
$PUCSYDIR
 10
0.0
 20
1.0
 30
0.0
  9
$USERI1
 70
     3
  9
$USERI2
 70
     1
  9
$USERI3
 70
     0
  9
$USERI4
 70
     0
  9
$USERI5
 70
     0
  9
$USERR1
 40
1.0
  9
$USERR2
 40
3.0
  9
$USERR3
 40
3.0
  9
$USERR4
 40
3.0
  9
$USERR5
 40
10.0
  9
$WORLDVIEW
 70
     1
  9
$SHADEDGE
 70
     3
  9
$SHADEDIF
 70
    70
  9
$TILEMODE
 70
     1
  9
$MAXACTVP
 70
    16
  9
$PLIMCHECK
 70
     0
  9
$PEXTMIN
 10
1.0000000000000000E+020
 20
1.0000000000000000E+020
 30
1.0000000000000000E+020
  9
$PEXTMAX
 10
-1.0000000000000000E+020
 20
-1.0000000000000000E+020
 30
-1.0000000000000000E+020
  9
$PLIMMIN
 10
0.0
 20
0.0
  9
$PLIMMAX
 10
12.0
 20
9.0
  9
$UNITMODE
 70
     0
  9
$VISRETAIN
 70
     0
  9
$PLINEGEN
 70
     0
  9
$PSLTSCALE
 70
     0
  0
ENDSEC
  0
SECTION
  2
TABLES
  0
TABLE
  2
VPORT
 70
     1
  0
VPORT
  2
*ACTIVE
 70
     0
 10
0.0
 20
0.0
 11
1.0
 21
1.0
 12
195.0581083320873
 22
133.5127261426681
 13
0.0
 23
0.0
 14
5.0
 24
5.0
 15
10.0
 25
10.0
 16
0.0
 26
0.0
 36
1.0
 17
0.0
 27
0.0
 37
0.0
 40
275.42274993631997
 41
1.831871345029239
 42
50.0
 43
0.0
 44
0.0
 50
0.0
 51
0.0
 71
     0
 72
   100
 73
     1
 74
     0
 75
     0
 76
     0
 77
     0
 78
     0
  0
ENDTAB
  0
TABLE
  2
LTYPE
 70
     4
  0
LTYPE
  2
CONTINUOUS
 70
     0
  3
Solid Line
 72
    65
 73
     0
 40
0.0
  0
LTYPE
  2
CENTER
 70
     0
  3
____ _ ____ _ ____ _ ____ _ ____ _ ____ _ ____
 72
    65
 73
     4
 40
2.0
 49
1.25
 49
-0.25
 49
0.25
 49
-0.25
  0
LTYPE
  2
HIDDEN
 70
     0
  3
__ __ __ __ __ __ __ __ __ __ __ __ __ __ __ __
 72
    65
 73
     2
 40
0.375
 49
0.25
 49
-0.125
  0
LTYPE
  2
PHANTOM2
 70
     0
  3
___ _ _ ___ _ _ ___ _ _ ___ _ _
 72
    65
 73
     6
 40
1.25
 49
0.625
 49
-0.125
 49
0.125
 49
-0.125
 49
0.125
 49
-0.125
  0
ENDTAB
  0
TABLE
  2
LAYER
 70
     4
  0
LAYER
  2
0
 70
     0
 62
     7
  6
CONTINUOUS
  0
LAYER
  2
1
 70
     0
 62
     1
  6
CENTER
  0
LAYER
  2
2
 70
     0
 62
     2
  6
HIDDEN
  0
LAYER
  2
3
 70
     0
 62
     3
  6
CONTINUOUS
  0
ENDTAB
  0
TABLE
  2
STYLE
 70
     2
  0
STYLE
  2
STANDARD
 70
     0
 40
0.0
 41
1.0
 50
0.0
 71
     0
 42
0.06
  3
TXT
  4
BIGFONT
  0
STYLE
  2
STANDARD1
 70
     0
 40
0.0
 41
1.0
 50
0.0
 71
     0
 42
3.0
  3
txt
  4

  0
ENDTAB
  0
TABLE
  2
VIEW
 70
     0
  0
ENDTAB
  0
TABLE
  2
UCS
 70
     0
  0
ENDTAB
  0
TABLE
  2
APPID
 70
     4
  0
APPID
  2
ACAD
 70
     0
  0
APPID
  2
ACAD_EXEMPT_FROM_CAD_STANDARDS
 70
     0
  0
APPID
  2
ACAD_MLEADERVER
 70
     0
  0
APPID
  2
ACAD_NAV_VCDISPLAY
 70
     0
  0
ENDTAB
  0
TABLE
  2
DIMSTYLE
 70
     1
  0
DIMSTYLE
  2
STANDARD
 70
     0
  3

  4

  5

  6

  7

 40
1.0
 41
0.18
 42
0.0625
 43
0.38
 44
0.18
 45
0.0
 46
0.0
 47
0.0
 48
0.0
140
0.18
141
0.09
142
0.0
143
25.399999999999999
144
1.0
145
0.0
146
1.0
147
0.09
 71
     0
 72
     0
 73
     1
 74
     1
 75
     0
 76
     0
 77
     0
 78
     0
170
     0
171
     2
172
     0
173
     0
174
     0
175
     0
176
     0
177
     0
178
     0
  0
ENDTAB
  0
ENDSEC
  0
SECTION
  2
BLOCKS
  0
BLOCK
  8
0
  2
$MODEL_SPACE
 70
     0
 10
0.0
 20
0.0
 30
0.0
  3
$MODEL_SPACE
  1

  0
ENDBLK
  5
23A
  8
0
  0
BLOCK
 67
     1
  8
0
  2
$PAPER_SPACE
 70
     0
 10
0.0
 20
0.0
 30
0.0
  3
$PAPER_SPACE
  1

  0
ENDBLK
  5
238
 67
     1
  8
0
  0
ENDSEC
  0
SECTION
  2
ENTITIES
  0
LINE
  5
2A9
  8
0
 10
280.0
 20
118.5
 30
0.0
 11
280.0
 21
115.40000000000001
 31
0.0
  0
LINE
  5
2AA
  8
0
 10
279.5
 20
119.0
 30
0.0
 11
270.5
 21
119.0
 31
0.0
  0
LINE
  5
2AB
  8
0
 10
284.5
 20
114.42265
 30
0.0
 11
284.5
 21
107.57735
 31
0.0
  0
LINE
  5
2AC
  8
0
 10
283.925455
 20
114.42265
 30
0.0
 11
283.925455
 21
107.57735
 31
0.0
  0
LINE
  5
2AD
  8
0
 10
279.50957399999999
 20
114.42265
 30
0.0
 11
279.50957399999999
 21
107.57735
 31
0.0
  0
LINE
  5
2AE
  8
0
 10
278.122499
 20
114.42265
 30
0.0
 11
278.122499
 21
107.57735
 31
0.0
  0
LINE
  5
2AF
  8
0
 10
283.5
 20
115.0
 30
0.0
 11
284.5
 21
114.42265
 31
0.0
  0
LINE
  5
2B0
  8
0
 10
284.5
 20
114.42265
 30
0.0
 11
283.925455
 21
114.42265
 31
0.0
  0
LINE
  5
2B1
  8
0
 10
279.50957399999999
 20
114.42265
 30
0.0
 11
278.122499
 21
114.42265
 31
0.0
  0
LINE
  5
2B2
  8
0
 10
271.877501
 20
114.42265
 30
0.0
 11
271.877501
 21
107.57735
 31
0.0
  0
LINE
  5
2B3
  8
0
 10
279.50957399999999
 20
107.57735
 30
0.0
 11
278.122499
 21
107.57735
 31
0.0
  0
LINE
  5
2B4
  8
0
 10
284.5
 20
107.57735
 30
0.0
 11
283.925455
 21
107.57735
 31
0.0
  0
LINE
  5
2B5
  8
0
 10
283.5
 20
107.0
 30
0.0
 11
284.5
 21
107.57735
 31
0.0
  0
LINE
  5
2B6
  8
0
 10
265.5
 20
107.57735
 30
0.0
 11
266.074545
 21
107.57735
 31
0.0
  0
LINE
  5
2B7
  8
0
 10
270.49042600000001
 20
107.57735
 30
0.0
 11
271.877501
 21
107.57735
 31
0.0
  0
LINE
  5
2B8
  8
0
 10
270.49042600000001
 20
114.42265
 30
0.0
 11
271.877501
 21
114.42265
 31
0.0
  0
LINE
  5
2B9
  8
0
 10
265.5
 20
114.42265
 30
0.0
 11
266.074545
 21
114.42265
 31
0.0
  0
LINE
  5
2BA
  8
0
 10
271.877501
 20
114.42265
 30
0.0
 11
271.877501
 21
107.57735
 31
0.0
  0
LINE
  5
2BB
  8
0
 10
270.49042600000001
 20
114.42265
 30
0.0
 11
270.49042600000001
 21
107.57735
 31
0.0
  0
LINE
  5
2BC
  8
0
 10
266.074545
 20
114.42265
 30
0.0
 11
266.074545
 21
107.57735
 31
0.0
  0
LINE
  5
2BD
  8
0
 10
265.5
 20
114.42265
 30
0.0
 11
265.5
 21
107.57735
 31
0.0
  0
LINE
  5
2BE
  8
0
 10
283.5
 20
115.0
 30
0.0
 11
266.5
 21
115.0
 31
0.0
  0
LINE
  5
2BF
  8
0
 10
270.0
 20
106.59999999999999
 30
0.0
 11
270.0
 21
101.0
 31
0.0
  0
LINE
  5
2C0
  8
3
 10
270.81200000000001
 20
105.193575
 30
0.0
 11
270.81200000000001
 21
101.0
 31
0.0
  0
LINE
  5
2C1
  8
3
 10
279.18799999999999
 20
105.193575
 30
0.0
 11
279.18799999999999
 21
101.0
 31
0.0
  0
LINE
  5
2C2
  8
0
 10
280.0
 20
106.59999999999999
 30
0.0
 11
280.0
 21
101.0
 31
0.0
  0
LINE
  5
2C3
  8
0
 10
280.0
 20
105.193575
 30
0.0
 11
270.0
 21
105.193575
 31
0.0
  0
LINE
  5
2C4
  8
3
 10
279.18799999999999
 20
105.193575
 30
0.0
 11
280.0
 21
106.59999999999999
 31
0.0
  0
LINE
  5
2C5
  8
3
 10
270.81200000000001
 20
105.193575
 30
0.0
 11
270.0
 21
106.59999999999999
 31
0.0
  0
LINE
  5
2C6
  8
0
 10
266.5
 20
107.0
 30
0.0
 11
283.5
 21
107.0
 31
0.0
  0
ARC
  5
2C7
  8
0
 10
280.39999999999998
 20
106.59999999999999
 30
0.0
 40
0.4
 50
90.0
 51
180.0
  0
ARC
  5
2C8
  8
0
 10
269.60000000000002
 20
106.59999999999999
 30
0.0
 40
0.4
 50
0.0
 51
90.0
  0
LINE
  5
2C9
  8
0
 10
266.5
 20
115.0
 30
0.0
 11
265.5
 21
114.42265
 31
0.0
  0
LINE
  5
2CA
  8
0
 10
266.5
 20
107.0
 30
0.0
 11
265.5
 21
107.57735
 31
0.0
  0
ARC
  5
2CB
  8
0
 10
281.71751399999999
 20
108.52889999999999
 30
0.0
 40
6.2937500000000002
 50
69.462844000001056
 51
110.5371559999989
  0
ARC
  5
2CC
  8
0
 10
275.0
 20
102.43514999999999
 30
0.0
 40
12.387499999999999
 50
75.400048999998887
 51
104.5999510000011
  0
ARC
  5
2CD
  8
0
 10
281.71751399999999
 20
113.47110000000001
 30
0.0
 40
6.2937500000000002
 50
249.46284400000101
 51
290.5371559999989
  0
ARC
  5
2CE
  8
0
 10
275.0
 20
119.56485000000001
 30
0.0
 40
12.387499999999999
 50
255.40004899999889
 51
284.59995100000111
  0
ARC
  5
2CF
  8
0
 10
268.28248600000001
 20
113.47110000000001
 30
0.0
 40
6.2937500000000002
 50
249.46284400000101
 51
290.5371559999989
  0
ARC
  5
2D0
  8
0
 10
268.28248600000001
 20
108.52889999999999
 30
0.0
 40
6.2937500000000002
 50
69.462844000001056
 51
110.5371559999989
  0
LINE
  5
2D1
  8
1
 10
275.0
 20
164.0
 30
0.0
 11
275.0
 21
70.0
 31
0.0
  0
ARC
  5
2D2
  8
0
 10
280.39999999999998
 20
115.40000000000001
 30
0.0
 40
0.4
 50
180.0
 51
270.0
  0
ARC
  5
2D3
  8
0
 10
269.60000000000002
 20
115.40000000000001
 30
0.0
 40
0.4
 50
270.0
 51
0.0
  0
LINE
  5
2D4
  8
0
 10
270.0
 20
118.5
 30
0.0
 11
270.0
 21
115.40000000000001
 31
0.0
  0
LINE
  5
2D5
  8
0
 10
280.0
 20
118.5
 30
0.0
 11
279.5
 21
119.0
 31
0.0
  0
LINE
  5
2D6
  8
0
 10
270.5
 20
119.0
 30
0.0
 11
270.0
 21
118.5
 31
0.0
  0
LINE
  5
2D7
  8
0
 10
278.5
 20
75.0
 30
0.0
 11
271.5
 21
75.0
 31
0.0
  0
LINE
  5
2D8
  8
0
 10
280.0
 20
76.5
 30
0.0
 11
278.5
 21
75.0
 31
0.0
  0
LINE
  5
2D9
  8
0
 10
271.5
 20
75.0
 30
0.0
 11
270.0
 21
76.5
 31
0.0
  0
LINE
  5
2DA
  8
0
 10
280.0
 20
76.5
 30
0.0
 11
270.0
 21
76.5
 31
0.0
  0
LINE
  5
2DB
  8
0
 10
287.5
 20
116.0
 30
0.0
 11
287.5
 21
126.0
 31
0.0
  0
LINE
  5
2DC
  8
0
 10
286.5
 20
127.0
 30
0.0
 11
263.5
 21
127.0
 31
0.0
  0
LINE
  5
2DD
  8
0
 10
262.5
 20
126.0
 30
0.0
 11
262.5
 21
116.0
 31
0.0
  0
LINE
  5
2DE
  8
0
 10
263.5
 20
115.0
 30
0.0
 11
286.5
 21
115.0
 31
0.0
  0
LINE
  5
2E0
  8
0
 10
275.0
 20
120.0
 30
0.0
 11
280.5
 21
120.0
 31
0.0
  0
LINE
  5
2E1
  8
0
 10
280.5
 20
120.0
 30
0.0
 11
280.5
 21
115.0
 31
0.0
  0
LINE
  5
2E2
  8
0
 10
269.5
 20
120.0
 30
0.0
 11
269.5
 21
115.0
 31
0.0
  0
LINE
  5
2E3
  8
0
 10
277.0
 20
120.0
 30
0.0
 11
269.5
 21
120.0
 31
0.0
  0
LINE
  5
2E4
  8
0
 10
263.5
 20
127.0
 30
0.0
 11
262.5
 21
126.0
 31
0.0
  0
LINE
  5
2E5
  8
0
 10
286.5
 20
127.0
 30
0.0
 11
287.5
 21
126.0
 31
0.0
  0
LINE
  5
2E6
  8
0
 10
287.5
 20
116.0
 30
0.0
 11
286.5
 21
115.0
 31
0.0
  0
LINE
  5
2E7
  8
0
 10
263.5
 20
115.0
 30
0.0
 11
262.5
 21
116.0
 31
0.0
  0
LINE
  5
2E8
  8
2
 10
195.0
 20
120.0
 30
0.0
 11
195.0
 21
127.0
 31
0.0
  0
LINE
  5
2E9
  8
2
 10
205.0
 20
120.0
 30
0.0
 11
205.0
 21
127.0
 31
0.0
  0
LINE
  5
2EA
  8
2
 10
210.0
 20
120.0
 30
0.0
 11
180.0
 21
120.0
 31
0.0
  0
LINE
  5
2EB
  8
0
 10
148.0
 20
115.0
 30
0.0
 11
147.0
 21
116.0
 31
0.0
  0
LINE
  5
2EC
  8
0
 10
210.0
 20
116.0
 30
0.0
 11
209.0
 21
115.0
 31
0.0
  0
LINE
  5
2ED
  8
0
 10
209.0
 20
127.0
 30
0.0
 11
210.0
 21
126.0
 31
0.0
  0
LINE
  5
2EE
  8
0
 10
147.0
 20
124.0
 30
0.0
 11
155.19615200000001
 21
127.0
 31
0.0
  0
LINE
  5
2EF
  8
2
 10
156.5
 20
115.0
 30
0.0
 11
156.5
 21
127.0
 31
0.0
  0
LINE
  5
2F0
  8
2
 10
185.5
 20
120.0
 30
0.0
 11
185.5
 21
127.0
 31
0.0
  0
LINE
  5
2F1
  8
1
 10
162.0
 20
112.0
 30
0.0
 11
162.0
 21
130.16726600000001
 31
0.0
  0
LINE
  5
2F3
  8
1
 10
200.0
 20
112.0
 30
0.0
 11
200.0
 21
130.04451399999999
 31
0.0
  0
LINE
  5
2F4
  8
0
 10
210.0
 20
126.0
 30
0.0
 11
210.0
 21
116.0
 31
0.0
  0
LINE
  5
2F5
  8
0
 10
155.19615200000001
 20
127.0
 30
0.0
 11
209.0
 21
127.0
 31
0.0
  0
LINE
  5
2F6
  8
0
 10
147.0
 20
116.0
 30
0.0
 11
147.0
 21
124.0
 31
0.0
  0
LINE
  5
2F7
  8
0
 10
209.0
 20
115.0
 30
0.0
 11
148.0
 21
115.0
 31
0.0
  0
LINE
  5
2F8
  8
0
 10
155.66025400000001
 20
127.0
 30
0.0
 11
155.66025400000001
 21
115.0
 31
0.0
  0
LINE
  5
2F9
  8
2
 10
204.18799999999999
 20
127.0
 30
0.0
 11
204.18799999999999
 21
120.0
 31
0.0
  0
LINE
  5
2FA
  8
2
 10
195.81200000000001
 20
127.0
 30
0.0
 11
195.81200000000001
 21
120.0
 31
0.0
  0
LINE
  5
2FB
  8
0
 10
208.0
 20
192.5
 30
0.0
 11
155.66025400000001
 21
192.5
 31
0.0
  0
LINE
  5
2FC
  8
0
 10
147.0
 20
197.5
 30
0.0
 11
147.0
 21
212.5
 31
0.0
  0
LINE
  5
2FD
  8
0
 10
155.66025400000001
 20
217.5
 30
0.0
 11
208.0
 21
217.5
 31
0.0
  0
LINE
  5
2FE
  8
0
 10
210.0
 20
215.5
 30
0.0
 11
210.0
 21
194.5
 31
0.0
  0
LINE
  5
2FF
  8
1
 10
200.0
 20
196.02083300000001
 30
0.0
 11
200.0
 21
213.95623499999999
 31
0.0
  0
LINE
  5
301
  8
1
 10
162.0
 20
196.02083300000001
 30
0.0
 11
162.0
 21
213.95623499999999
 31
0.0
  0
LINE
  5
302
  8
0
 10
170.47372055837121
 20
199.5
 30
0.0
 11
162.0
 21
199.5
 31
0.0
  0
LINE
  5
303
  8
0
 10
170.47372055837121
 20
210.5
 30
0.0
 11
162.0
 21
210.5
 31
0.0
  0
CIRCLE
  5
304
  8
3
 10
200.0
 20
205.0
 30
0.0
 40
5.0
  0
ARC
  5
305
  8
2
 10
180.0
 20
205.0
 30
0.0
 40
5.5
 50
270.0
 51
90.0
  0
ARC
  5
306
  8
0
 10
162.0
 20
205.0
 30
0.0
 40
5.5
 50
90.0
 51
270.0
  0
LINE
  5
307
  8
0
 10
147.0
 20
197.5
 30
0.0
 11
155.66025400000001
 21
192.5
 31
0.0
  0
LINE
  5
308
  8
0
 10
147.0
 20
212.5
 30
0.0
 11
155.66025400000001
 21
217.5
 31
0.0
  0
LINE
  5
309
  8
0
 10
208.0
 20
217.5
 30
0.0
 11
210.0
 21
215.5
 31
0.0
  0
LINE
  5
30A
  8
0
 10
210.0
 20
194.5
 30
0.0
 11
208.0
 21
192.5
 31
0.0
  0
LINE
  5
30B
  8
2
 10
170.47372055837121
 20
199.5
 30
0.0
 11
210.0
 21
199.5
 31
0.0
  0
LINE
  5
30C
  8
2
 10
170.47372055837121
 20
210.5
 30
0.0
 11
210.0
 21
210.5
 31
0.0
  0
LINE
  5
30D
  8
1
 10
215.0
 20
205.0
 30
0.0
 11
142.0
 21
205.0
 31
0.0
  0
CIRCLE
  5
30E
  8
0
 10
200.0
 20
205.0
 30
0.0
 40
4.1879999999999988
  0
ARC
  5
30F
  8
0
 10
104.25
 20
88.580155999999988
 30
0.0
 40
12.275506999999999
 50
69.743841999999916
 51
110.2561580000001
  0
LINE
  5
310
  8
0
 10
108.5
 20
100.855662
 30
0.0
 11
108.25
 21
101.0
 31
0.0
  0
LINE
  5
311
  8
0
 10
108.5
 20
95.144338000000005
 30
0.0
 11
108.25
 21
95.0
 31
0.0
  0
ARC
  5
312
  8
0
 10
104.25
 20
107.419844
 30
0.0
 40
12.275506999999999
 50
249.74384199999989
 51
290.25615800000008
  0
LINE
  5
313
  8
0
 10
108.5
 20
100.855662
 30
0.0
 11
108.5
 21
95.144338000000005
 31
0.0
  0
LINE
  5
314
  8
0
 10
100.0
 20
100.096473
 30
0.0
 11
100.0
 21
95.903526999999997
 31
0.0
  0
LINE
  5
315
  8
0
 10
91.5
 20
100.855662
 30
0.0
 11
91.5
 21
95.144338000000005
 31
0.0
  0
LINE
  5
316
  8
0
 10
91.5
 20
95.144338000000005
 30
0.0
 11
91.75
 21
95.0
 31
0.0
  0
ARC
  5
317
  8
0
 10
95.750000000000014
 20
107.419844
 30
0.0
 40
12.275506999999999
 50
249.74384199999989
 51
290.25615800000008
  0
LINE
  5
318
  8
0
 10
91.5
 20
100.855662
 30
0.0
 11
91.75
 21
101.0
 31
0.0
  0
ARC
  5
319
  8
0
 10
95.750000000000014
 20
88.580155999999988
 30
0.0
 40
12.275506999999999
 50
69.743841999999916
 51
110.2561580000001
  0
LINE
  5
31A
  8
0
 10
108.25
 20
101.0
 30
0.0
 11
91.75
 21
101.0
 31
0.0
  0
LINE
  5
31B
  8
0
 10
91.75
 20
95.0
 30
0.0
 11
108.25
 21
95.0
 31
0.0
  0
LINE
  5
31E
  8
1
 10
100.0
 20
164.0
 30
0.0
 11
100.0
 21
70.0
 31
0.0
  0
LINE
  5
320
  8
0
 10
95.0
 20
155.5
 30
0.0
 11
105.0
 21
155.5
 31
0.0
  0
LINE
  5
322
  8
3
 10
95.750000000000014
 20
144.028246
 30
0.0
 11
95.750000000000014
 21
156.25
 31
0.0
  0
LINE
  5
323
  8
3
 10
104.25
 20
144.028246
 30
0.0
 11
104.25
 21
156.25
 31
0.0
  0
LINE
  5
324
  8
3
 10
104.25
 20
109.0
 30
0.0
 11
105.0
 21
110.299038
 31
0.0
  0
LINE
  5
325
  8
3
 10
104.25
 20
109.0
 30
0.0
 11
104.25
 21
101.0
 31
0.0
  0
LINE
  5
326
  8
3
 10
95.750000000000014
 20
109.0
 30
0.0
 11
95.0
 21
110.299038
 31
0.0
  0
LINE
  5
327
  8
0
 10
95.0
 20
78.5
 30
0.0
 11
105.0
 21
78.5
 31
0.0
  0
LINE
  5
328
  8
3
 10
95.750000000000014
 20
109.0
 30
0.0
 11
95.750000000000014
 21
101.0
 31
0.0
  0
LINE
  5
329
  8
0
 10
105.0
 20
109.0
 30
0.0
 11
95.0
 21
109.0
 31
0.0
  0
LINE
  5
32A
  8
0
 10
103.5
 20
157.0
 30
0.0
 11
105.0
 21
155.5
 31
0.0
  0
LINE
  5
32B
  8
0
 10
95.0
 20
155.5
 30
0.0
 11
96.5
 21
157.0
 31
0.0
  0
LINE
  5
32C
  8
0
 10
96.5
 20
77.0
 30
0.0
 11
95.0
 21
78.5
 31
0.0
  0
LINE
  5
32D
  8
0
 10
103.5
 20
77.0
 30
0.0
 11
105.0
 21
78.5
 31
0.0
  0
LINE
  5
32E
  8
0
 10
105.0
 20
155.5
 30
0.0
 11
105.0
 21
144.028246
 31
0.0
  0
LINE
  5
32F
  8
0
 10
96.5
 20
157.0
 30
0.0
 11
103.5
 21
157.0
 31
0.0
  0
LINE
  5
330
  8
0
 10
95.0
 20
78.5
 30
0.0
 11
95.0
 21
95.0
 31
0.0
  0
LINE
  5
331
  8
0
 10
103.5
 20
77.0
 30
0.0
 11
96.5
 21
77.0
 31
0.0
  0
ARC
  5
332
  8
0
 10
279.25
 20
88.580155999999988
 30
0.0
 40
12.275506999999999
 50
69.743841999999916
 51
110.2561580000001
  0
LINE
  5
333
  8
0
 10
283.5
 20
100.855662
 30
0.0
 11
283.25
 21
101.0
 31
0.0
  0
LINE
  5
334
  8
0
 10
283.5
 20
95.144338000000005
 30
0.0
 11
283.25
 21
95.0
 31
0.0
  0
ARC
  5
335
  8
0
 10
279.25
 20
107.419844
 30
0.0
 40
12.275506999999999
 50
249.74384199999989
 51
290.25615800000008
  0
LINE
  5
336
  8
0
 10
283.5
 20
100.855662
 30
0.0
 11
283.5
 21
95.144338000000005
 31
0.0
  0
LINE
  5
337
  8
0
 10
275.0
 20
100.096473
 30
0.0
 11
275.0
 21
95.903526999999997
 31
0.0
  0
LINE
  5
338
  8
0
 10
266.5
 20
100.855662
 30
0.0
 11
266.5
 21
95.144338000000005
 31
0.0
  0
LINE
  5
339
  8
0
 10
266.5
 20
95.144338000000005
 30
0.0
 11
266.75
 21
95.0
 31
0.0
  0
ARC
  5
33A
  8
0
 10
270.75
 20
107.419844
 30
0.0
 40
12.275506999999999
 50
249.74384199999989
 51
290.25615800000008
  0
LINE
  5
33B
  8
0
 10
266.5
 20
100.855662
 30
0.0
 11
266.75
 21
101.0
 31
0.0
  0
ARC
  5
33C
  8
0
 10
270.75
 20
88.580155999999988
 30
0.0
 40
12.275506999999999
 50
69.743841999999916
 51
110.2561580000001
  0
LINE
  5
33D
  8
0
 10
283.25
 20
101.0
 30
0.0
 11
266.75
 21
101.0
 31
0.0
  0
LINE
  5
33E
  8
0
 10
266.75
 20
95.0
 30
0.0
 11
283.25
 21
95.0
 31
0.0
  0
ARC
  5
33F
  8
0
 10
205.0
 20
205.0
 30
0.0
 40
5.0
 50
130.4823007351259
 51
229.51769926487401
  0
ARC
  5
340
  8
0
 10
205.0
 20
205.0
 30
0.0
 40
10.0
 50
18.19487200000065
 51
26.805127999999939
  0
ARC
  5
367
  8
0
 10
205.0
 20
205.0
 30
0.0
 40
10.0
 50
333.19487200000009
 51
341.8051279999994
  0
LINE
  5
368
  8
1
 10
219.5
 20
205.0
 30
0.0
 11
190.5
 21
205.0
 31
0.0
  0
LINE
  5
369
  8
1
 10
205.0
 20
190.5
 30
0.0
 11
205.0
 21
219.5
 31
0.0
  0
ARC
  5
36A
  8
0
 10
205.0
 20
205.0
 30
0.0
 40
8.5
 50
159.6807671368725
 51
200.31923286312741
  0
LINE
  5
36B
  8
0
 10
213.25
 20
95.0
 30
0.0
 11
196.75
 21
95.0
 31
0.0
  0
LINE
  5
36C
  8
0
 10
196.75
 20
101.0
 30
0.0
 11
213.25
 21
101.0
 31
0.0
  0
ARC
  5
36D
  8
0
 10
212.36121600000001
 20
96.510763999999995
 30
0.0
 40
4.344898999999999
 50
64.384247000000116
 51
124.3842470000001
  0
LINE
  5
36E
  8
0
 10
214.814955
 20
100.096473
 30
0.0
 11
213.25
 21
101.0
 31
0.0
  0
LINE
  5
36F
  8
0
 10
214.814955
 20
95.903526999999997
 30
0.0
 11
213.25
 21
95.0
 31
0.0
  0
ARC
  5
370
  8
0
 10
212.36121600000001
 20
99.489236000000005
 30
0.0
 40
4.344898999999999
 50
235.6157529999999
 51
295.61575299999993
  0
LINE
  5
371
  8
0
 10
214.814955
 20
100.096473
 30
0.0
 11
214.814955
 21
95.903526999999997
 31
0.0
  0
LINE
  5
372
  8
0
 10
209.907477
 20
100.096473
 30
0.0
 11
209.907477
 21
95.903526999999997
 31
0.0
  0
LINE
  5
373
  8
0
 10
200.092523
 20
100.096473
 30
0.0
 11
200.092523
 21
95.903526999999997
 31
0.0
  0
LINE
  5
374
  8
0
 10
195.185045
 20
100.096473
 30
0.0
 11
195.185045
 21
95.903526999999997
 31
0.0
  0
ARC
  5
375
  8
0
 10
205.0
 20
111.385148
 30
0.0
 40
16.24081099999999
 50
252.41204599999941
 51
287.58795400000059
  0
ARC
  5
376
  8
0
 10
197.63878399999999
 20
99.489236000000005
 30
0.0
 40
4.344898999999999
 50
244.3842470000001
 51
304.38424700000007
  0
LINE
  5
377
  8
0
 10
195.185045
 20
95.903526999999997
 30
0.0
 11
196.75
 21
95.0
 31
0.0
  0
LINE
  5
378
  8
0
 10
195.185045
 20
100.096473
 30
0.0
 11
196.75
 21
101.0
 31
0.0
  0
ARC
  5
379
  8
0
 10
205.0
 20
84.614851999999999
 30
0.0
 40
16.24081099999999
 50
72.412045999999393
 51
107.58795400000059
  0
ARC
  5
37A
  8
0
 10
197.63878399999999
 20
96.510763999999995
 30
0.0
 40
4.344898999999999
 50
55.61575299999987
 51
115.6157529999999
  0
LINE
  5
37B
  8
0
 10
210.0
 20
118.5
 30
0.0
 11
210.0
 21
115.40000000000001
 31
0.0
  0
LINE
  5
37D
  8
0
 10
214.5
 20
114.42265
 30
0.0
 11
214.5
 21
107.57735
 31
0.0
  0
LINE
  5
37E
  8
0
 10
213.925455
 20
114.42265
 30
0.0
 11
213.925455
 21
107.57735
 31
0.0
  0
LINE
  5
37F
  8
0
 10
209.50957399999999
 20
114.42265
 30
0.0
 11
209.50957399999999
 21
107.57735
 31
0.0
  0
LINE
  5
380
  8
0
 10
208.122499
 20
114.42265
 30
0.0
 11
208.122499
 21
107.57735
 31
0.0
  0
LINE
  5
381
  8
0
 10
213.5
 20
115.0
 30
0.0
 11
214.5
 21
114.42265
 31
0.0
  0
LINE
  5
382
  8
0
 10
214.5
 20
114.42265
 30
0.0
 11
213.925455
 21
114.42265
 31
0.0
  0
LINE
  5
383
  8
0
 10
209.50957399999999
 20
114.42265
 30
0.0
 11
208.122499
 21
114.42265
 31
0.0
  0
LINE
  5
384
  8
0
 10
201.877501
 20
114.42265
 30
0.0
 11
201.877501
 21
107.57735
 31
0.0
  0
LINE
  5
385
  8
0
 10
209.50957399999999
 20
107.57735
 30
0.0
 11
208.122499
 21
107.57735
 31
0.0
  0
LINE
  5
386
  8
0
 10
214.5
 20
107.57735
 30
0.0
 11
213.925455
 21
107.57735
 31
0.0
  0
LINE
  5
387
  8
0
 10
213.5
 20
107.0
 30
0.0
 11
214.5
 21
107.57735
 31
0.0
  0
LINE
  5
388
  8
0
 10
195.5
 20
107.57735
 30
0.0
 11
196.074545
 21
107.57735
 31
0.0
  0
LINE
  5
389
  8
0
 10
200.49042600000001
 20
107.57735
 30
0.0
 11
201.877501
 21
107.57735
 31
0.0
  0
LINE
  5
38A
  8
0
 10
200.49042600000001
 20
114.42265
 30
0.0
 11
201.877501
 21
114.42265
 31
0.0
  0
LINE
  5
38B
  8
0
 10
195.5
 20
114.42265
 30
0.0
 11
196.074545
 21
114.42265
 31
0.0
  0
LINE
  5
38C
  8
0
 10
201.877501
 20
114.42265
 30
0.0
 11
201.877501
 21
107.57735
 31
0.0
  0
LINE
  5
38D
  8
0
 10
200.49042600000001
 20
114.42265
 30
0.0
 11
200.49042600000001
 21
107.57735
 31
0.0
  0
LINE
  5
38E
  8
0
 10
196.074545
 20
114.42265
 30
0.0
 11
196.074545
 21
107.57735
 31
0.0
  0
LINE
  5
38F
  8
0
 10
195.5
 20
114.42265
 30
0.0
 11
195.5
 21
107.57735
 31
0.0
  0
LINE
  5
390
  8
0
 10
213.5
 20
115.0
 30
0.0
 11
196.5
 21
115.0
 31
0.0
  0
LINE
  5
391
  8
0
 10
200.0
 20
106.59999999999999
 30
0.0
 11
200.0
 21
101.0
 31
0.0
  0
LINE
  5
392
  8
3
 10
200.81200000000001
 20
105.193575
 30
0.0
 11
200.81200000000001
 21
101.0
 31
0.0
  0
LINE
  5
393
  8
3
 10
209.18799999999999
 20
105.193575
 30
0.0
 11
209.18799999999999
 21
101.0
 31
0.0
  0
LINE
  5
394
  8
0
 10
210.0
 20
106.59999999999999
 30
0.0
 11
210.0
 21
101.0
 31
0.0
  0
LINE
  5
395
  8
0
 10
210.0
 20
105.193575
 30
0.0
 11
200.0
 21
105.193575
 31
0.0
  0
LINE
  5
396
  8
3
 10
209.18799999999999
 20
105.193575
 30
0.0
 11
210.0
 21
106.59999999999999
 31
0.0
  0
LINE
  5
397
  8
3
 10
200.81200000000001
 20
105.193575
 30
0.0
 11
200.0
 21
106.59999999999999
 31
0.0
  0
LINE
  5
398
  8
0
 10
196.5
 20
107.0
 30
0.0
 11
213.5
 21
107.0
 31
0.0
  0
ARC
  5
399
  8
0
 10
210.40000000000001
 20
106.59999999999999
 30
0.0
 40
0.4
 50
90.0
 51
180.0
  0
ARC
  5
39A
  8
0
 10
199.59999999999999
 20
106.59999999999999
 30
0.0
 40
0.4
 50
0.0
 51
90.0
  0
LINE
  5
39B
  8
0
 10
196.5
 20
115.0
 30
0.0
 11
195.5
 21
114.42265
 31
0.0
  0
LINE
  5
39C
  8
0
 10
196.5
 20
107.0
 30
0.0
 11
195.5
 21
107.57735
 31
0.0
  0
ARC
  5
39D
  8
0
 10
211.71751399999999
 20
108.52889999999999
 30
0.0
 40
6.2937500000000002
 50
69.462843999999535
 51
110.53715600000039
  0
ARC
  5
39E
  8
0
 10
205.0
 20
102.43514999999999
 30
0.0
 40
12.387499999999999
 50
75.40004900000045
 51
104.59995099999951
  0
ARC
  5
39F
  8
0
 10
211.71751399999999
 20
113.47110000000001
 30
0.0
 40
6.2937500000000002
 50
249.46284399999959
 51
290.53715600000038
  0
ARC
  5
3A0
  8
0
 10
205.0
 20
119.56485000000001
 30
0.0
 40
12.387499999999999
 50
255.40004900000051
 51
284.59995099999952
  0
ARC
  5
3A1
  8
0
 10
198.28248600000001
 20
113.47110000000001
 30
0.0
 40
6.2937500000000002
 50
249.46284399999959
 51
290.53715600000038
  0
ARC
  5
3A2
  8
0
 10
198.28248600000001
 20
108.52889999999999
 30
0.0
 40
6.2937500000000002
 50
69.462843999999535
 51
110.53715600000039
  0
LINE
  5
3A3
  8
1
 10
205.0
 20
124.0
 30
0.0
 11
205.0
 21
70.0
 31
0.0
  0
ARC
  5
3A4
  8
0
 10
210.40000000000001
 20
115.40000000000001
 30
0.0
 40
0.4
 50
180.0
 51
270.0
  0
LINE
  5
3A9
  8
0
 10
208.5
 20
75.0
 30
0.0
 11
201.5
 21
75.0
 31
0.0
  0
LINE
  5
3AA
  8
0
 10
210.0
 20
76.5
 30
0.0
 11
208.5
 21
75.0
 31
0.0
  0
LINE
  5
3AB
  8
0
 10
201.5
 20
75.0
 30
0.0
 11
200.0
 21
76.5
 31
0.0
  0
LINE
  5
3AC
  8
0
 10
210.0
 20
76.5
 30
0.0
 11
200.0
 21
76.5
 31
0.0
  0
LINE
  5
3AD
  8
0
 10
188.25
 20
95.0
 30
0.0
 11
171.75
 21
95.0
 31
0.0
  0
LINE
  5
3AE
  8
0
 10
171.75
 20
101.0
 30
0.0
 11
188.25
 21
101.0
 31
0.0
  0
ARC
  5
3AF
  8
0
 10
187.36121600000001
 20
96.510763999999995
 30
0.0
 40
4.344898999999999
 50
64.384247000000116
 51
124.3842470000001
  0
LINE
  5
3B0
  8
0
 10
189.814955
 20
100.096473
 30
0.0
 11
188.25
 21
101.0
 31
0.0
  0
LINE
  5
3B1
  8
0
 10
189.814955
 20
95.903526999999997
 30
0.0
 11
188.25
 21
95.0
 31
0.0
  0
ARC
  5
3B2
  8
0
 10
187.36121600000001
 20
99.489236000000005
 30
0.0
 40
4.344898999999999
 50
235.6157529999999
 51
295.61575299999993
  0
LINE
  5
3B3
  8
0
 10
189.814955
 20
100.096473
 30
0.0
 11
189.814955
 21
95.903526999999997
 31
0.0
  0
LINE
  5
3B4
  8
0
 10
184.907477
 20
100.096473
 30
0.0
 11
184.907477
 21
95.903526999999997
 31
0.0
  0
LINE
  5
3B5
  8
0
 10
175.092523
 20
100.096473
 30
0.0
 11
175.092523
 21
95.903526999999997
 31
0.0
  0
LINE
  5
3B6
  8
0
 10
170.185045
 20
100.096473
 30
0.0
 11
170.185045
 21
95.903526999999997
 31
0.0
  0
ARC
  5
3B7
  8
0
 10
180.0
 20
111.385148
 30
0.0
 40
16.24081099999999
 50
252.41204599999941
 51
287.58795400000059
  0
ARC
  5
3B8
  8
0
 10
172.63878399999999
 20
99.489236000000005
 30
0.0
 40
4.344898999999999
 50
244.3842470000001
 51
304.38424700000007
  0
LINE
  5
3B9
  8
0
 10
170.185045
 20
95.903526999999997
 30
0.0
 11
171.75
 21
95.0
 31
0.0
  0
LINE
  5
3BA
  8
0
 10
170.185045
 20
100.096473
 30
0.0
 11
171.75
 21
101.0
 31
0.0
  0
ARC
  5
3BB
  8
0
 10
180.0
 20
84.614851999999999
 30
0.0
 40
16.24081099999999
 50
72.412045999999393
 51
107.58795400000059
  0
ARC
  5
3BC
  8
0
 10
172.63878399999999
 20
96.510763999999995
 30
0.0
 40
4.344898999999999
 50
55.61575299999987
 51
115.6157529999999
  0
LINE
  5
3BF
  8
1
 10
180.0
 20
164.0
 30
0.0
 11
180.0
 21
72.0
 31
0.0
  0
LINE
  5
3C1
  8
0
 10
175.0
 20
155.5
 30
0.0
 11
185.0
 21
155.5
 31
0.0
  0
LINE
  5
3C3
  8
3
 10
175.75
 20
144.028246
 30
0.0
 11
175.75
 21
156.25
 31
0.0
  0
LINE
  5
3C4
  8
3
 10
184.25
 20
144.028246
 30
0.0
 11
184.25
 21
156.25
 31
0.0
  0
LINE
  5
3C5
  8
3
 10
184.25
 20
109.0
 30
0.0
 11
185.0
 21
110.299038
 31
0.0
  0
LINE
  5
3C6
  8
3
 10
184.25
 20
109.0
 30
0.0
 11
184.25
 21
101.0
 31
0.0
  0
LINE
  5
3C7
  8
3
 10
175.75
 20
109.0
 30
0.0
 11
175.0
 21
110.299038
 31
0.0
  0
LINE
  5
3C8
  8
0
 10
175.0
 20
78.5
 30
0.0
 11
185.0
 21
78.5
 31
0.0
  0
LINE
  5
3C9
  8
3
 10
175.75
 20
109.0
 30
0.0
 11
175.75
 21
101.0
 31
0.0
  0
LINE
  5
3CA
  8
0
 10
185.0
 20
109.0
 30
0.0
 11
175.0
 21
109.0
 31
0.0
  0
LINE
  5
3CB
  8
0
 10
183.5
 20
157.0
 30
0.0
 11
185.0
 21
155.5
 31
0.0
  0
LINE
  5
3CC
  8
0
 10
175.0
 20
155.5
 30
0.0
 11
176.5
 21
157.0
 31
0.0
  0
LINE
  5
3CD
  8
0
 10
176.5
 20
77.0
 30
0.0
 11
175.0
 21
78.5
 31
0.0
  0
LINE
  5
3CE
  8
0
 10
183.5
 20
77.0
 30
0.0
 11
185.0
 21
78.5
 31
0.0
  0
LINE
  5
3CF
  8
0
 10
185.0
 20
155.5
 30
0.0
 11
185.0
 21
144.028246
 31
0.0
  0
LINE
  5
3D0
  8
0
 10
176.5
 20
157.0
 30
0.0
 11
183.5
 21
157.0
 31
0.0
  0
LINE
  5
3D1
  8
0
 10
175.0
 20
78.5
 30
0.0
 11
175.0
 21
95.0
 31
0.0
  0
LINE
  5
3D2
  8
0
 10
183.5
 20
77.0
 30
0.0
 11
176.5
 21
77.0
 31
0.0
  0
CIRCLE
  5
3D5
  8
0
 10
180.0
 20
205.0
 30
0.0
 40
4.25
  0
CIRCLE
  5
3D6
  8
3
 10
180.0
 20
205.0
 30
0.0
 40
5.0
  0
LINE
  5
3D7
  8
0
 10
189.53793899999999
 20
204.520196
 30
0.0
 11
185.18449200000001
 21
196.979804
 31
0.0
  0
ARC
  5
3D8
  8
0
 10
180.0
 20
205.0
 30
0.0
 40
9.5500000000000007
 50
357.1201729999998
 51
2.879827000000224
  0
ARC
  5
3D9
  8
0
 10
180.0
 20
205.0
 30
0.0
 40
9.5500000000000007
 50
57.120173000000619
 51
62.879826999999793
  0
LINE
  5
3DA
  8
0
 10
185.18449200000001
 20
213.020196
 30
0.0
 11
189.53793899999999
 21
205.479804
 31
0.0
  0
ARC
  5
3DB
  8
0
 10
180.0
 20
205.0
 30
0.0
 40
9.5500000000000007
 50
117.12017300000019
 51
122.8798269999993
  0
LINE
  5
3DC
  8
0
 10
175.64655300000001
 20
213.5
 30
0.0
 11
184.3534469999999
 21
213.5
 31
0.0
  0
ARC
  5
3DD
  8
0
 10
180.0
 20
205.0
 30
0.0
 40
9.5500000000000007
 50
177.12017299999971
 51
182.8798270000002
  0
LINE
  5
3DE
  8
0
 10
170.46206100000001
 20
205.479804
 30
0.0
 11
174.81550799999999
 21
213.020196
 31
0.0
  0
ARC
  5
3DF
  8
0
 10
180.0
 20
205.0
 30
0.0
 40
9.5500000000000007
 50
237.12017300000059
 51
242.87982699999981
  0
LINE
  5
3E0
  8
0
 10
174.81550799999999
 20
196.979804
 30
0.0
 11
170.46206100000001
 21
204.520196
 31
0.0
  0
ARC
  5
3E1
  8
0
 10
180.0
 20
205.0
 30
0.0
 40
9.5500000000000007
 50
297.12017300000019
 51
302.87982699999941
  0
LINE
  5
3E2
  8
0
 10
184.3534469999999
 20
196.5
 30
0.0
 11
175.64655300000001
 21
196.5
 31
0.0
  0
CIRCLE
  5
3E3
  8
0
 10
180.0
 20
205.0
 30
0.0
 40
8.0
  0
CIRCLE
  5
3E4
  8
0
 10
180.0
 20
205.0
 30
0.0
 40
11.0
  0
LINE
  5
3E5
  8
1
 10
180.0
 20
221.0
 30
0.0
 11
180.0
 21
189.0
 31
0.0
  0
LINE
  5
3E9
  8
0
 10
107.5
 20
124.0
 30
0.0
 11
110.34616
 21
127.0
 31
0.0
  0
LINE
  5
3EA
  8
0
 10
92.5
 20
124.0
 30
0.0
 11
89.653840000000002
 21
127.0
 31
0.0
  0
LINE
  5
3EB
  8
0
 10
87.5
 20
126.0
 30
0.0
 11
87.5
 21
116.0
 31
0.0
  0
LINE
  5
3EC
  8
0
 10
88.499999999999986
 20
115.0
 30
0.0
 11
111.5
 21
115.0
 31
0.0
  0
LINE
  5
3ED
  8
0
 10
112.5
 20
116.0
 30
0.0
 11
112.5
 21
126.0
 31
0.0
  0
LINE
  5
3EE
  8
0
 10
111.5
 20
127.0
 30
0.0
 11
88.499999999999986
 21
127.0
 31
0.0
  0
LINE
  5
3F0
  8
0
 10
92.5
 20
124.0
 30
0.0
 11
107.5
 21
124.0
 31
0.0
  0
LINE
  5
3F1
  8
0
 10
111.5
 20
115.0
 30
0.0
 11
112.5
 21
116.0
 31
0.0
  0
LINE
  5
3F2
  8
0
 10
88.499999999999986
 20
115.0
 30
0.0
 11
87.5
 21
116.0
 31
0.0
  0
LINE
  5
3F3
  8
0
 10
87.5
 20
126.0
 30
0.0
 11
88.499999999999986
 21
127.0
 31
0.0
  0
LINE
  5
3F4
  8
0
 10
111.5
 20
127.0
 30
0.0
 11
112.5
 21
126.0
 31
0.0
  0
LINE
  5
3F5
  8
0
 10
92.5
 20
124.0
 30
0.0
 11
92.5
 21
115.0
 31
0.0
  0
LINE
  5
3F6
  8
0
 10
107.5
 20
124.0
 30
0.0
 11
107.5
 21
115.0
 31
0.0
  0
LINE
  5
3F8
  8
0
 10
283.5
 20
143.57824600000001
 30
0.0
 11
283.5
 21
133.428246
 31
0.0
  0
ARC
  5
3F9
  8
0
 10
283.89999999999998
 20
133.428246
 30
0.0
 40
0.4
 50
180.0
 51
270.0
  0
LINE
  5
3FA
  8
0
 10
275.0
 20
143.124719
 30
0.0
 11
275.0
 21
133.028246
 31
0.0
  0
LINE
  5
3FB
  8
0
 10
266.5
 20
143.57824600000001
 30
0.0
 11
266.5
 21
133.428246
 31
0.0
  0
LINE
  5
3FC
  8
0
 10
283.05000000000001
 20
144.028246
 30
0.0
 11
266.94999999999999
 21
144.028246
 31
0.0
  0
LINE
  5
3FD
  8
0
 10
266.94999999999999
 20
144.028246
 30
0.0
 11
266.5
 21
143.57824600000001
 31
0.0
  0
LINE
  5
3FE
  8
0
 10
283.5
 20
143.57824600000001
 30
0.0
 11
283.05000000000001
 21
144.028246
 31
0.0
  0
ARC
  5
3FF
  8
0
 10
270.75
 20
133.58093099999999
 30
0.0
 40
10.447315
 50
65.995832000000817
 51
114.0041679999992
  0
ARC
  5
400
  8
0
 10
279.25
 20
133.58093099999999
 30
0.0
 40
10.447315
 50
65.995832000000817
 51
114.0041679999992
  0
LINE
  5
401
  8
0
 10
275.0
 20
143.124719
 30
0.0
 11
275.0
 21
138.93177299999999
 31
0.0
  0
ARC
  5
402
  8
0
 10
266.10000000000002
 20
133.428246
 30
0.0
 40
0.4
 50
270.0
 51
0.0
  0
LINE
  5
403
  8
0
 10
264.5
 20
133.028246
 30
0.0
 11
285.5
 21
133.028246
 31
0.0
  0
LINE
  5
404
  8
0
 10
264.5
 20
133.028246
 30
0.0
 11
264.0
 21
132.528246
 31
0.0
  0
LINE
  5
405
  8
0
 10
264.0
 20
132.528246
 30
0.0
 11
264.0
 21
130.928246
 31
0.0
  0
LINE
  5
406
  8
0
 10
285.5
 20
133.028246
 30
0.0
 11
286.0
 21
132.528246
 31
0.0
  0
LINE
  5
408
  8
0
 10
286.0
 20
130.928246
 30
0.0
 11
264.0
 21
130.928246
 31
0.0
  0
ARC
  5
409
  8
0
 10
275.0
 20
153.37818999999999
 30
0.0
 40
25.0
 50
293.77614555965363
 51
296.10388099999932
  0
ARC
  5
40A
  8
0
 10
275.0
 20
153.37818999999999
 30
0.0
 40
25.0
 50
243.89611900000079
 51
246.22385444034629
  0
LINE
  5
40B
  8
0
 10
286.0
 20
132.528246
 30
0.0
 11
286.0
 21
130.928246
 31
0.0
  0
LINE
  5
415
  8
0
 10
264.0
 20
130.0
 30
0.0
 11
264.5
 21
130.5
 31
0.0
  0
LINE
  5
416
  8
0
 10
264.5
 20
127.0
 30
0.0
 11
264.0
 21
127.5
 31
0.0
  0
LINE
  5
417
  8
0
 10
286.0
 20
130.0
 30
0.0
 11
285.5
 21
130.5
 31
0.0
  0
LINE
  5
418
  8
0
 10
285.5
 20
127.0
 30
0.0
 11
286.0
 21
127.5
 31
0.0
  0
LINE
  5
419
  8
0
 10
264.0
 20
127.5
 30
0.0
 11
264.0
 21
130.0
 31
0.0
  0
LINE
  5
41A
  8
0
 10
285.5
 20
127.0
 30
0.0
 11
264.5
 21
127.0
 31
0.0
  0
LINE
  5
41B
  8
0
 10
286.0
 20
130.0
 30
0.0
 11
286.0
 21
127.5
 31
0.0
  0
LINE
  5
41C
  8
0
 10
264.5
 20
130.5
 30
0.0
 11
285.5
 21
130.5
 31
0.0
  0
LINE
  5
422
  8
0
 10
213.925455
 20
209.50957399999999
 30
0.0
 11
210.0
 21
213.4350289999999
 31
0.0
  0
LINE
  5
423
  8
0
 10
214.5
 20
201.877501
 30
0.0
 11
214.5
 21
208.122499
 31
0.0
  0
LINE
  5
424
  8
0
 10
210.0
 20
196.56497100000001
 30
0.0
 11
213.925455
 21
200.49042600000001
 31
0.0
  0
LINE
  5
425
  8
0
 10
191.0
 20
132.528246
 30
0.0
 11
191.0
 21
130.928246
 31
0.0
  0
LINE
  5
426
  8
0
 10
184.77500000000001
 20
143.133353
 30
0.0
 11
184.77500000000001
 21
133.028246
 31
0.0
  0
ARC
  5
427
  8
0
 10
180.0
 20
130.84149600000001
 30
0.0
 40
13.18675
 50
68.770416999999682
 51
90.0
  0
ARC
  5
428
  8
0
 10
187.16249999999999
 20
140.403246
 30
0.0
 40
3.6267949999999991
 50
71.169949999999758
 51
131.1699500000002
  0
ARC
  5
429
  8
0
 10
180.0
 20
153.37818999999999
 30
0.0
 40
25.0
 50
243.89611899999929
 51
246.22385444034629
  0
ARC
  5
42A
  8
0
 10
180.0
 20
153.37818999999999
 30
0.0
 40
25.0
 50
293.77614555965363
 51
296.10388100000068
  0
LINE
  5
42B
  8
0
 10
191.0
 20
130.928246
 30
0.0
 11
169.0
 21
130.928246
 31
0.0
  0
LINE
  5
42C
  8
0
 10
189.55000000000001
 20
143.133353
 30
0.0
 11
189.55000000000001
 21
133.428246
 31
0.0
  0
LINE
  5
42E
  8
0
 10
189.55000000000001
 20
143.133353
 30
0.0
 11
188.0
 21
144.028246
 31
0.0
  0
LINE
  5
42F
  8
0
 10
170.44999999999999
 20
143.133353
 30
0.0
 11
172.0
 21
144.028246
 31
0.0
  0
ARC
  5
430
  8
0
 10
172.83750000000001
 20
140.403246
 30
0.0
 40
3.6267949999999991
 50
48.83004999999978
 51
108.8300500000002
  0
ARC
  5
431
  8
0
 10
172.83750000000001
 20
140.403246
 30
0.0
 40
3.6267949999999991
 50
131.1699500000002
 51
131.1699500000002
  0
ARC
  5
432
  8
0
 10
180.0
 20
130.84149600000001
 30
0.0
 40
13.18675
 50
90.0
 51
111.2295830000003
  0
LINE
  5
433
  8
0
 10
188.0
 20
144.028246
 30
0.0
 11
172.0
 21
144.028246
 31
0.0
  0
LINE
  5
434
  8
0
 10
175.22499999999999
 20
143.133353
 30
0.0
 11
175.22499999999999
 21
133.028246
 31
0.0
  0
LINE
  5
435
  8
0
 10
170.44999999999999
 20
143.133353
 30
0.0
 11
170.44999999999999
 21
133.466465
 31
0.0
  0
ARC
  5
436
  8
0
 10
189.94999999999999
 20
133.428246
 30
0.0
 40
0.4
 50
180.0
 51
270.0
  0
LINE
  5
437
  8
0
 10
190.5
 20
133.028246
 30
0.0
 11
191.0
 21
132.528246
 31
0.0
  0
ARC
  5
438
  8
0
 10
170.05000000000001
 20
133.428246
 30
0.0
 40
0.4
 50
270.0
 51
0.0
  0
LINE
  5
439
  8
0
 10
169.0
 20
132.528246
 30
0.0
 11
169.0
 21
130.928246
 31
0.0
  0
LINE
  5
43A
  8
0
 10
169.5
 20
133.028246
 30
0.0
 11
169.0
 21
132.528246
 31
0.0
  0
LINE
  5
43B
  8
0
 10
169.5
 20
133.028246
 30
0.0
 11
190.5
 21
133.028246
 31
0.0
  0
LINE
  5
446
  8
0
 10
169.0
 20
130.0
 30
0.0
 11
169.5
 21
130.5
 31
0.0
  0
LINE
  5
447
  8
0
 10
169.5
 20
127.0
 30
0.0
 11
169.0
 21
127.5
 31
0.0
  0
LINE
  5
448
  8
0
 10
191.0
 20
130.0
 30
0.0
 11
190.5
 21
130.5
 31
0.0
  0
LINE
  5
449
  8
0
 10
190.5
 20
127.0
 30
0.0
 11
191.0
 21
127.5
 31
0.0
  0
LINE
  5
44A
  8
0
 10
169.0
 20
127.5
 30
0.0
 11
169.0
 21
130.0
 31
0.0
  0
LINE
  5
44B
  8
0
 10
190.5
 20
127.0
 30
0.0
 11
169.5
 21
127.0
 31
0.0
  0
LINE
  5
44C
  8
0
 10
191.0
 20
130.0
 30
0.0
 11
191.0
 21
127.5
 31
0.0
  0
LINE
  5
44D
  8
0
 10
169.5
 20
130.5
 30
0.0
 11
190.5
 21
130.5
 31
0.0
  0
LINE
  5
44F
  8
0
 10
108.5
 20
143.57824600000001
 30
0.0
 11
108.5
 21
133.428246
 31
0.0
  0
ARC
  5
450
  8
0
 10
108.90000000000001
 20
133.428246
 30
0.0
 40
0.4
 50
180.0
 51
270.0
  0
LINE
  5
451
  8
0
 10
100.0
 20
143.124719
 30
0.0
 11
100.0
 21
133.028246
 31
0.0
  0
LINE
  5
452
  8
0
 10
91.5
 20
143.57824600000001
 30
0.0
 11
91.5
 21
133.428246
 31
0.0
  0
LINE
  5
453
  8
0
 10
108.05
 20
144.028246
 30
0.0
 11
91.950000000000003
 21
144.028246
 31
0.0
  0
LINE
  5
454
  8
0
 10
91.950000000000003
 20
144.028246
 30
0.0
 11
91.5
 21
143.57824600000001
 31
0.0
  0
LINE
  5
455
  8
0
 10
108.5
 20
143.57824600000001
 30
0.0
 11
108.05
 21
144.028246
 31
0.0
  0
ARC
  5
456
  8
0
 10
95.750000000000014
 20
133.58093099999999
 30
0.0
 40
10.447315
 50
65.995832000000064
 51
114.00416799999989
  0
ARC
  5
457
  8
0
 10
104.25
 20
133.58093099999999
 30
0.0
 40
10.447315
 50
65.995832000000064
 51
114.00416799999989
  0
ARC
  5
459
  8
0
 10
91.099999999999994
 20
133.428246
 30
0.0
 40
0.4
 50
270.0
 51
0.0
  0
LINE
  5
45A
  8
0
 10
89.500000000000014
 20
133.028246
 30
0.0
 11
110.5
 21
133.028246
 31
0.0
  0
LINE
  5
45B
  8
0
 10
89.500000000000014
 20
133.028246
 30
0.0
 11
89.0
 21
132.528246
 31
0.0
  0
LINE
  5
45C
  8
0
 10
89.0
 20
132.528246
 30
0.0
 11
89.0
 21
130.928246
 31
0.0
  0
LINE
  5
45D
  8
0
 10
110.5
 20
133.028246
 30
0.0
 11
111.0
 21
132.528246
 31
0.0
  0
LINE
  5
45F
  8
0
 10
111.0
 20
130.928246
 30
0.0
 11
89.0
 21
130.928246
 31
0.0
  0
ARC
  5
460
  8
0
 10
100.0
 20
153.37818999999999
 30
0.0
 40
25.0
 50
293.77614555965363
 51
296.10388099999989
  0
ARC
  5
461
  8
0
 10
100.0
 20
153.37818999999999
 30
0.0
 40
25.0
 50
243.89611900000011
 51
246.22385444034629
  0
LINE
  5
462
  8
0
 10
111.0
 20
132.528246
 30
0.0
 11
111.0
 21
130.928246
 31
0.0
  0
LINE
  5
46C
  8
0
 10
89.0
 20
130.0
 30
0.0
 11
89.500000000000014
 21
130.5
 31
0.0
  0
LINE
  5
46D
  8
0
 10
89.500000000000014
 20
127.0
 30
0.0
 11
89.0
 21
127.5
 31
0.0
  0
LINE
  5
46E
  8
0
 10
111.0
 20
130.0
 30
0.0
 11
110.5
 21
130.5
 31
0.0
  0
LINE
  5
46F
  8
0
 10
110.5
 20
127.0
 30
0.0
 11
111.0
 21
127.5
 31
0.0
  0
LINE
  5
470
  8
0
 10
89.0
 20
127.5
 30
0.0
 11
89.0
 21
130.0
 31
0.0
  0
LINE
  5
471
  8
0
 10
110.5
 20
127.0
 30
0.0
 11
89.500000000000014
 21
127.0
 31
0.0
  0
LINE
  5
472
  8
0
 10
111.0
 20
130.0
 30
0.0
 11
111.0
 21
127.5
 31
0.0
  0
LINE
  5
473
  8
0
 10
89.500000000000014
 20
130.5
 30
0.0
 11
110.5
 21
130.5
 31
0.0
  0
ARC
  5
474
  8
0
 10
205.0
 20
205.0
 30
0.0
 40
8.5
 50
306.03187907247059
 51
53.968120927529412
  0
LINE
  5
477
  8
0
 10
105.0
 20
95.0
 30
0.0
 11
105.0
 21
78.5
 31
0.0
  0
LINE
  5
478
  8
3
 10
104.25
 20
95.0
 30
0.0
 11
104.25
 21
77.75
 31
0.0
  0
LINE
  5
479
  8
3
 10
95.750000000000014
 20
95.0
 30
0.0
 11
95.750000000000014
 21
77.75
 31
0.0
  0
LINE
  5
47A
  8
0
 10
95.0
 20
101.0
 30
0.0
 11
95.0
 21
115.0
 31
0.0
  0
LINE
  5
47B
  8
3
 10
175.75
 20
95.0
 30
0.0
 11
175.75
 21
77.75
 31
0.0
  0
LINE
  5
47C
  8
0
 10
175.0
 20
101.0
 30
0.0
 11
175.0
 21
115.0
 31
0.0
  0
LINE
  5
47D
  8
0
 10
185.0
 20
95.0
 30
0.0
 11
185.0
 21
78.5
 31
0.0
  0
LINE
  5
47E
  8
3
 10
184.25
 20
95.0
 30
0.0
 11
184.25
 21
77.75
 31
0.0
  0
LINE
  5
47F
  8
0
 10
210.0
 20
95.0
 30
0.0
 11
210.0
 21
76.5
 31
0.0
  0
LINE
  5
480
  8
3
 10
209.18799999999999
 20
95.0
 30
0.0
 11
209.18799999999999
 21
75.688000000000002
 31
0.0
  0
LINE
  5
481
  8
3
 10
200.81200000000001
 20
95.0
 30
0.0
 11
200.81200000000001
 21
75.688000000000002
 31
0.0
  0
LINE
  5
482
  8
0
 10
200.0
 20
95.0
 30
0.0
 11
200.0
 21
76.5
 31
0.0
  0
LINE
  5
483
  8
0
 10
185.0
 20
115.0
 30
0.0
 11
185.0
 21
101.0
 31
0.0
  0
LINE
  5
484
  8
0
 10
175.0
 20
144.028246
 30
0.0
 11
175.0
 21
155.5
 31
0.0
  0
LINE
  5
48D
  8
0
 10
270.0
 20
155.5
 30
0.0
 11
280.0
 21
155.5
 31
0.0
  0
LINE
  5
48E
  8
3
 10
270.75
 20
144.028246
 30
0.0
 11
270.75
 21
156.25
 31
0.0
  0
LINE
  5
48F
  8
3
 10
279.25
 20
144.028246
 30
0.0
 11
279.25
 21
156.25
 31
0.0
  0
LINE
  5
490
  8
0
 10
278.5
 20
157.0
 30
0.0
 11
280.0
 21
155.5
 31
0.0
  0
LINE
  5
491
  8
0
 10
270.0
 20
155.5
 30
0.0
 11
271.5
 21
157.0
 31
0.0
  0
LINE
  5
492
  8
0
 10
280.0
 20
155.5
 30
0.0
 11
280.0
 21
144.028246
 31
0.0
  0
LINE
  5
493
  8
0
 10
271.5
 20
157.0
 30
0.0
 11
278.5
 21
157.0
 31
0.0
  0
LINE
  5
494
  8
0
 10
270.0
 20
144.028246
 30
0.0
 11
270.0
 21
155.5
 31
0.0
  0
LINE
  5
496
  8
0
 10
280.0
 20
95.0
 30
0.0
 11
280.0
 21
76.5
 31
0.0
  0
LINE
  5
497
  8
3
 10
279.18799999999999
 20
95.0
 30
0.0
 11
279.18799999999999
 21
75.688000000000002
 31
0.0
  0
LINE
  5
498
  8
3
 10
270.81200000000001
 20
95.0
 30
0.0
 11
270.81200000000001
 21
75.688000000000002
 31
0.0
  0
LINE
  5
499
  8
0
 10
270.0
 20
95.0
 30
0.0
 11
270.0
 21
76.5
 31
0.0
  0
LINE
  5
49B
  8
0
 10
109.5
 20
114.42265
 30
0.0
 11
109.5
 21
107.57735
 31
0.0
  0
LINE
  5
49C
  8
0
 10
108.925455
 20
114.42265
 30
0.0
 11
108.925455
 21
107.57735
 31
0.0
  0
LINE
  5
49F
  8
0
 10
108.5
 20
115.0
 30
0.0
 11
109.5
 21
114.42265
 31
0.0
  0
LINE
  5
4A0
  8
0
 10
109.5
 20
114.42265
 30
0.0
 11
108.925455
 21
114.42265
 31
0.0
  0
LINE
  5
4A4
  8
0
 10
109.5
 20
107.57735
 30
0.0
 11
108.925455
 21
107.57735
 31
0.0
  0
LINE
  5
4A5
  8
0
 10
108.5
 20
107.0
 30
0.0
 11
109.5
 21
107.57735
 31
0.0
  0
LINE
  5
4A6
  8
0
 10
90.5
 20
107.57735
 30
0.0
 11
91.074545000000015
 21
107.57735
 31
0.0
  0
LINE
  5
4A9
  8
0
 10
90.5
 20
114.42265
 30
0.0
 11
91.074545000000015
 21
114.42265
 31
0.0
  0
LINE
  5
4AC
  8
0
 10
91.074545000000015
 20
114.42265
 30
0.0
 11
91.074545000000015
 21
107.57735
 31
0.0
  0
LINE
  5
4AD
  8
0
 10
90.5
 20
114.42265
 30
0.0
 11
90.5
 21
107.57735
 31
0.0
  0
LINE
  5
4AF
  8
0
 10
91.5
 20
107.0
 30
0.0
 11
95.0
 21
107.0
 31
0.0
  0
LINE
  5
4B0
  8
0
 10
91.5
 20
115.0
 30
0.0
 11
90.5
 21
114.42265
 31
0.0
  0
LINE
  5
4B1
  8
0
 10
91.5
 20
107.0
 30
0.0
 11
90.5
 21
107.57735
 31
0.0
  0
ARC
  5
4B2
  8
0
 10
106.71751399999999
 20
108.52889999999999
 30
0.0
 40
6.2937500000000002
 50
69.462844000001112
 51
105.83643019683851
  0
ARC
  5
4B4
  8
0
 10
106.71751399999999
 20
113.47110000000001
 30
0.0
 40
6.2937500000000002
 50
254.16356980316149
 51
290.5371559999989
  0
ARC
  5
4B6
  8
0
 10
93.282486000000006
 20
113.47110000000001
 30
0.0
 40
6.2937500000000002
 50
249.4628440000011
 51
285.83643019683848
  0
ARC
  5
4B7
  8
0
 10
93.282486000000006
 20
108.52889999999999
 30
0.0
 40
6.2937500000000002
 50
74.163569803161508
 51
110.5371559999989
  0
LINE
  5
4B8
  8
0
 10
105.0
 20
107.0
 30
0.0
 11
108.5
 21
107.0
 31
0.0
  0
LINE
  5
4B9
  8
0
 10
105.0
 20
115.0
 30
0.0
 11
105.0
 21
101.0
 31
0.0
  0
LINE
  5
4BA
  8
0
 10
95.0
 20
144.028246
 30
0.0
 11
95.0
 21
155.5
 31
0.0
  0
LINE
  5
4BC
  8
0
 10
95.0
 20
78.5
 30
0.0
 11
95.0
 21
76.5
 31
0.0
  0
LINE
  5
4BD
  8
3
 10
95.811999999999998
 20
77.687999999999974
 30
0.0
 11
95.811999999999998
 21
75.688000000000002
 31
0.0
  0
LINE
  5
4BE
  8
3
 10
104.1879999999999
 20
77.687999999999974
 30
0.0
 11
104.188
 21
75.688000000000002
 31
0.0
  0
LINE
  5
4BF
  8
0
 10
105.0
 20
78.5
 30
0.0
 11
105.0
 21
76.5
 31
0.0
  0
LINE
  5
4C1
  8
0
 10
103.5
 20
75.0
 30
0.0
 11
96.5
 21
75.0
 31
0.0
  0
LINE
  5
4C2
  8
0
 10
105.0
 20
76.5
 30
0.0
 11
103.5
 21
75.0
 31
0.0
  0
LINE
  5
4C3
  8
0
 10
96.5
 20
75.0
 30
0.0
 11
95.0
 21
76.5
 31
0.0
  0
LINE
  5
4C4
  8
0
 10
105.0
 20
76.5
 30
0.0
 11
95.0
 21
76.5
 31
0.0
  0
TEXT
  5
579
  8
0
 62
     3
 10
0.0
 20
0.0
 30
0.0
 40
10.0
  1
BJ153-10063A1
  7
STANDARD1
  0
ENDSEC
  0
EOF
