  0
SECTION
  2
HEADER
  9
$ACADVER
  1
AC1009
  9
$INSBASE
 10
82.638099999999966
 20
103.82319099999999
 30
0.0
  9
$EXTMIN
 10
-0.0012016988200685
 20
-2.977310188928072
 30
-0.0000000000000058
  9
$EXTMAX
 10
308.34634526997053
 20
197.88830684255041
 30
0.0000000000000104
  9
$LIMMIN
 10
0.0
 20
0.0
  9
$LIMMAX
 10
375.0
 20
270.0
  9
$ORTHOMODE
 70
     1
  9
$REGENMODE
 70
     1
  9
$FILLMODE
 70
     1
  9
$QTEXTMODE
 70
     0
  9
$MIRRTEXT
 70
     0
  9
$DRAGMODE
 70
     2
  9
$LTSCALE
 40
10.0
  9
$OSMODE
 70
    37
  9
$ATTMODE
 70
     1
  9
$TEXTSIZE
 40
0.06
  9
$TRACEWID
 40
0.05
  9
$TEXTSTYLE
  7
STANDARD
  9
$CLAYER
  8
0
  9
$CELTYPE
  6
BYLAYER
  9
$CECOLOR
 62
   256
  9
$DIMSCALE
 40
1.0
  9
$DIMASZ
 40
3.0
  9
$DIMEXO
 40
2.0
  9
$DIMDLI
 40
10.0
  9
$DIMRND
 40
0.0
  9
$DIMDLE
 40
0.0
  9
$DIMEXE
 40
2.0
  9
$DIMTP
 40
0.0
  9
$DIMTM
 40
0.0
  9
$DIMTXT
 40
3.0
  9
$DIMCEN
 40
0.0
  9
$DIMTSZ
 40
0.0
  9
$DIMTOL
 70
     0
  9
$DIMLIM
 70
     0
  9
$DIMTIH
 70
     0
  9
$DIMTOH
 70
     0
  9
$DIMSE1
 70
     0
  9
$DIMSE2
 70
     0
  9
$DIMTAD
 70
     1
  9
$DIMZIN
 70
     0
  9
$DIMBLK
  1

  9
$DIMASO
 70
     0
  9
$DIMSHO
 70
     0
  9
$DIMPOST
  1

  9
$DIMAPOST
  1

  9
$DIMALT
 70
     0
  9
$DIMALTD
 70
     2
  9
$DIMALTF
 40
25.399999999999999
  9
$DIMLFAC
 40
1.0
  9
$DIMTOFL
 70
     1
  9
$DIMTVP
 40
1.6000000000000001
  9
$DIMTIX
 70
     1
  9
$DIMSOXD
 70
     0
  9
$DIMSAH
 70
     0
  9
$DIMBLK1
  1

  9
$DIMBLK2
  1

  9
$DIMSTYLE
  2
STANDARD
  9
$DIMCLRD
 70
     0
  9
$DIMCLRE
 70
     0
  9
$DIMCLRT
 70
     0
  9
$DIMTFAC
 40
1.0
  9
$DIMGAP
 40
0.09
  9
$LUNITS
 70
     2
  9
$LUPREC
 70
     4
  9
$SKETCHINC
 40
0.1
  9
$FILLETRAD
 40
0.0
  9
$AUNITS
 70
     0
  9
$AUPREC
 70
     4
  9
$MENU
  1
E:\r13\win\SUPPORT\ACAD
  9
$ELEVATION
 40
0.0
  9
$PELEVATION
 40
0.0
  9
$THICKNESS
 40
0.0
  9
$LIMCHECK
 70
     0
  9
$BLIPMODE
 70
     0
  9
$CHAMFERA
 40
0.0
  9
$CHAMFERB
 40
0.0
  9
$SKPOLY
 70
     0
  9
$TDCREATE
 40
2449840.3456597221
  9
$TDUPDATE
 40
2456871.4234117018
  9
$TDINDWG
 40
0.0531172801
  9
$TDUSRTIMER
 40
2456598.406526933
  9
$USRTIMER
 70
     1
  9
$ANGBASE
 50
0.0
  9
$ANGDIR
 70
     0
  9
$PDMODE
 70
     1
  9
$PDSIZE
 40
0.0
  9
$PLINEWID
 40
0.0
  9
$COORDS
 70
     1
  9
$SPLFRAME
 70
     0
  9
$SPLINETYPE
 70
     6
  9
$SPLINESEGS
 70
     8
  9
$ATTDIA
 70
     0
  9
$ATTREQ
 70
     1
  9
$HANDLING
 70
     1
  9
$HANDSEED
  5
19BF
  9
$SURFTAB1
 70
     6
  9
$SURFTAB2
 70
     6
  9
$SURFTYPE
 70
     6
  9
$SURFU
 70
     6
  9
$SURFV
 70
     6
  9
$UCSNAME
  2

  9
$UCSORG
 10
0.0
 20
0.0
 30
0.0
  9
$UCSXDIR
 10
1.0
 20
0.0
 30
0.0
  9
$UCSYDIR
 10
0.0
 20
1.0
 30
0.0
  9
$PUCSNAME
  2

  9
$PUCSORG
 10
0.0
 20
0.0
 30
0.0
  9
$PUCSXDIR
 10
1.0
 20
0.0
 30
0.0
  9
$PUCSYDIR
 10
0.0
 20
1.0
 30
0.0
  9
$USERI1
 70
     3
  9
$USERI2
 70
     1
  9
$USERI3
 70
     0
  9
$USERI4
 70
     0
  9
$USERI5
 70
     0
  9
$USERR1
 40
1.0
  9
$USERR2
 40
3.0
  9
$USERR3
 40
3.0
  9
$USERR4
 40
3.0
  9
$USERR5
 40
10.0
  9
$WORLDVIEW
 70
     1
  9
$SHADEDGE
 70
     3
  9
$SHADEDIF
 70
    70
  9
$TILEMODE
 70
     1
  9
$MAXACTVP
 70
    16
  9
$PLIMCHECK
 70
     0
  9
$PEXTMIN
 10
1.0000000000000000E+020
 20
1.0000000000000000E+020
 30
1.0000000000000000E+020
  9
$PEXTMAX
 10
-1.0000000000000000E+020
 20
-1.0000000000000000E+020
 30
-1.0000000000000000E+020
  9
$PLIMMIN
 10
0.0
 20
0.0
  9
$PLIMMAX
 10
12.0
 20
9.0
  9
$UNITMODE
 70
     0
  9
$VISRETAIN
 70
     0
  9
$PLINEGEN
 70
     0
  9
$PSLTSCALE
 70
     0
  0
ENDSEC
  0
SECTION
  2
TABLES
  0
TABLE
  2
VPORT
 70
     1
  0
VPORT
  2
*ACTIVE
 70
     0
 10
0.0
 20
0.0
 11
1.0
 21
1.0
 12
154.1725717855752
 22
97.455498326811153
 13
0.0
 23
0.0
 14
5.0
 24
5.0
 15
10.0
 25
10.0
 16
0.0
 26
0.0
 36
1.0
 17
0.0
 27
0.0
 37
0.0
 40
233.30775150768801
 41
1.3297150610583439
 42
50.0
 43
0.0
 44
0.0
 50
0.0
 51
0.0
 71
     0
 72
   100
 73
     1
 74
     0
 75
     0
 76
     0
 77
     0
 78
     0
  0
ENDTAB
  0
TABLE
  2
LTYPE
 70
     3
  0
LTYPE
  2
CONTINUOUS
 70
     0
  3
Solid Line
 72
    65
 73
     0
 40
0.0
  0
LTYPE
  2
CENTER
 70
     0
  3
____ _ ____ _ ____ _ ____ _ ____ _ ____ _ ____
 72
    65
 73
     4
 40
2.0
 49
1.25
 49
-0.25
 49
0.25
 49
-0.25
  0
LTYPE
  2
PHANTOM2
 70
     0
  3
___ _ _ ___ _ _ ___ _ _ ___ _ _
 72
    65
 73
     6
 40
1.25
 49
0.625
 49
-0.125
 49
0.125
 49
-0.125
 49
0.125
 49
-0.125
  0
ENDTAB
  0
TABLE
  2
LAYER
 70
     4
  0
LAYER
  2
0
 70
     0
 62
     7
  6
CONTINUOUS
  0
LAYER
  2
1
 70
     0
 62
     1
  6
CENTER
  0
LAYER
  2
3
 70
     0
 62
     3
  6
CONTINUOUS
  0
LAYER
  2
DEFPOINTS
 70
     0
 62
     7
  6
CONTINUOUS
  0
ENDTAB
  0
TABLE
  2
STYLE
 70
     2
  0
STYLE
  2
STANDARD
 70
     0
 40
0.0
 41
1.0
 50
0.0
 71
     0
 42
0.06
  3
TXT
  4
BIGFONT
  0
STYLE
  2
STANDARD1
 70
     0
 40
0.0
 41
1.0
 50
0.0
 71
     0
 42
3.0
  3
txt
  4

  0
ENDTAB
  0
TABLE
  2
VIEW
 70
     0
  0
ENDTAB
  0
TABLE
  2
UCS
 70
     0
  0
ENDTAB
  0
TABLE
  2
APPID
 70
     4
  0
APPID
  2
ACAD
 70
     0
  0
APPID
  2
ACAD_MLEADERVER
 70
     0
  0
APPID
  2
ACAD_NAV_VCDISPLAY
 70
     0
  0
APPID
  2
ACAD_EXEMPT_FROM_CAD_STANDARDS
 70
     0
  0
ENDTAB
  0
TABLE
  2
DIMSTYLE
 70
     2
  0
DIMSTYLE
  2
STANDARD
 70
     0
  3

  4

  5

  6

  7

 40
1.0
 41
0.18
 42
0.0625
 43
0.38
 44
0.18
 45
0.0
 46
0.0
 47
0.0
 48
0.0
140
0.18
141
0.09
142
0.0
143
25.399999999999999
144
1.0
145
0.0
146
1.0
147
0.09
 71
     0
 72
     0
 73
     1
 74
     1
 75
     0
 76
     0
 77
     0
 78
     0
170
     0
171
     2
172
     0
173
     0
174
     0
175
     0
176
     0
177
     0
178
     0
  0
DIMSTYLE
  2
ISO-25
 70
     0
  3

  4

  5

  6

  7

 40
1.0
 41
2.5
 42
0.625
 43
3.75
 44
1.25
 45
0.0
 46
0.0
 47
0.0
 48
0.0
140
2.5
141
2.5
142
0.0
143
0.03937007874016
144
1.0
145
0.0
146
1.0
147
0.625
 71
     0
 72
     0
 73
     0
 74
     0
 75
     0
 76
     0
 77
     1
 78
     8
170
     0
171
     3
172
     1
173
     0
174
     0
175
     0
176
     0
177
     0
178
     0
  0
ENDTAB
  0
ENDSEC
  0
SECTION
  2
BLOCKS
  0
BLOCK
  8
0
  2
$MODEL_SPACE
 70
     0
 10
0.0
 20
0.0
 30
0.0
  3
$MODEL_SPACE
  1

  0
ENDBLK
  5
21E
  8
0
  0
BLOCK
 67
     1
  8
0
  2
$PAPER_SPACE
 70
     0
 10
0.0
 20
0.0
 30
0.0
  3
$PAPER_SPACE
  1

  0
ENDBLK
  5
21C
 67
     1
  8
0
  0
ENDSEC
  0
SECTION
  2
ENTITIES
  0
TEXT
  5
F44
  8
0
 62
     3
 10
0.0
 20
0.0
 30
0.0
 40
10.0
  1
BJ153-08001C1
  7
STANDARD1
  0
LINE
  5
1198
  8
0
 10
125.72667553945359
 20
174.08769725648881
 30
0.0
 11
125.72667553945359
 21
174.88769725648879
 31
0.0
  0
LINE
  5
1199
  8
0
 10
115.9266755394536
 20
174.88769725648879
 30
0.0
 11
115.9266755394536
 21
174.08769725648881
 31
0.0
  0
LINE
  5
119A
  8
0
 10
115.9266755394536
 20
191.68769725649011
 30
0.0
 11
115.9266755394536
 21
190.8876972564901
 31
0.0
  0
LINE
  5
119B
  8
0
 10
125.72667553945359
 20
190.88769725648999
 30
0.0
 11
125.72667553945359
 21
191.68769725649
 31
0.0
  0
ARC
  5
119C
  8
0
 10
120.8266755394535
 20
182.8876972564895
 30
0.0
 40
9.0000000000000124
 50
149.9999999999998
 51
210.00000000000011
  0
LINE
  5
119D
  8
0
 10
124.8266755394535
 20
173.38769725648939
 30
0.0
 11
124.8266755394535
 21
173.98769725648941
 31
0.0
  0
LINE
  5
119E
  8
0
 10
116.8266755394535
 20
173.98769725648941
 30
0.0
 11
116.8266755394535
 21
173.38769725648939
 31
0.0
  0
LINE
  5
119F
  8
0
 10
124.8266755394536
 20
192.38769725648939
 30
0.0
 11
124.3266755394536
 21
192.88769725648939
 31
0.0
  0
LINE
  5
11A0
  8
0
 10
117.3266755394536
 20
192.88769725648939
 30
0.0
 11
116.8266755394536
 21
192.38769725648939
 31
0.0
  0
LINE
  5
11A1
  8
0
 10
124.8266755394536
 20
191.78769725648939
 30
0.0
 11
124.8266755394536
 21
192.38769725648939
 31
0.0
  0
LINE
  5
11A2
  8
0
 10
116.8266755394536
 20
192.38769725648939
 30
0.0
 11
116.8266755394536
 21
191.78769725648939
 31
0.0
  0
LINE
  5
11A3
  8
0
 10
116.8266755394535
 20
173.38769725648939
 30
0.0
 11
117.3266755394535
 21
172.88769725648939
 31
0.0
  0
LINE
  5
11A4
  8
0
 10
124.3266755394535
 20
172.88769725648939
 30
0.0
 11
124.8266755394535
 21
173.38769725648939
 31
0.0
  0
LINE
  5
11A5
  8
0
 10
124.6266755394535
 20
191.68769725649011
 30
0.0
 11
124.6266755394535
 21
191.78769725648939
 31
0.0
  0
LINE
  5
11A6
  8
0
 10
117.02667553945361
 20
191.78769725648939
 30
0.0
 11
117.02667553945361
 21
191.68769725649011
 31
0.0
  0
LINE
  5
11A7
  8
0
 10
117.02667553945361
 20
174.08769725648881
 30
0.0
 11
117.02667553945361
 21
173.98769725648941
 31
0.0
  0
LINE
  5
11A8
  8
0
 10
124.6266755394535
 20
173.98769725648941
 30
0.0
 11
124.6266755394535
 21
174.08769725648881
 31
0.0
  0
LINE
  5
11A9
  8
0
 10
115.9266755394536
 20
174.08769725648881
 30
0.0
 11
125.72667553945359
 21
174.08769725648881
 31
0.0
  0
LINE
  5
11AA
  8
0
 10
125.72667553945359
 20
191.68769725649
 30
0.0
 11
115.9266755394536
 21
191.68769725649011
 31
0.0
  0
LINE
  5
11AB
  8
0
 10
144.34749081962491
 20
191.38769725648939
 30
0.0
 11
143.8266755394537
 21
191.38769725648939
 31
0.0
  0
LINE
  5
11AC
  8
0
 10
144.34749081962491
 20
191.38769725648939
 30
0.0
 11
148.84749081962491
 21
186.88769725648939
 31
0.0
  0
LINE
  5
11AD
  8
0
 10
148.84749081962491
 20
178.88769725648939
 30
0.0
 11
144.34749081962491
 21
174.38769725648939
 31
0.0
  0
LINE
  5
11AE
  8
0
 10
144.34749081962491
 20
174.38769725648939
 30
0.0
 11
143.82667553945339
 21
174.38769725648939
 31
0.0
  0
LINE
  5
11AF
  8
0
 10
124.8266755394535
 20
173.98769725648941
 30
0.0
 11
116.8266755394535
 21
173.98769725648941
 31
0.0
  0
LINE
  5
11B0
  8
0
 10
117.3266755394536
 20
192.88769725648939
 30
0.0
 11
124.3266755394536
 21
192.88769725648939
 31
0.0
  0
LINE
  5
11B1
  8
0
 10
124.8266755394536
 20
191.78769725648939
 30
0.0
 11
116.8266755394536
 21
191.78769725648939
 31
0.0
  0
LINE
  5
11B2
  8
0
 10
124.3266755394535
 20
172.88769725648939
 30
0.0
 11
117.3266755394535
 21
172.88769725648939
 31
0.0
  0
LINE
  5
11B3
  8
0
 10
213.3766755394536
 20
186.88769725648939
 30
0.0
 11
142.3266755394535
 21
186.88769725648939
 31
0.0
  0
LINE
  5
11B4
  8
0
 10
142.3266755394535
 20
178.88769725648939
 30
0.0
 11
213.37667553945369
 21
178.88769725648939
 31
0.0
  0
LINE
  5
11B5
  8
0
 10
110.78953203664641
 20
174.88769725648939
 30
0.0
 11
110.78953203664641
 21
178.38769725648939
 31
0.0
  0
LINE
  5
11B6
  8
0
 10
105.9266755394536
 20
178.38769725648939
 30
0.0
 11
105.9266755394536
 21
174.88769725648939
 31
0.0
  0
LINE
  5
11B7
  8
0
 10
110.78953203664641
 20
187.3876972564895
 30
0.0
 11
110.78953203664641
 21
190.88769725648939
 31
0.0
  0
ARC
  5
11B8
  8
0
 10
142.3266755394535
 20
190.88769725648939
 30
0.0
 40
4.0
 50
180.0
 51
270.0
  0
ARC
  5
11B9
  8
0
 10
142.3266755394535
 20
174.88769725648939
 30
0.0
 40
4.0
 50
90.0
 51
180.0
  0
POLYLINE
  5
11BA
  8
0
 10
127.80569907113072
 20
178.38769725648953
 30
0.0
 66
     1
 70
     8
  0
VERTEX
  8
0
  5
17B7
 10
127.806
 20
178.388
 30
0.000000
  70
    32
  0
VERTEX
  8
0
  5
17B8
 10
127.816
 20
178.388
 30
0.000000
  70
    32
  0
VERTEX
  8
0
  5
17B9
 10
127.826
 20
178.388
 30
0.000000
  70
    32
  0
VERTEX
  8
0
  5
17BA
 10
127.836
 20
178.388
 30
0.000000
  70
    32
  0
VERTEX
  8
0
  5
17BB
 10
127.846
 20
178.389
 30
0.000000
  70
    32
  0
VERTEX
  8
0
  5
17BC
 10
127.856
 20
178.389
 30
0.000000
  70
    32
  0
VERTEX
  8
0
  5
17BD
 10
127.867
 20
178.390
 30
0.000000
  70
    32
  0
VERTEX
  8
0
  5
17BE
 10
127.877
 20
178.391
 30
0.000000
  70
    32
  0
VERTEX
  8
0
  5
17BF
 10
127.887
 20
178.392
 30
0.000000
  70
    32
  0
VERTEX
  8
0
  5
17C0
 10
127.897
 20
178.393
 30
0.000000
  70
    32
  0
VERTEX
  8
0
  5
17C1
 10
127.907
 20
178.394
 30
0.000000
  70
    32
  0
VERTEX
  8
0
  5
17C2
 10
127.917
 20
178.395
 30
0.000000
  70
    32
  0
VERTEX
  8
0
  5
17C3
 10
127.927
 20
178.396
 30
0.000000
  70
    32
  0
VERTEX
  8
0
  5
17C4
 10
127.937
 20
178.398
 30
0.000000
  70
    32
  0
VERTEX
  8
0
  5
17C5
 10
127.947
 20
178.399
 30
0.000000
  70
    32
  0
VERTEX
  8
0
  5
17C6
 10
127.957
 20
178.401
 30
0.000000
  70
    32
  0
VERTEX
  8
0
  5
17C7
 10
127.967
 20
178.403
 30
0.000000
  70
    32
  0
VERTEX
  8
0
  5
17C8
 10
127.977
 20
178.405
 30
0.000000
  70
    32
  0
VERTEX
  8
0
  5
17C9
 10
127.987
 20
178.407
 30
0.000000
  70
    32
  0
VERTEX
  8
0
  5
17CA
 10
127.997
 20
178.409
 30
0.000000
  70
    32
  0
VERTEX
  8
0
  5
17CB
 10
128.007
 20
178.412
 30
0.000000
  70
    32
  0
VERTEX
  8
0
  5
17CC
 10
128.017
 20
178.414
 30
0.000000
  70
    32
  0
VERTEX
  8
0
  5
17CD
 10
128.027
 20
178.417
 30
0.000000
  70
    32
  0
VERTEX
  8
0
  5
17CE
 10
128.036
 20
178.419
 30
0.000000
  70
    32
  0
VERTEX
  8
0
  5
17CF
 10
128.046
 20
178.422
 30
0.000000
  70
    32
  0
VERTEX
  8
0
  5
17D0
 10
128.056
 20
178.425
 30
0.000000
  70
    32
  0
VERTEX
  8
0
  5
17D1
 10
128.065
 20
178.428
 30
0.000000
  70
    32
  0
VERTEX
  8
0
  5
17D2
 10
128.075
 20
178.431
 30
0.000000
  70
    32
  0
VERTEX
  8
0
  5
17D3
 10
128.085
 20
178.434
 30
0.000000
  70
    32
  0
VERTEX
  8
0
  5
17D4
 10
128.094
 20
178.438
 30
0.000000
  70
    32
  0
VERTEX
  8
0
  5
17D5
 10
128.104
 20
178.441
 30
0.000000
  70
    32
  0
VERTEX
  8
0
  5
17D6
 10
128.113
 20
178.445
 30
0.000000
  70
    32
  0
VERTEX
  8
0
  5
17D7
 10
128.123
 20
178.449
 30
0.000000
  70
    32
  0
VERTEX
  8
0
  5
17D8
 10
128.132
 20
178.452
 30
0.000000
  70
    32
  0
VERTEX
  8
0
  5
17D9
 10
128.141
 20
178.456
 30
0.000000
  70
    32
  0
VERTEX
  8
0
  5
17DA
 10
128.151
 20
178.460
 30
0.000000
  70
    32
  0
VERTEX
  8
0
  5
17DB
 10
128.160
 20
178.465
 30
0.000000
  70
    32
  0
VERTEX
  8
0
  5
17DC
 10
128.169
 20
178.469
 30
0.000000
  70
    32
  0
VERTEX
  8
0
  5
17DD
 10
128.178
 20
178.473
 30
0.000000
  70
    32
  0
VERTEX
  8
0
  5
17DE
 10
128.187
 20
178.478
 30
0.000000
  70
    32
  0
VERTEX
  8
0
  5
17DF
 10
128.196
 20
178.482
 30
0.000000
  70
    32
  0
VERTEX
  8
0
  5
17E0
 10
128.205
 20
178.487
 30
0.000000
  70
    32
  0
VERTEX
  8
0
  5
17E1
 10
128.214
 20
178.492
 30
0.000000
  70
    32
  0
VERTEX
  8
0
  5
17E2
 10
128.223
 20
178.497
 30
0.000000
  70
    32
  0
VERTEX
  8
0
  5
17E3
 10
128.231
 20
178.502
 30
0.000000
  70
    32
  0
VERTEX
  8
0
  5
17E4
 10
128.240
 20
178.507
 30
0.000000
  70
    32
  0
VERTEX
  8
0
  5
17E5
 10
128.249
 20
178.512
 30
0.000000
  70
    32
  0
VERTEX
  8
0
  5
17E6
 10
128.257
 20
178.517
 30
0.000000
  70
    32
  0
VERTEX
  8
0
  5
17E7
 10
128.266
 20
178.523
 30
0.000000
  70
    32
  0
VERTEX
  8
0
  5
17E8
 10
128.274
 20
178.528
 30
0.000000
  70
    32
  0
VERTEX
  8
0
  5
17E9
 10
128.283
 20
178.534
 30
0.000000
  70
    32
  0
VERTEX
  8
0
  5
17EA
 10
128.291
 20
178.539
 30
0.000000
  70
    32
  0
VERTEX
  8
0
  5
17EB
 10
128.299
 20
178.545
 30
0.000000
  70
    32
  0
VERTEX
  8
0
  5
17EC
 10
128.307
 20
178.551
 30
0.000000
  70
    32
  0
VERTEX
  8
0
  5
17ED
 10
128.315
 20
178.557
 30
0.000000
  70
    32
  0
VERTEX
  8
0
  5
17EE
 10
128.323
 20
178.563
 30
0.000000
  70
    32
  0
VERTEX
  8
0
  5
17EF
 10
128.331
 20
178.569
 30
0.000000
  70
    32
  0
VERTEX
  8
0
  5
17F0
 10
128.339
 20
178.576
 30
0.000000
  70
    32
  0
VERTEX
  8
0
  5
17F1
 10
128.347
 20
178.582
 30
0.000000
  70
    32
  0
VERTEX
  8
0
  5
17F2
 10
128.354
 20
178.588
 30
0.000000
  70
    32
  0
VERTEX
  8
0
  5
17F3
 10
128.362
 20
178.595
 30
0.000000
  70
    32
  0
VERTEX
  8
0
  5
17F4
 10
128.369
 20
178.602
 30
0.000000
  70
    32
  0
VERTEX
  8
0
  5
17F5
 10
128.377
 20
178.608
 30
0.000000
  70
    32
  0
VERTEX
  8
0
  5
17F6
 10
128.384
 20
178.615
 30
0.000000
  70
    32
  0
VERTEX
  8
0
  5
17F7
 10
128.391
 20
178.622
 30
0.000000
  70
    32
  0
VERTEX
  8
0
  5
17F8
 10
128.398
 20
178.629
 30
0.000000
  70
    32
  0
VERTEX
  8
0
  5
17F9
 10
128.406
 20
178.636
 30
0.000000
  70
    32
  0
VERTEX
  8
0
  5
17FA
 10
128.412
 20
178.643
 30
0.000000
  70
    32
  0
VERTEX
  8
0
  5
17FB
 10
128.419
 20
178.650
 30
0.000000
  70
    32
  0
VERTEX
  8
0
  5
17FC
 10
128.426
 20
178.658
 30
0.000000
  70
    32
  0
VERTEX
  8
0
  5
17FD
 10
128.433
 20
178.665
 30
0.000000
  70
    32
  0
VERTEX
  8
0
  5
17FE
 10
128.439
 20
178.673
 30
0.000000
  70
    32
  0
VERTEX
  8
0
  5
17FF
 10
128.446
 20
178.680
 30
0.000000
  70
    32
  0
VERTEX
  8
0
  5
1800
 10
128.452
 20
178.688
 30
0.000000
  70
    32
  0
VERTEX
  8
0
  5
1801
 10
128.459
 20
178.696
 30
0.000000
  70
    32
  0
VERTEX
  8
0
  5
1802
 10
128.465
 20
178.703
 30
0.000000
  70
    32
  0
VERTEX
  8
0
  5
1803
 10
128.471
 20
178.711
 30
0.000000
  70
    32
  0
VERTEX
  8
0
  5
1804
 10
128.477
 20
178.719
 30
0.000000
  70
    32
  0
VERTEX
  8
0
  5
1805
 10
128.483
 20
178.727
 30
0.000000
  70
    32
  0
VERTEX
  8
0
  5
1806
 10
128.489
 20
178.735
 30
0.000000
  70
    32
  0
VERTEX
  8
0
  5
1807
 10
128.494
 20
178.743
 30
0.000000
  70
    32
  0
VERTEX
  8
0
  5
1808
 10
128.500
 20
178.751
 30
0.000000
  70
    32
  0
VERTEX
  8
0
  5
1809
 10
128.505
 20
178.760
 30
0.000000
  70
    32
  0
VERTEX
  8
0
  5
180A
 10
128.511
 20
178.768
 30
0.000000
  70
    32
  0
VERTEX
  8
0
  5
180B
 10
128.516
 20
178.776
 30
0.000000
  70
    32
  0
VERTEX
  8
0
  5
180C
 10
128.521
 20
178.785
 30
0.000000
  70
    32
  0
VERTEX
  8
0
  5
180D
 10
128.526
 20
178.793
 30
0.000000
  70
    32
  0
VERTEX
  8
0
  5
180E
 10
128.531
 20
178.802
 30
0.000000
  70
    32
  0
VERTEX
  8
0
  5
180F
 10
128.536
 20
178.811
 30
0.000000
  70
    32
  0
VERTEX
  8
0
  5
1810
 10
128.541
 20
178.819
 30
0.000000
  70
    32
  0
VERTEX
  8
0
  5
1811
 10
128.545
 20
178.828
 30
0.000000
  70
    32
  0
VERTEX
  8
0
  5
1812
 10
128.550
 20
178.837
 30
0.000000
  70
    32
  0
VERTEX
  8
0
  5
1813
 10
128.554
 20
178.846
 30
0.000000
  70
    32
  0
VERTEX
  8
0
  5
1814
 10
128.559
 20
178.855
 30
0.000000
  70
    32
  0
VERTEX
  8
0
  5
1815
 10
128.563
 20
178.864
 30
0.000000
  70
    32
  0
VERTEX
  8
0
  5
1816
 10
128.567
 20
178.873
 30
0.000000
  70
    32
  0
VERTEX
  8
0
  5
1817
 10
128.571
 20
178.882
 30
0.000000
  70
    32
  0
VERTEX
  8
0
  5
1818
 10
128.575
 20
178.891
 30
0.000000
  70
    32
  0
VERTEX
  8
0
  5
1819
 10
128.578
 20
178.900
 30
0.000000
  70
    32
  0
VERTEX
  8
0
  5
181A
 10
128.582
 20
178.909
 30
0.000000
  70
    32
  0
VERTEX
  8
0
  5
181B
 10
128.586
 20
178.918
 30
0.000000
  70
    32
  0
VERTEX
  8
0
  5
181C
 10
128.589
 20
178.927
 30
0.000000
  70
    32
  0
VERTEX
  8
0
  5
181D
 10
128.592
 20
178.937
 30
0.000000
  70
    32
  0
VERTEX
  8
0
  5
181E
 10
128.595
 20
178.946
 30
0.000000
  70
    32
  0
VERTEX
  8
0
  5
181F
 10
128.598
 20
178.955
 30
0.000000
  70
    32
  0
VERTEX
  8
0
  5
1820
 10
128.601
 20
178.965
 30
0.000000
  70
    32
  0
VERTEX
  8
0
  5
1821
 10
128.604
 20
178.974
 30
0.000000
  70
    32
  0
VERTEX
  8
0
  5
1822
 10
128.607
 20
178.984
 30
0.000000
  70
    32
  0
VERTEX
  8
0
  5
1823
 10
128.609
 20
178.993
 30
0.000000
  70
    32
  0
VERTEX
  8
0
  5
1824
 10
128.612
 20
179.003
 30
0.000000
  70
    32
  0
VERTEX
  8
0
  5
1825
 10
128.614
 20
179.012
 30
0.000000
  70
    32
  0
VERTEX
  8
0
  5
1826
 10
128.616
 20
179.022
 30
0.000000
  70
    32
  0
VERTEX
  8
0
  5
1827
 10
128.618
 20
179.032
 30
0.000000
  70
    32
  0
VERTEX
  8
0
  5
1828
 10
128.620
 20
179.041
 30
0.000000
  70
    32
  0
VERTEX
  8
0
  5
1829
 10
128.622
 20
179.051
 30
0.000000
  70
    32
  0
VERTEX
  8
0
  5
182A
 10
128.623
 20
179.061
 30
0.000000
  70
    32
  0
VERTEX
  8
0
  5
182B
 10
128.625
 20
179.070
 30
0.000000
  70
    32
  0
VERTEX
  8
0
  5
182C
 10
128.626
 20
179.080
 30
0.000000
  70
    32
  0
VERTEX
  8
0
  5
182D
 10
128.628
 20
179.090
 30
0.000000
  70
    32
  0
VERTEX
  8
0
  5
182E
 10
128.629
 20
179.100
 30
0.000000
  70
    32
  0
VERTEX
  8
0
  5
182F
 10
128.630
 20
179.109
 30
0.000000
  70
    32
  0
VERTEX
  8
0
  5
1830
 10
128.631
 20
179.119
 30
0.000000
  70
    32
  0
VERTEX
  8
0
  5
1831
 10
128.632
 20
179.129
 30
0.000000
  70
    32
  0
VERTEX
  8
0
  5
1832
 10
128.632
 20
179.139
 30
0.000000
  70
    32
  0
VERTEX
  8
0
  5
1833
 10
128.633
 20
179.148
 30
0.000000
  70
    32
  0
VERTEX
  8
0
  5
1834
 10
128.633
 20
179.158
 30
0.000000
  70
    32
  0
VERTEX
  8
0
  5
1835
 10
128.634
 20
179.168
 30
0.000000
  70
    32
  0
VERTEX
  8
0
  5
1836
 10
128.634
 20
179.178
 30
0.000000
  70
    32
  0
VERTEX
  8
0
  5
1837
 10
128.634
 20
179.188
 30
0.000000
  70
    32
  0
SEQEND
  8
0
  5
1838
  0
LINE
  5
11BB
  8
0
 10
128.6339200154587
 20
179.18769725648951
 30
0.0
 11
128.6339200154587
 21
186.58769725648941
 31
0.0
  0
POLYLINE
  5
11BC
  8
0
 10
128.63392001545876
 20
186.58769725648941
 30
0.0
 66
     1
 70
     8
  0
VERTEX
  8
0
  5
1839
 10
128.634
 20
186.588
 30
0.000000
  70
    32
  0
VERTEX
  8
0
  5
183A
 10
128.634
 20
186.598
 30
0.000000
  70
    32
  0
VERTEX
  8
0
  5
183B
 10
128.634
 20
186.607
 30
0.000000
  70
    32
  0
VERTEX
  8
0
  5
183C
 10
128.633
 20
186.617
 30
0.000000
  70
    32
  0
VERTEX
  8
0
  5
183D
 10
128.633
 20
186.627
 30
0.000000
  70
    32
  0
VERTEX
  8
0
  5
183E
 10
128.632
 20
186.637
 30
0.000000
  70
    32
  0
VERTEX
  8
0
  5
183F
 10
128.632
 20
186.647
 30
0.000000
  70
    32
  0
VERTEX
  8
0
  5
1840
 10
128.631
 20
186.656
 30
0.000000
  70
    32
  0
VERTEX
  8
0
  5
1841
 10
128.630
 20
186.666
 30
0.000000
  70
    32
  0
VERTEX
  8
0
  5
1842
 10
128.629
 20
186.676
 30
0.000000
  70
    32
  0
VERTEX
  8
0
  5
1843
 10
128.628
 20
186.686
 30
0.000000
  70
    32
  0
VERTEX
  8
0
  5
1844
 10
128.626
 20
186.695
 30
0.000000
  70
    32
  0
VERTEX
  8
0
  5
1845
 10
128.625
 20
186.705
 30
0.000000
  70
    32
  0
VERTEX
  8
0
  5
1846
 10
128.623
 20
186.715
 30
0.000000
  70
    32
  0
VERTEX
  8
0
  5
1847
 10
128.622
 20
186.724
 30
0.000000
  70
    32
  0
VERTEX
  8
0
  5
1848
 10
128.620
 20
186.734
 30
0.000000
  70
    32
  0
VERTEX
  8
0
  5
1849
 10
128.618
 20
186.744
 30
0.000000
  70
    32
  0
VERTEX
  8
0
  5
184A
 10
128.616
 20
186.753
 30
0.000000
  70
    32
  0
VERTEX
  8
0
  5
184B
 10
128.614
 20
186.763
 30
0.000000
  70
    32
  0
VERTEX
  8
0
  5
184C
 10
128.612
 20
186.773
 30
0.000000
  70
    32
  0
VERTEX
  8
0
  5
184D
 10
128.609
 20
186.782
 30
0.000000
  70
    32
  0
VERTEX
  8
0
  5
184E
 10
128.607
 20
186.792
 30
0.000000
  70
    32
  0
VERTEX
  8
0
  5
184F
 10
128.604
 20
186.801
 30
0.000000
  70
    32
  0
VERTEX
  8
0
  5
1850
 10
128.601
 20
186.811
 30
0.000000
  70
    32
  0
VERTEX
  8
0
  5
1851
 10
128.598
 20
186.820
 30
0.000000
  70
    32
  0
VERTEX
  8
0
  5
1852
 10
128.595
 20
186.829
 30
0.000000
  70
    32
  0
VERTEX
  8
0
  5
1853
 10
128.592
 20
186.839
 30
0.000000
  70
    32
  0
VERTEX
  8
0
  5
1854
 10
128.589
 20
186.848
 30
0.000000
  70
    32
  0
VERTEX
  8
0
  5
1855
 10
128.586
 20
186.857
 30
0.000000
  70
    32
  0
VERTEX
  8
0
  5
1856
 10
128.582
 20
186.866
 30
0.000000
  70
    32
  0
VERTEX
  8
0
  5
1857
 10
128.578
 20
186.876
 30
0.000000
  70
    32
  0
VERTEX
  8
0
  5
1858
 10
128.575
 20
186.885
 30
0.000000
  70
    32
  0
VERTEX
  8
0
  5
1859
 10
128.571
 20
186.894
 30
0.000000
  70
    32
  0
VERTEX
  8
0
  5
185A
 10
128.567
 20
186.903
 30
0.000000
  70
    32
  0
VERTEX
  8
0
  5
185B
 10
128.563
 20
186.912
 30
0.000000
  70
    32
  0
VERTEX
  8
0
  5
185C
 10
128.559
 20
186.921
 30
0.000000
  70
    32
  0
VERTEX
  8
0
  5
185D
 10
128.554
 20
186.930
 30
0.000000
  70
    32
  0
VERTEX
  8
0
  5
185E
 10
128.550
 20
186.939
 30
0.000000
  70
    32
  0
VERTEX
  8
0
  5
185F
 10
128.545
 20
186.947
 30
0.000000
  70
    32
  0
VERTEX
  8
0
  5
1860
 10
128.541
 20
186.956
 30
0.000000
  70
    32
  0
VERTEX
  8
0
  5
1861
 10
128.536
 20
186.965
 30
0.000000
  70
    32
  0
VERTEX
  8
0
  5
1862
 10
128.531
 20
186.973
 30
0.000000
  70
    32
  0
VERTEX
  8
0
  5
1863
 10
128.526
 20
186.982
 30
0.000000
  70
    32
  0
VERTEX
  8
0
  5
1864
 10
128.521
 20
186.991
 30
0.000000
  70
    32
  0
VERTEX
  8
0
  5
1865
 10
128.516
 20
186.999
 30
0.000000
  70
    32
  0
VERTEX
  8
0
  5
1866
 10
128.511
 20
187.007
 30
0.000000
  70
    32
  0
VERTEX
  8
0
  5
1867
 10
128.505
 20
187.016
 30
0.000000
  70
    32
  0
VERTEX
  8
0
  5
1868
 10
128.500
 20
187.024
 30
0.000000
  70
    32
  0
VERTEX
  8
0
  5
1869
 10
128.494
 20
187.032
 30
0.000000
  70
    32
  0
VERTEX
  8
0
  5
186A
 10
128.489
 20
187.040
 30
0.000000
  70
    32
  0
VERTEX
  8
0
  5
186B
 10
128.483
 20
187.048
 30
0.000000
  70
    32
  0
VERTEX
  8
0
  5
186C
 10
128.477
 20
187.056
 30
0.000000
  70
    32
  0
VERTEX
  8
0
  5
186D
 10
128.471
 20
187.064
 30
0.000000
  70
    32
  0
VERTEX
  8
0
  5
186E
 10
128.465
 20
187.072
 30
0.000000
  70
    32
  0
VERTEX
  8
0
  5
186F
 10
128.459
 20
187.080
 30
0.000000
  70
    32
  0
VERTEX
  8
0
  5
1870
 10
128.452
 20
187.088
 30
0.000000
  70
    32
  0
VERTEX
  8
0
  5
1871
 10
128.446
 20
187.095
 30
0.000000
  70
    32
  0
VERTEX
  8
0
  5
1872
 10
128.439
 20
187.103
 30
0.000000
  70
    32
  0
VERTEX
  8
0
  5
1873
 10
128.433
 20
187.110
 30
0.000000
  70
    32
  0
VERTEX
  8
0
  5
1874
 10
128.426
 20
187.118
 30
0.000000
  70
    32
  0
VERTEX
  8
0
  5
1875
 10
128.419
 20
187.125
 30
0.000000
  70
    32
  0
VERTEX
  8
0
  5
1876
 10
128.412
 20
187.132
 30
0.000000
  70
    32
  0
VERTEX
  8
0
  5
1877
 10
128.406
 20
187.139
 30
0.000000
  70
    32
  0
VERTEX
  8
0
  5
1878
 10
128.398
 20
187.146
 30
0.000000
  70
    32
  0
VERTEX
  8
0
  5
1879
 10
128.391
 20
187.153
 30
0.000000
  70
    32
  0
VERTEX
  8
0
  5
187A
 10
128.384
 20
187.160
 30
0.000000
  70
    32
  0
VERTEX
  8
0
  5
187B
 10
128.377
 20
187.167
 30
0.000000
  70
    32
  0
VERTEX
  8
0
  5
187C
 10
128.369
 20
187.174
 30
0.000000
  70
    32
  0
VERTEX
  8
0
  5
187D
 10
128.362
 20
187.180
 30
0.000000
  70
    32
  0
VERTEX
  8
0
  5
187E
 10
128.354
 20
187.187
 30
0.000000
  70
    32
  0
VERTEX
  8
0
  5
187F
 10
128.347
 20
187.193
 30
0.000000
  70
    32
  0
VERTEX
  8
0
  5
1880
 10
128.339
 20
187.200
 30
0.000000
  70
    32
  0
VERTEX
  8
0
  5
1881
 10
128.331
 20
187.206
 30
0.000000
  70
    32
  0
VERTEX
  8
0
  5
1882
 10
128.323
 20
187.212
 30
0.000000
  70
    32
  0
VERTEX
  8
0
  5
1883
 10
128.315
 20
187.218
 30
0.000000
  70
    32
  0
VERTEX
  8
0
  5
1884
 10
128.307
 20
187.224
 30
0.000000
  70
    32
  0
VERTEX
  8
0
  5
1885
 10
128.299
 20
187.230
 30
0.000000
  70
    32
  0
VERTEX
  8
0
  5
1886
 10
128.291
 20
187.236
 30
0.000000
  70
    32
  0
VERTEX
  8
0
  5
1887
 10
128.283
 20
187.242
 30
0.000000
  70
    32
  0
VERTEX
  8
0
  5
1888
 10
128.274
 20
187.247
 30
0.000000
  70
    32
  0
VERTEX
  8
0
  5
1889
 10
128.266
 20
187.253
 30
0.000000
  70
    32
  0
VERTEX
  8
0
  5
188A
 10
128.257
 20
187.258
 30
0.000000
  70
    32
  0
VERTEX
  8
0
  5
188B
 10
128.249
 20
187.264
 30
0.000000
  70
    32
  0
VERTEX
  8
0
  5
188C
 10
128.240
 20
187.269
 30
0.000000
  70
    32
  0
VERTEX
  8
0
  5
188D
 10
128.231
 20
187.274
 30
0.000000
  70
    32
  0
VERTEX
  8
0
  5
188E
 10
128.223
 20
187.279
 30
0.000000
  70
    32
  0
VERTEX
  8
0
  5
188F
 10
128.214
 20
187.284
 30
0.000000
  70
    32
  0
VERTEX
  8
0
  5
1890
 10
128.205
 20
187.289
 30
0.000000
  70
    32
  0
VERTEX
  8
0
  5
1891
 10
128.196
 20
187.293
 30
0.000000
  70
    32
  0
VERTEX
  8
0
  5
1892
 10
128.187
 20
187.298
 30
0.000000
  70
    32
  0
VERTEX
  8
0
  5
1893
 10
128.178
 20
187.302
 30
0.000000
  70
    32
  0
VERTEX
  8
0
  5
1894
 10
128.169
 20
187.307
 30
0.000000
  70
    32
  0
VERTEX
  8
0
  5
1895
 10
128.160
 20
187.311
 30
0.000000
  70
    32
  0
VERTEX
  8
0
  5
1896
 10
128.151
 20
187.315
 30
0.000000
  70
    32
  0
VERTEX
  8
0
  5
1897
 10
128.141
 20
187.319
 30
0.000000
  70
    32
  0
VERTEX
  8
0
  5
1898
 10
128.132
 20
187.323
 30
0.000000
  70
    32
  0
VERTEX
  8
0
  5
1899
 10
128.123
 20
187.327
 30
0.000000
  70
    32
  0
VERTEX
  8
0
  5
189A
 10
128.113
 20
187.331
 30
0.000000
  70
    32
  0
VERTEX
  8
0
  5
189B
 10
128.104
 20
187.334
 30
0.000000
  70
    32
  0
VERTEX
  8
0
  5
189C
 10
128.094
 20
187.338
 30
0.000000
  70
    32
  0
VERTEX
  8
0
  5
189D
 10
128.085
 20
187.341
 30
0.000000
  70
    32
  0
VERTEX
  8
0
  5
189E
 10
128.075
 20
187.344
 30
0.000000
  70
    32
  0
VERTEX
  8
0
  5
189F
 10
128.065
 20
187.347
 30
0.000000
  70
    32
  0
VERTEX
  8
0
  5
18A0
 10
128.056
 20
187.350
 30
0.000000
  70
    32
  0
VERTEX
  8
0
  5
18A1
 10
128.046
 20
187.353
 30
0.000000
  70
    32
  0
VERTEX
  8
0
  5
18A2
 10
128.036
 20
187.356
 30
0.000000
  70
    32
  0
VERTEX
  8
0
  5
18A3
 10
128.027
 20
187.359
 30
0.000000
  70
    32
  0
VERTEX
  8
0
  5
18A4
 10
128.017
 20
187.361
 30
0.000000
  70
    32
  0
VERTEX
  8
0
  5
18A5
 10
128.007
 20
187.364
 30
0.000000
  70
    32
  0
VERTEX
  8
0
  5
18A6
 10
127.997
 20
187.366
 30
0.000000
  70
    32
  0
VERTEX
  8
0
  5
18A7
 10
127.987
 20
187.368
 30
0.000000
  70
    32
  0
VERTEX
  8
0
  5
18A8
 10
127.977
 20
187.370
 30
0.000000
  70
    32
  0
VERTEX
  8
0
  5
18A9
 10
127.967
 20
187.372
 30
0.000000
  70
    32
  0
VERTEX
  8
0
  5
18AA
 10
127.957
 20
187.374
 30
0.000000
  70
    32
  0
VERTEX
  8
0
  5
18AB
 10
127.947
 20
187.376
 30
0.000000
  70
    32
  0
VERTEX
  8
0
  5
18AC
 10
127.937
 20
187.378
 30
0.000000
  70
    32
  0
VERTEX
  8
0
  5
18AD
 10
127.927
 20
187.379
 30
0.000000
  70
    32
  0
VERTEX
  8
0
  5
18AE
 10
127.917
 20
187.380
 30
0.000000
  70
    32
  0
VERTEX
  8
0
  5
18AF
 10
127.907
 20
187.382
 30
0.000000
  70
    32
  0
VERTEX
  8
0
  5
18B0
 10
127.897
 20
187.383
 30
0.000000
  70
    32
  0
VERTEX
  8
0
  5
18B1
 10
127.887
 20
187.384
 30
0.000000
  70
    32
  0
VERTEX
  8
0
  5
18B2
 10
127.877
 20
187.385
 30
0.000000
  70
    32
  0
VERTEX
  8
0
  5
18B3
 10
127.867
 20
187.386
 30
0.000000
  70
    32
  0
VERTEX
  8
0
  5
18B4
 10
127.856
 20
187.386
 30
0.000000
  70
    32
  0
VERTEX
  8
0
  5
18B5
 10
127.846
 20
187.387
 30
0.000000
  70
    32
  0
VERTEX
  8
0
  5
18B6
 10
127.836
 20
187.387
 30
0.000000
  70
    32
  0
VERTEX
  8
0
  5
18B7
 10
127.826
 20
187.387
 30
0.000000
  70
    32
  0
VERTEX
  8
0
  5
18B8
 10
127.816
 20
187.388
 30
0.000000
  70
    32
  0
VERTEX
  8
0
  5
18B9
 10
127.806
 20
187.388
 30
0.000000
  70
    32
  0
SEQEND
  8
0
  5
18BA
  0
LINE
  5
11BD
  8
0
 10
138.32667553945359
 20
174.88769725648939
 30
0.0
 11
105.9266755394536
 21
174.88769725648939
 31
0.0
  0
LINE
  5
11BE
  8
0
 10
127.8056990711307
 20
187.3876972564895
 30
0.0
 11
105.9266755394536
 21
187.3876972564895
 31
0.0
  0
LINE
  5
11BF
  8
0
 10
105.9266755394536
 20
190.88769725648939
 30
0.0
 11
138.3266755394535
 21
190.88769725648939
 31
0.0
  0
LINE
  5
11C0
  8
0
 10
105.9266755394536
 20
178.38769725648939
 30
0.0
 11
127.8056990711307
 21
178.38769725648939
 31
0.0
  0
LINE
  5
11C1
  8
0
 10
142.3266755394535
 20
186.88769725648939
 30
0.0
 11
142.3266755394535
 21
178.88769725648939
 31
0.0
  0
LINE
  5
11C2
  8
0
 10
105.9266755394536
 20
190.88769725648939
 30
0.0
 11
105.9266755394536
 21
187.3876972564895
 31
0.0
  0
ARC
  5
11C3
  8
0
 10
106.8266755394535
 20
182.8876972564893
 30
0.0
 40
4.5000000000000142
 50
90.0
 51
270.0
  0
LINE
  5
11C4
  8
0
 10
142.8266755394535
 20
192.38769725648959
 30
0.0
 11
144.8266755394535
 21
190.38769725648959
 31
0.0
  0
LINE
  5
11C5
  8
0
 10
100.02282796216031
 20
174.8876972564893
 30
0.0
 11
100.02282796216009
 21
190.8876972564893
 31
0.0
  0
LINE
  5
11C6
  8
0
 10
102.62090417351349
 20
192.3876972564893
 30
0.0
 11
142.82667553945359
 21
192.3876972564895
 31
0.0
  0
LINE
  5
11C7
  8
0
 10
142.8266755394535
 20
173.38769725648959
 30
0.0
 11
144.8266755394535
 21
175.38769725648959
 31
0.0
  0
LINE
  5
11C8
  8
0
 10
102.62090417351349
 20
173.3876972564893
 30
0.0
 11
142.8266755394535
 21
173.38769725648959
 31
0.0
  0
LINE
  5
11C9
  8
0
 10
144.8266755394535
 20
190.38769725648959
 30
0.0
 11
144.8266755394535
 21
186.88769725648939
 31
0.0
  0
LINE
  5
11CA
  8
0
 10
144.8266755394535
 20
178.88769725648939
 30
0.0
 11
144.8266755394535
 21
175.38769725648959
 31
0.0
  0
LINE
  5
11CB
  8
0
 10
94.826675539453589
 20
177.88769725648919
 30
0.0
 11
94.826675539453589
 21
187.8876972564893
 31
0.0
  0
LINE
  5
11CC
  8
0
 10
102.62090417351349
 20
192.38769725648939
 30
0.0
 11
94.826675539453589
 21
187.8876972564893
 31
0.0
  0
LINE
  5
11CD
  8
0
 10
102.62090417351359
 20
173.3876972564893
 30
0.0
 11
94.826675539453589
 21
177.88769725648919
 31
0.0
  0
LINE
  5
11CE
  8
0
 10
136.8266755394535
 20
33.667467545312547
 30
0.0
 11
138.02667553945349
 21
32.467467545312502
 31
0.0
  0
LINE
  5
11CF
  8
0
 10
143.62667553945349
 20
32.467467545312502
 30
0.0
 11
144.8266755394535
 21
33.667467545312547
 31
0.0
  0
LINE
  5
11D0
  8
0
 10
136.8266755394535
 20
62.467467545312502
 30
0.0
 11
136.8266755394535
 21
49.467697462642832
 31
0.0
  0
LINE
  5
11D1
  8
0
 10
136.8266755394535
 20
44.467697462642889
 30
0.0
 11
136.8266755394535
 21
33.667467545312547
 31
0.0
  0
LINE
  5
11D2
  8
0
 10
144.8266755394535
 20
33.667467545312547
 30
0.0
 11
144.8266755394535
 21
44.467697462642832
 31
0.0
  0
LINE
  5
11D3
  8
0
 10
144.8266755394535
 20
49.467697462642832
 30
0.0
 11
144.8266755394535
 21
62.467467545312502
 31
0.0
  0
POLYLINE
  5
11D4
  8
0
 66
     1
 10
0.0
 20
0.0
 30
0.0
 70
   128
  0
VERTEX
  5
179F
  8
0
 10
128.93915445673619
 20
84.467467545312502
 30
0.0
  0
VERTEX
  5
17A0
  8
0
 10
129.313311820763
 20
84.638133150471845
 30
0.0
  0
VERTEX
  5
17A1
  8
0
 10
129.8266755394535
 20
84.887697462642905
 30
0.0
  0
SEQEND
  5
17A2
  8
0
  0
POLYLINE
  5
11D5
  8
0
 66
     1
 10
0.0
 20
0.0
 30
0.0
 70
   128
  0
VERTEX
  5
17A3
  8
0
 10
111.8266755394535
 20
84.887697462642905
 30
0.0
  0
VERTEX
  5
17A4
  8
0
 10
112.340039258144
 20
84.638133150471845
 30
0.0
  0
VERTEX
  5
17A5
  8
0
 10
112.7141966221707
 20
84.467467545312502
 30
0.0
  0
SEQEND
  5
17A6
  8
0
  0
LINE
  5
11D6
  8
0
 10
129.8266755394535
 20
84.887697462642905
 30
0.0
 11
129.8266755394535
 21
86.187697462642859
 31
0.0
  0
LINE
  5
11D7
  8
0
 10
111.8266755394535
 20
86.187697462642859
 30
0.0
 11
111.8266755394535
 21
84.887697462642905
 31
0.0
  0
LINE
  5
11D8
  8
0
 10
129.8266755394535
 20
86.187697462642859
 30
0.0
 11
129.3266755394535
 21
86.687697462642859
 31
0.0
  0
LINE
  5
11D9
  8
0
 10
112.3266755394535
 20
86.687697462642859
 30
0.0
 11
111.8266755394535
 21
86.187697462642859
 31
0.0
  0
LINE
  5
11DA
  8
0
 10
111.8266755394535
 20
81.967467545312502
 30
0.0
 11
112.3266755394535
 21
81.467467545312502
 31
0.0
  0
LINE
  5
11DB
  8
0
 10
129.3266755394535
 20
81.467467545312502
 30
0.0
 11
129.8266755394535
 21
81.967467545312502
 31
0.0
  0
LINE
  5
11DC
  8
0
 10
129.8266755394535
 20
81.967467545312502
 30
0.0
 11
129.8266755394535
 21
83.967467545312502
 31
0.0
  0
LINE
  5
11DD
  8
0
 10
111.8266755394535
 20
83.967467545312502
 30
0.0
 11
111.8266755394535
 21
81.967467545312502
 31
0.0
  0
LINE
  5
11DE
  8
0
 10
129.8266755394535
 20
83.967467545312502
 30
0.0
 11
129.3266755394535
 21
84.467467545312502
 31
0.0
  0
LINE
  5
11DF
  8
0
 10
112.3266755394535
 20
84.467467545312502
 30
0.0
 11
111.8266755394535
 21
83.967467545312502
 31
0.0
  0
LINE
  5
11E0
  8
0
 10
124.8766755394535
 20
60.387697462642848
 30
0.0
 11
124.8766755394535
 21
69.467467545312559
 31
0.0
  0
LINE
  5
11E1
  8
0
 10
124.8766755394535
 20
86.687697462642859
 30
0.0
 11
124.8766755394535
 21
86.906808845928595
 31
0.0
  0
LINE
  5
11E2
  8
0
 10
116.77667553945351
 20
87.48566269927835
 30
0.0
 11
116.77667553945351
 21
86.687697462642859
 31
0.0
  0
LINE
  5
11E3
  8
0
 10
116.77667553945351
 20
69.467467545312559
 30
0.0
 11
116.77667553945351
 21
60.387697462642848
 31
0.0
  0
LINE
  5
11E4
  8
0
 10
116.8266755394535
 20
31.58769746264289
 30
0.0
 11
118.02667553945351
 21
30.387697462642912
 31
0.0
  0
LINE
  5
11E5
  8
0
 10
123.6266755394535
 20
30.387697462642912
 30
0.0
 11
124.8266755394535
 21
31.58769746264289
 31
0.0
  0
LINE
  5
11E6
  8
0
 10
116.8266755394535
 20
60.387697462642848
 30
0.0
 11
116.8266755394535
 21
49.467697462642832
 31
0.0
  0
LINE
  5
11E7
  8
0
 10
116.8266755394535
 20
44.467697462642889
 30
0.0
 11
116.8266755394535
 21
31.58769746264289
 31
0.0
  0
LINE
  5
11E8
  8
0
 10
124.8266755394535
 20
31.58769746264289
 30
0.0
 11
124.8266755394535
 21
44.467697462642832
 31
0.0
  0
LINE
  5
11E9
  8
0
 10
124.8266755394535
 20
49.467697462642832
 30
0.0
 11
124.8266755394535
 21
60.387697462642848
 31
0.0
  0
LINE
  5
11EB
  8
0
 10
177.22667553945351
 20
106.88769746264281
 30
0.0
 11
213.37667553945349
 21
106.88769746264281
 31
0.0
  0
LINE
  5
11EC
  8
0
 10
121.82667903945369
 20
99.68769746274279
 30
0.0
 11
119.8266755394535
 21
99.68769746274279
 31
0.0
  0
ARC
  5
11ED
  8
0
 10
121.8266855394539
 20
100.1876974626427
 30
0.0
 40
0.5000000000500063
 50
269.99925515483648
 51
90.001145915637906
  0
LINE
  5
11EE
  8
0
 10
119.82665903945281
 20
100.68769746256019
 30
0.0
 11
121.8266755394535
 21
100.68769746259279
 31
0.0
  0
ARC
  5
11EF
  8
0
 10
119.8266655394531
 20
100.1876974626427
 30
0.0
 40
0.4999999999999841
 50
90.000744845165187
 51
270.00114591563789
  0
ARC
  5
11F0
  8
0
 10
118.0052543133247
 20
100.60603920830469
 30
0.0
 40
1.000000000000016
 50
335.60373842932199
 51
61.431637118324772
  0
ARC
  5
11F1
  8
0
 10
120.8266755394535
 20
105.7876974626427
 30
0.0
 40
4.8999999999999959
 50
298.56836288167523
 51
241.4316371183248
  0
ARC
  5
11F2
  8
0
 10
123.6480967655823
 20
100.60603920830469
 30
0.0
 40
1.0000000000000031
 50
118.5683628816759
 51
204.39626157067809
  0
ARC
  5
11F3
  8
0
 10
121.8266755394535
 20
99.779949190808125
 30
0.0
 40
1.000000000000012
 50
280.11097113635333
 51
24.39626157067444
  0
ARC
  5
11F4
  8
0
 10
120.8266755394536
 20
105.3876974626429
 30
0.0
 40
6.6962128366368541
 50
272.13960860123348
 51
280.11097113635333
  0
LINE
  5
11F5
  8
0
 10
121.0766755394535
 20
98.687697462642745
 30
0.0
 11
121.0766755394535
 21
98.696153070386345
 31
0.0
  0
LINE
  5
11F6
  8
0
 10
120.5766755394535
 20
98.687697462642745
 30
0.0
 11
121.0766755394535
 21
98.687697462642745
 31
0.0
  0
LINE
  5
11F7
  8
0
 10
120.5766755394535
 20
98.696153070386345
 30
0.0
 11
120.5766755394535
 21
98.687697462642745
 31
0.0
  0
ARC
  5
11F8
  8
0
 10
120.8266755394535
 20
105.38769746264261
 30
0.0
 40
6.6962128366366853
 50
259.88902886364667
 51
267.86039139876652
  0
ARC
  5
11F9
  8
0
 10
119.8266755394535
 20
99.779949190808125
 30
0.0
 40
1.000000000000012
 50
155.60373842932549
 51
259.88902886364667
  0
LINE
  5
11FA
  8
0
 10
140.8266755394535
 20
49.467697462642889
 30
0.0
 11
140.8266755394535
 21
44.467697462642889
 31
0.0
  0
LINE
  5
11FB
  8
0
 10
147.3266755394535
 20
49.467697462642832
 30
0.0
 11
147.3266755394535
 21
44.467697462642832
 31
0.0
  0
LINE
  5
11FC
  8
0
 10
134.3266755394535
 20
49.467697462642832
 30
0.0
 11
134.3266755394535
 21
44.467697462642832
 31
0.0
  0
LINE
  5
11FD
  8
0
 10
147.3266755394535
 20
49.467697462642832
 30
0.0
 11
134.3266755394535
 21
49.467697462642832
 31
0.0
  0
LINE
  5
11FE
  8
0
 10
147.3266755394535
 20
44.467697462642832
 30
0.0
 11
134.3266755394535
 21
44.467697462642832
 31
0.0
  0
LINE
  5
11FF
  8
0
 10
127.3266755394535
 20
44.467697462642832
 30
0.0
 11
114.3266755394535
 21
44.467697462642832
 31
0.0
  0
LINE
  5
1200
  8
0
 10
114.3266755394535
 20
49.467697462642832
 30
0.0
 11
114.3266755394535
 21
44.467697462642832
 31
0.0
  0
LINE
  5
1201
  8
0
 10
127.3266755394535
 20
49.467697462642832
 30
0.0
 11
114.3266755394535
 21
49.467697462642832
 31
0.0
  0
LINE
  5
1202
  8
0
 10
120.8266755394535
 20
49.467697462642889
 30
0.0
 11
120.8266755394535
 21
44.467697462642889
 31
0.0
  0
LINE
  5
1203
  8
0
 10
127.3266755394535
 20
49.467697462642832
 30
0.0
 11
127.3266755394535
 21
44.467697462642832
 31
0.0
  0
LINE
  5
1204
  8
0
 10
137.30586025928221
 20
69.467467545312559
 30
0.0
 11
137.30586025928221
 21
62.467467545312559
 31
0.0
  0
LINE
  5
1205
  8
0
 10
144.3474908196248
 20
69.467467545312559
 30
0.0
 11
144.3474908196248
 21
62.467467545312559
 31
0.0
  0
LINE
  5
1206
  8
0
 10
149.3266755394535
 20
69.467467545312502
 30
0.0
 11
149.3266755394535
 21
62.467467545312502
 31
0.0
  0
LINE
  5
1207
  8
0
 10
132.3266755394535
 20
69.467467545312502
 30
0.0
 11
132.3266755394535
 21
62.467467545312502
 31
0.0
  0
LINE
  5
1208
  8
0
 10
149.3266755394535
 20
62.467467545312502
 30
0.0
 11
132.3266755394535
 21
62.467467545312502
 31
0.0
  0
LINE
  5
1209
  8
0
 10
136.8266755394535
 20
33.667467545312547
 30
0.0
 11
144.8266755394535
 21
33.667467545312547
 31
0.0
  0
LINE
  5
120A
  8
0
 10
143.62667553945349
 20
32.467467545312502
 30
0.0
 11
138.02667553945349
 21
32.467467545312502
 31
0.0
  0
LINE
  5
120B
  8
0
 10
129.8266755394535
 20
84.887697462642905
 30
0.0
 11
111.8266755394535
 21
84.887697462642905
 31
0.0
  0
LINE
  5
120C
  8
0
 10
129.8266755394535
 20
86.187697462642859
 30
0.0
 11
111.8266755394535
 21
86.187697462642859
 31
0.0
  0
LINE
  5
120D
  8
0
 10
112.3266755394535
 20
86.687697462642859
 30
0.0
 11
129.3266755394535
 21
86.687697462642859
 31
0.0
  0
LINE
  5
120E
  8
0
 10
111.8266755394535
 20
81.967467545312502
 30
0.0
 11
129.8266755394535
 21
81.967467545312502
 31
0.0
  0
LINE
  5
120F
  8
0
 10
129.8266755394535
 20
83.967467545312502
 30
0.0
 11
111.8266755394535
 21
83.967467545312502
 31
0.0
  0
LINE
  5
1210
  8
0
 10
112.3266755394535
 20
84.467467545312502
 30
0.0
 11
129.3266755394535
 21
84.467467545312502
 31
0.0
  0
LINE
  5
1211
  8
0
 10
118.02667553945351
 20
30.387697462642912
 30
0.0
 11
123.6266755394535
 21
30.387697462642912
 31
0.0
  0
LINE
  5
1212
  8
0
 10
116.8266755394535
 20
31.58769746264289
 30
0.0
 11
124.8266755394535
 21
31.58769746264289
 31
0.0
  0
CIRCLE
  5
1213
  8
0
 10
120.8266755394535
 20
105.3876974626429
 30
0.0
 40
3.5
  0
CIRCLE
  5
1214
  8
0
 10
120.8266755394535
 20
105.3876974626429
 30
0.0
 40
4.0
  0
LINE
  5
1215
  8
0
 10
213.3766755394534
 20
115.902425770338
 30
0.0
 11
213.37667553945349
 21
105.8729691549476
 31
0.0
  0
LINE
  5
1216
  8
0
 10
138.3266755394535
 20
95.862551676995736
 30
0.0
 11
138.3266755394535
 21
114.8876974626429
 31
0.0
  0
LINE
  5
1217
  8
0
 10
142.3266755394535
 20
114.8876974626429
 30
0.0
 11
142.3266755394535
 21
97.536270646796652
 31
0.0
  0
ARC
  5
1218
  8
0
 10
144.00998300879201
 20
87.634549719719246
 30
0.0
 40
9.9999999999991882
 50
105.00000000000109
 51
124.6339055005833
  0
LINE
  5
1219
  8
0
 10
213.3766755394534
 20
114.8876974626429
 30
0.0
 11
110.78953203664641
 21
114.8876974626429
 31
0.0
  0
ARC
  5
121A
  8
0
 10
120.8266755394535
 20
105.3876974626429
 30
0.0
 40
19.199999999999999
 50
298.82598768541612
 51
322.55608771412108
  0
LINE
  5
121B
  8
0
 10
110.78953203664641
 20
114.8876974626429
 30
0.0
 11
105.9266755394535
 21
96.73926994520275
 31
0.0
  0
ARC
  5
121C
  8
0
 10
122.0766755394535
 20
104.6876974626428
 30
0.0
 40
17.999999999999989
 50
206.20469059280131
 51
296.41374561355479
  0
ARC
  5
121D
  8
0
 10
144.00998300879229
 20
87.634549719718393
 30
0.0
 40
10.000000000000121
 50
124.6339055005827
 51
142.5560877141252
  0
LINE
  5
121E
  8
0
 10
142.3266755394535
 20
110.88769746264281
 30
0.0
 11
177.22667553945351
 21
110.88769746264281
 31
0.0
  0
LINE
  5
121F
  8
0
 10
177.22667553945351
 20
110.88769746264281
 30
0.0
 11
177.22667553945351
 21
106.88769746264281
 31
0.0
  0
LINE
  5
1220
  8
0
 10
141.4217925577675
 20
97.29380798260928
 30
0.0
 11
177.22667553945351
 21
106.88769746264281
 31
0.0
  0
LINE
  5
1221
  8
0
 10
102.6209041735134
 20
81.467467545312502
 30
0.0
 11
102.6209041735134
 21
69.467467545312559
 31
0.0
  0
LINE
  5
1222
  8
0
 10
94.826675539453518
 20
78.467467545312502
 30
0.0
 11
94.826675539453518
 21
69.467467545312502
 31
0.0
  0
LINE
  5
1223
  8
0
 10
100.02282796216021
 20
81.467467545312502
 30
0.0
 11
94.826675539453518
 21
78.467467545312502
 31
0.0
  0
LINE
  5
1224
  8
0
 10
100.02282796216021
 20
81.467467545312502
 30
0.0
 11
144.8266755394535
 21
81.467467545312502
 31
0.0
  0
LINE
  5
1225
  8
0
 10
94.826675539453518
 20
69.467467545312502
 30
0.0
 11
149.3266755394535
 21
69.467467545312502
 31
0.0
  0
LINE
  5
1226
  8
0
 10
142.8266755394535
 20
81.467467545312502
 30
0.0
 11
142.8266755394535
 21
69.467467545312559
 31
0.0
  0
LINE
  5
1227
  8
0
 10
144.8266755394535
 20
81.467467545312502
 30
0.0
 11
144.8266755394535
 21
69.467467545312502
 31
0.0
  0
LINE
  5
1228
  8
0
 10
291.8266755394547
 20
33.667468216836141
 30
0.0
 11
293.02667553945469
 21
32.467468216836103
 31
0.0
  0
LINE
  5
1229
  8
0
 10
298.62667553945471
 20
32.467468216836103
 30
0.0
 11
299.8266755394547
 21
33.667468216836141
 31
0.0
  0
LINE
  5
122A
  8
0
 10
291.8266755394547
 20
62.467468216836089
 30
0.0
 11
291.8266755394547
 21
49.46769813416654
 31
0.0
  0
LINE
  5
122B
  8
0
 10
299.8266755394547
 20
49.46769813416654
 30
0.0
 11
299.8266755394547
 21
62.467468216836089
 31
0.0
  0
LINE
  5
122C
  8
0
 10
291.8266755394547
 20
73.467468216836096
 30
0.0
 11
291.8266755394547
 21
69.467468216836096
 31
0.0
  0
LINE
  5
122D
  8
0
 10
299.8266755394547
 20
69.467468216836096
 30
0.0
 11
299.8266755394547
 21
73.467468216836096
 31
0.0
  0
POLYLINE
  5
122E
  8
0
 66
     1
 10
0.0
 20
0.0
 30
0.0
 70
   128
  0
VERTEX
  5
17A7
  8
0
 10
303.93915445673753
 20
84.467468216836096
 30
0.0
  0
VERTEX
  5
17A8
  8
0
 10
304.31331182076428
 20
84.638133821995439
 30
0.0
  0
VERTEX
  5
17A9
  8
0
 10
304.82667553945481
 20
84.887698134166385
 30
0.0
  0
SEQEND
  5
17AA
  8
0
  0
POLYLINE
  5
122F
  8
0
 66
     1
 10
0.0
 20
0.0
 30
0.0
 70
   128
  0
VERTEX
  5
17AB
  8
0
 10
286.82667553945481
 20
84.887698134166428
 30
0.0
  0
VERTEX
  5
17AC
  8
0
 10
287.34003925814523
 20
84.638133821995496
 30
0.0
  0
VERTEX
  5
17AD
  8
0
 10
287.71419662217198
 20
84.467468216836167
 30
0.0
  0
SEQEND
  5
17AE
  8
0
  0
LINE
  5
1230
  8
0
 10
304.82667553945481
 20
84.887698134166385
 30
0.0
 11
304.82667553945481
 21
86.187698134166325
 31
0.0
  0
LINE
  5
1231
  8
0
 10
286.82667553945481
 20
86.187698134166396
 30
0.0
 11
286.82667553945481
 21
84.887698134166428
 31
0.0
  0
LINE
  5
1232
  8
0
 10
304.82667553945481
 20
86.187698134166325
 30
0.0
 11
304.32667553945481
 21
86.687698134166453
 31
0.0
  0
LINE
  5
1233
  8
0
 10
287.3266755394547
 20
86.687698134166496
 30
0.0
 11
286.82667553945481
 21
86.187698134166396
 31
0.0
  0
LINE
  5
1234
  8
0
 10
286.82667553945481
 20
81.967468216836167
 30
0.0
 11
287.3266755394547
 21
81.467468216836153
 31
0.0
  0
LINE
  5
1235
  8
0
 10
304.32667553945481
 20
81.467468216836096
 30
0.0
 11
304.82667553945481
 21
81.967468216836096
 31
0.0
  0
LINE
  5
1236
  8
0
 10
304.82667553945481
 20
81.967468216836096
 30
0.0
 11
304.82667553945481
 21
83.967468216836096
 31
0.0
  0
LINE
  5
1237
  8
0
 10
286.82667553945481
 20
83.967468216836153
 30
0.0
 11
286.82667553945481
 21
81.967468216836167
 31
0.0
  0
LINE
  5
1238
  8
0
 10
304.82667553945481
 20
83.967468216836096
 30
0.0
 11
304.32667553945481
 21
84.467468216836096
 31
0.0
  0
LINE
  5
1239
  8
0
 10
287.3266755394547
 20
84.467468216836167
 30
0.0
 11
286.82667553945481
 21
83.967468216836153
 31
0.0
  0
LINE
  5
123A
  8
0
 10
299.87667553945471
 20
60.387698134166392
 30
0.0
 11
299.87667553945471
 21
62.46746821683621
 31
0.0
  0
LINE
  5
123B
  8
0
 10
299.87667553945482
 20
69.467468216835982
 30
0.0
 11
299.87667553945482
 21
74.467468216836096
 31
0.0
  0
LINE
  5
123C
  8
0
 10
299.87667553945482
 20
86.687698134166453
 30
0.0
 11
299.87667553945482
 21
92.068215791901466
 31
0.0
  0
LINE
  5
123D
  8
0
 10
291.7766755394548
 20
92.071122643291574
 30
0.0
 11
291.7766755394548
 21
86.687698134166453
 31
0.0
  0
LINE
  5
123E
  8
0
 10
291.7766755394548
 20
74.467468216836096
 30
0.0
 11
291.7766755394548
 21
69.467468216835982
 31
0.0
  0
LINE
  5
123F
  8
0
 10
291.7766755394548
 20
62.46746821683621
 30
0.0
 11
291.7766755394548
 21
60.387698134166392
 31
0.0
  0
LINE
  5
1240
  8
0
 10
291.8266755394547
 20
31.58769813416632
 30
0.0
 11
293.02667553945469
 21
30.387698134166389
 31
0.0
  0
LINE
  5
1241
  8
0
 10
298.62667553945471
 20
30.387698134166389
 30
0.0
 11
299.8266755394547
 21
31.58769813416632
 31
0.0
  0
LINE
  5
1242
  8
0
 10
291.8266755394547
 20
44.467698134166433
 30
0.0
 11
291.8266755394547
 21
31.58769813416632
 31
0.0
  0
LINE
  5
1243
  8
0
 10
299.8266755394547
 20
31.58769813416632
 30
0.0
 11
299.82667553945481
 21
44.467698134166248
 31
0.0
  0
LINE
  5
1244
  8
0
 10
305.32667553945481
 20
101.3876981341664
 30
0.0
 11
305.8266755394547
 21
101.8876981341664
 31
0.0
  0
LINE
  5
1245
  8
0
 10
286.32667553945481
 20
101.3876981341664
 30
0.0
 11
286.92667553945478
 21
101.3876981341664
 31
0.0
  0
LINE
  5
1246
  8
0
 10
304.72667553945467
 20
101.3876981341664
 30
0.0
 11
305.32667553945481
 21
101.3876981341664
 31
0.0
  0
LINE
  5
1247
  8
0
 10
285.82667553945481
 20
101.8876981341664
 30
0.0
 11
286.32667553945481
 21
101.3876981341664
 31
0.0
  0
LINE
  5
1248
  8
0
 10
286.92667553945478
 20
101.5876981341663
 30
0.0
 11
287.02667553945412
 21
101.5876981341663
 31
0.0
  0
LINE
  5
1249
  8
0
 10
304.62667553945528
 20
101.5876981341663
 30
0.0
 11
304.72667553945467
 21
101.5876981341663
 31
0.0
  0
LINE
  5
124A
  8
0
 10
287.02667553945412
 20
102.0101984861808
 30
0.0
 11
287.02667553945412
 21
98.687698134166411
 31
0.0
  0
LINE
  5
124B
  8
0
 10
287.82667553945419
 20
100.1929948710799
 30
0.0
 11
287.02667553945417
 21
100.1929948710799
 31
0.0
  0
LINE
  5
124C
  8
0
 10
287.02667553945417
 20
98.795480280056424
 30
0.0
 11
287.82667553945419
 21
98.795480280056424
 31
0.0
  0
LINE
  5
124D
  8
0
 10
287.02667553945417
 20
98.696153741909882
 30
0.0
 11
287.82667553945419
 21
98.696153741909882
 31
0.0
  0
LINE
  5
124E
  8
0
 10
287.82667553945419
 20
98.687698134166411
 30
0.0
 11
287.02667553945417
 21
98.687698134166411
 31
0.0
  0
LINE
  5
124F
  8
0
 10
304.62667553945528
 20
100.1929948710799
 30
0.0
 11
303.82667553945532
 21
100.1929948710799
 31
0.0
  0
LINE
  5
1250
  8
0
 10
304.62667553945528
 20
98.795480280056381
 30
0.0
 11
303.82667553945532
 21
98.795480280056381
 31
0.0
  0
LINE
  5
1251
  8
0
 10
303.82667553945532
 20
98.696153741909825
 30
0.0
 11
304.62667553945528
 21
98.696153741909825
 31
0.0
  0
LINE
  5
1252
  8
0
 10
303.82667553945532
 20
98.687698134166325
 30
0.0
 11
304.62667553945528
 21
98.687698134166325
 31
0.0
  0
LINE
  5
1253
  8
0
 10
304.62667553945528
 20
102.0101984861807
 30
0.0
 11
304.62667553945528
 21
98.687698134166325
 31
0.0
  0
LINE
  5
1254
  8
0
 10
288.32112203998958
 20
44.467698134166483
 30
0.0
 11
303.33222903891982
 21
44.467698134166248
 31
0.0
  0
LINE
  5
1255
  8
0
 10
288.32112203998958
 20
49.467698134166483
 30
0.0
 11
288.32112203998958
 21
44.467698134166483
 31
0.0
  0
LINE
  5
1256
  8
0
 10
288.32112203998958
 20
49.467698134166483
 30
0.0
 11
303.33222903891982
 21
49.46769813416671
 31
0.0
  0
LINE
  5
1257
  8
0
 10
292.07389878972219
 20
49.46769813416654
 30
0.0
 11
292.07389878972219
 21
44.467698134166433
 31
0.0
  0
LINE
  5
1258
  8
0
 10
299.5794522891872
 20
49.46769813416654
 30
0.0
 11
299.5794522891872
 21
44.467698134166433
 31
0.0
  0
LINE
  5
1259
  8
0
 10
303.33222903891982
 20
49.467698134166433
 30
0.0
 11
303.33222903891982
 21
44.467698134166433
 31
0.0
  0
LINE
  5
125A
  8
0
 10
292.30586025928341
 20
62.46746821683621
 30
0.0
 11
287.3266755394547
 21
62.467468216836153
 31
0.0
  0
LINE
  5
125B
  8
0
 10
287.3266755394547
 20
69.467468216836153
 30
0.0
 11
287.3266755394547
 21
62.467468216836153
 31
0.0
  0
LINE
  5
125C
  8
0
 10
292.30586025928352
 20
69.46746821683621
 30
0.0
 11
287.3266755394547
 21
69.467468216836153
 31
0.0
  0
LINE
  5
125D
  8
0
 10
292.30586025928352
 20
69.46746821683621
 30
0.0
 11
292.30586025928341
 21
62.46746821683621
 31
0.0
  0
LINE
  5
125E
  8
0
 10
304.3266755394547
 20
62.467468216836089
 30
0.0
 11
299.34749081962599
 21
62.46746821683621
 31
0.0
  0
LINE
  5
125F
  8
0
 10
299.34749081962599
 20
69.46746821683621
 30
0.0
 11
299.34749081962599
 21
62.46746821683621
 31
0.0
  0
LINE
  5
1260
  8
0
 10
304.32667553945481
 20
69.467468216836096
 30
0.0
 11
299.34749081962599
 21
69.46746821683621
 31
0.0
  0
LINE
  5
1261
  8
0
 10
304.32667553945481
 20
69.467468216836096
 30
0.0
 11
304.3266755394547
 21
62.467468216836089
 31
0.0
  0
LINE
  5
1262
  8
0
 10
299.34749081962599
 20
69.46746821683621
 30
0.0
 11
292.30586025928352
 21
69.46746821683621
 31
0.0
  0
LINE
  5
1263
  8
0
 10
299.34749081962599
 20
62.46746821683621
 30
0.0
 11
292.30586025928341
 21
62.46746821683621
 31
0.0
  0
LINE
  5
1264
  8
0
 10
291.8266755394547
 20
33.667468216836141
 30
0.0
 11
299.8266755394547
 21
33.667468216836141
 31
0.0
  0
LINE
  5
1265
  8
0
 10
298.62667553945471
 20
32.467468216836103
 30
0.0
 11
293.02667553945469
 21
32.467468216836103
 31
0.0
  0
LINE
  5
1266
  8
0
 10
291.8266755394547
 20
73.467468216836096
 30
0.0
 11
299.8266755394547
 21
73.467468216836096
 31
0.0
  0
LINE
  5
1267
  8
0
 10
304.82667553945458
 20
84.887698134166328
 30
0.0
 11
286.82667553945481
 21
84.887698134166428
 31
0.0
  0
LINE
  5
1268
  8
0
 10
304.82667553945481
 20
86.187698134166325
 30
0.0
 11
286.82667553945481
 21
86.187698134166396
 31
0.0
  0
LINE
  5
1269
  8
0
 10
287.3266755394547
 20
86.687698134166496
 30
0.0
 11
304.32667553945481
 21
86.687698134166453
 31
0.0
  0
LINE
  5
126A
  8
0
 10
286.82667553945481
 20
81.967468216836167
 30
0.0
 11
304.82667553945481
 21
81.967468216836096
 31
0.0
  0
LINE
  5
126B
  8
0
 10
304.82667553945481
 20
83.967468216836039
 30
0.0
 11
286.82667553945481
 21
83.967468216836153
 31
0.0
  0
LINE
  5
126C
  8
0
 10
287.3266755394547
 20
84.467468216836167
 30
0.0
 11
303.93915445673741
 21
84.467468216836025
 31
0.0
  0
LINE
  5
126D
  8
0
 10
291.7766755394548
 20
60.387698134166392
 30
0.0
 11
291.8266755394547
 21
60.387698134166392
 31
0.0
  0
LINE
  5
126E
  8
0
 10
299.8266755394547
 20
60.387698134166392
 30
0.0
 11
299.87667553945471
 21
60.387698134166392
 31
0.0
  0
LINE
  5
126F
  8
0
 10
293.02667553945469
 20
30.387698134166389
 30
0.0
 11
298.62667553945471
 21
30.387698134166389
 31
0.0
  0
LINE
  5
1270
  8
0
 10
291.8266755394547
 20
31.58769813416632
 30
0.0
 11
299.8266755394547
 21
31.58769813416632
 31
0.0
  0
LINE
  5
1271
  8
0
 10
305.32667553945481
 20
101.3876981341664
 30
0.0
 11
305.32667553945481
 21
102.7636597295308
 31
0.0
  0
LINE
  5
1272
  8
0
 10
305.8266755394547
 20
103.3876981341667
 30
0.0
 11
305.8266755394547
 21
101.8876981341664
 31
0.0
  0
LINE
  5
1273
  8
0
 10
286.32667553945481
 20
102.7636597295308
 30
0.0
 11
286.32667553945481
 21
101.3876981341664
 31
0.0
  0
LINE
  5
1274
  8
0
 10
286.92667553945478
 20
101.3876981341664
 30
0.0
 11
286.92667553945478
 21
102.1104548311701
 31
0.0
  0
LINE
  5
1275
  8
0
 10
304.72667553945467
 20
101.3876981341664
 30
0.0
 11
304.72667553945467
 21
102.11045483117
 31
0.0
  0
LINE
  5
1276
  8
0
 10
285.82667553945481
 20
101.8876981341664
 30
0.0
 11
285.82667553945481
 21
103.3876981341668
 31
0.0
  0
LINE
  5
1277
  8
0
 10
299.8266755394547
 20
97.53627131832026
 30
0.0
 11
299.8266755394547
 21
99.044978851839687
 31
0.0
  0
POLYLINE
  5
1278
  8
0
 10
299.8266755394547
 20
97.53627131832026
 30
0.0
 66
     1
 70
     8
  0
VERTEX
  8
0
  5
18BB
 10
299.827
 20
97.5363
 30
0.000000
  70
    32
  0
VERTEX
  8
0
  5
18BC
 10
299.827
 20
97.5344
 30
0.000000
  70
    32
  0
VERTEX
  8
0
  5
18BD
 10
299.827
 20
97.5324
 30
0.000000
  70
    32
  0
VERTEX
  8
0
  5
18BE
 10
299.827
 20
97.5305
 30
0.000000
  70
    32
  0
VERTEX
  8
0
  5
18BF
 10
299.827
 20
97.5286
 30
0.000000
  70
    32
  0
VERTEX
  8
0
  5
18C0
 10
299.827
 20
97.5267
 30
0.000000
  70
    32
  0
VERTEX
  8
0
  5
18C1
 10
299.827
 20
97.5248
 30
0.000000
  70
    32
  0
VERTEX
  8
0
  5
18C2
 10
299.827
 20
97.5229
 30
0.000000
  70
    32
  0
VERTEX
  8
0
  5
18C3
 10
299.827
 20
97.5210
 30
0.000000
  70
    32
  0
VERTEX
  8
0
  5
18C4
 10
299.827
 20
97.5191
 30
0.000000
  70
    32
  0
VERTEX
  8
0
  5
18C5
 10
299.827
 20
97.5172
 30
0.000000
  70
    32
  0
VERTEX
  8
0
  5
18C6
 10
299.827
 20
97.5153
 30
0.000000
  70
    32
  0
VERTEX
  8
0
  5
18C7
 10
299.828
 20
97.5133
 30
0.000000
  70
    32
  0
VERTEX
  8
0
  5
18C8
 10
299.828
 20
97.5114
 30
0.000000
  70
    32
  0
VERTEX
  8
0
  5
18C9
 10
299.828
 20
97.5095
 30
0.000000
  70
    32
  0
VERTEX
  8
0
  5
18CA
 10
299.828
 20
97.5076
 30
0.000000
  70
    32
  0
VERTEX
  8
0
  5
18CB
 10
299.828
 20
97.5057
 30
0.000000
  70
    32
  0
VERTEX
  8
0
  5
18CC
 10
299.829
 20
97.5038
 30
0.000000
  70
    32
  0
VERTEX
  8
0
  5
18CD
 10
299.829
 20
97.5019
 30
0.000000
  70
    32
  0
VERTEX
  8
0
  5
18CE
 10
299.829
 20
97.5000
 30
0.000000
  70
    32
  0
VERTEX
  8
0
  5
18CF
 10
299.829
 20
97.4981
 30
0.000000
  70
    32
  0
VERTEX
  8
0
  5
18D0
 10
299.829
 20
97.4962
 30
0.000000
  70
    32
  0
VERTEX
  8
0
  5
18D1
 10
299.830
 20
97.4942
 30
0.000000
  70
    32
  0
VERTEX
  8
0
  5
18D2
 10
299.830
 20
97.4923
 30
0.000000
  70
    32
  0
VERTEX
  8
0
  5
18D3
 10
299.830
 20
97.4904
 30
0.000000
  70
    32
  0
VERTEX
  8
0
  5
18D4
 10
299.831
 20
97.4885
 30
0.000000
  70
    32
  0
VERTEX
  8
0
  5
18D5
 10
299.831
 20
97.4866
 30
0.000000
  70
    32
  0
VERTEX
  8
0
  5
18D6
 10
299.831
 20
97.4847
 30
0.000000
  70
    32
  0
VERTEX
  8
0
  5
18D7
 10
299.832
 20
97.4828
 30
0.000000
  70
    32
  0
VERTEX
  8
0
  5
18D8
 10
299.832
 20
97.4809
 30
0.000000
  70
    32
  0
VERTEX
  8
0
  5
18D9
 10
299.832
 20
97.4790
 30
0.000000
  70
    32
  0
VERTEX
  8
0
  5
18DA
 10
299.833
 20
97.4771
 30
0.000000
  70
    32
  0
VERTEX
  8
0
  5
18DB
 10
299.833
 20
97.4752
 30
0.000000
  70
    32
  0
VERTEX
  8
0
  5
18DC
 10
299.834
 20
97.4733
 30
0.000000
  70
    32
  0
VERTEX
  8
0
  5
18DD
 10
299.834
 20
97.4713
 30
0.000000
  70
    32
  0
VERTEX
  8
0
  5
18DE
 10
299.834
 20
97.4694
 30
0.000000
  70
    32
  0
VERTEX
  8
0
  5
18DF
 10
299.835
 20
97.4675
 30
0.000000
  70
    32
  0
VERTEX
  8
0
  5
18E0
 10
299.835
 20
97.4656
 30
0.000000
  70
    32
  0
VERTEX
  8
0
  5
18E1
 10
299.836
 20
97.4637
 30
0.000000
  70
    32
  0
VERTEX
  8
0
  5
18E2
 10
299.836
 20
97.4618
 30
0.000000
  70
    32
  0
VERTEX
  8
0
  5
18E3
 10
299.837
 20
97.4599
 30
0.000000
  70
    32
  0
VERTEX
  8
0
  5
18E4
 10
299.837
 20
97.4580
 30
0.000000
  70
    32
  0
VERTEX
  8
0
  5
18E5
 10
299.838
 20
97.4561
 30
0.000000
  70
    32
  0
VERTEX
  8
0
  5
18E6
 10
299.838
 20
97.4542
 30
0.000000
  70
    32
  0
VERTEX
  8
0
  5
18E7
 10
299.839
 20
97.4523
 30
0.000000
  70
    32
  0
VERTEX
  8
0
  5
18E8
 10
299.840
 20
97.4504
 30
0.000000
  70
    32
  0
VERTEX
  8
0
  5
18E9
 10
299.840
 20
97.4485
 30
0.000000
  70
    32
  0
VERTEX
  8
0
  5
18EA
 10
299.841
 20
97.4466
 30
0.000000
  70
    32
  0
VERTEX
  8
0
  5
18EB
 10
299.841
 20
97.4447
 30
0.000000
  70
    32
  0
VERTEX
  8
0
  5
18EC
 10
299.842
 20
97.4428
 30
0.000000
  70
    32
  0
VERTEX
  8
0
  5
18ED
 10
299.843
 20
97.4409
 30
0.000000
  70
    32
  0
VERTEX
  8
0
  5
18EE
 10
299.843
 20
97.4390
 30
0.000000
  70
    32
  0
VERTEX
  8
0
  5
18EF
 10
299.844
 20
97.4371
 30
0.000000
  70
    32
  0
VERTEX
  8
0
  5
18F0
 10
299.845
 20
97.4352
 30
0.000000
  70
    32
  0
VERTEX
  8
0
  5
18F1
 10
299.845
 20
97.4332
 30
0.000000
  70
    32
  0
VERTEX
  8
0
  5
18F2
 10
299.846
 20
97.4313
 30
0.000000
  70
    32
  0
VERTEX
  8
0
  5
18F3
 10
299.847
 20
97.4294
 30
0.000000
  70
    32
  0
VERTEX
  8
0
  5
18F4
 10
299.847
 20
97.4275
 30
0.000000
  70
    32
  0
VERTEX
  8
0
  5
18F5
 10
299.848
 20
97.4256
 30
0.000000
  70
    32
  0
VERTEX
  8
0
  5
18F6
 10
299.849
 20
97.4237
 30
0.000000
  70
    32
  0
VERTEX
  8
0
  5
18F7
 10
299.850
 20
97.4218
 30
0.000000
  70
    32
  0
VERTEX
  8
0
  5
18F8
 10
299.850
 20
97.4199
 30
0.000000
  70
    32
  0
VERTEX
  8
0
  5
18F9
 10
299.851
 20
97.4180
 30
0.000000
  70
    32
  0
VERTEX
  8
0
  5
18FA
 10
299.852
 20
97.4161
 30
0.000000
  70
    32
  0
VERTEX
  8
0
  5
18FB
 10
299.853
 20
97.4142
 30
0.000000
  70
    32
  0
VERTEX
  8
0
  5
18FC
 10
299.854
 20
97.4123
 30
0.000000
  70
    32
  0
VERTEX
  8
0
  5
18FD
 10
299.854
 20
97.4105
 30
0.000000
  70
    32
  0
VERTEX
  8
0
  5
18FE
 10
299.855
 20
97.4086
 30
0.000000
  70
    32
  0
VERTEX
  8
0
  5
18FF
 10
299.856
 20
97.4067
 30
0.000000
  70
    32
  0
VERTEX
  8
0
  5
1900
 10
299.857
 20
97.4048
 30
0.000000
  70
    32
  0
VERTEX
  8
0
  5
1901
 10
299.858
 20
97.4029
 30
0.000000
  70
    32
  0
VERTEX
  8
0
  5
1902
 10
299.859
 20
97.4010
 30
0.000000
  70
    32
  0
VERTEX
  8
0
  5
1903
 10
299.860
 20
97.3991
 30
0.000000
  70
    32
  0
VERTEX
  8
0
  5
1904
 10
299.861
 20
97.3972
 30
0.000000
  70
    32
  0
VERTEX
  8
0
  5
1905
 10
299.861
 20
97.3953
 30
0.000000
  70
    32
  0
VERTEX
  8
0
  5
1906
 10
299.862
 20
97.3934
 30
0.000000
  70
    32
  0
VERTEX
  8
0
  5
1907
 10
299.863
 20
97.3915
 30
0.000000
  70
    32
  0
VERTEX
  8
0
  5
1908
 10
299.864
 20
97.3896
 30
0.000000
  70
    32
  0
VERTEX
  8
0
  5
1909
 10
299.865
 20
97.3877
 30
0.000000
  70
    32
  0
VERTEX
  8
0
  5
190A
 10
299.866
 20
97.3858
 30
0.000000
  70
    32
  0
VERTEX
  8
0
  5
190B
 10
299.867
 20
97.3839
 30
0.000000
  70
    32
  0
VERTEX
  8
0
  5
190C
 10
299.868
 20
97.3820
 30
0.000000
  70
    32
  0
VERTEX
  8
0
  5
190D
 10
299.869
 20
97.3801
 30
0.000000
  70
    32
  0
VERTEX
  8
0
  5
190E
 10
299.870
 20
97.3783
 30
0.000000
  70
    32
  0
VERTEX
  8
0
  5
190F
 10
299.871
 20
97.3764
 30
0.000000
  70
    32
  0
VERTEX
  8
0
  5
1910
 10
299.873
 20
97.3745
 30
0.000000
  70
    32
  0
VERTEX
  8
0
  5
1911
 10
299.874
 20
97.3726
 30
0.000000
  70
    32
  0
VERTEX
  8
0
  5
1912
 10
299.875
 20
97.3707
 30
0.000000
  70
    32
  0
VERTEX
  8
0
  5
1913
 10
299.876
 20
97.3688
 30
0.000000
  70
    32
  0
VERTEX
  8
0
  5
1914
 10
299.877
 20
97.3669
 30
0.000000
  70
    32
  0
VERTEX
  8
0
  5
1915
 10
299.878
 20
97.3650
 30
0.000000
  70
    32
  0
VERTEX
  8
0
  5
1916
 10
299.879
 20
97.3632
 30
0.000000
  70
    32
  0
VERTEX
  8
0
  5
1917
 10
299.880
 20
97.3613
 30
0.000000
  70
    32
  0
VERTEX
  8
0
  5
1918
 10
299.882
 20
97.3594
 30
0.000000
  70
    32
  0
VERTEX
  8
0
  5
1919
 10
299.883
 20
97.3575
 30
0.000000
  70
    32
  0
VERTEX
  8
0
  5
191A
 10
299.884
 20
97.3556
 30
0.000000
  70
    32
  0
VERTEX
  8
0
  5
191B
 10
299.885
 20
97.3537
 30
0.000000
  70
    32
  0
VERTEX
  8
0
  5
191C
 10
299.886
 20
97.3518
 30
0.000000
  70
    32
  0
VERTEX
  8
0
  5
191D
 10
299.888
 20
97.3500
 30
0.000000
  70
    32
  0
VERTEX
  8
0
  5
191E
 10
299.889
 20
97.3481
 30
0.000000
  70
    32
  0
VERTEX
  8
0
  5
191F
 10
299.890
 20
97.3462
 30
0.000000
  70
    32
  0
VERTEX
  8
0
  5
1920
 10
299.891
 20
97.3443
 30
0.000000
  70
    32
  0
VERTEX
  8
0
  5
1921
 10
299.893
 20
97.3424
 30
0.000000
  70
    32
  0
VERTEX
  8
0
  5
1922
 10
299.894
 20
97.3406
 30
0.000000
  70
    32
  0
VERTEX
  8
0
  5
1923
 10
299.895
 20
97.3387
 30
0.000000
  70
    32
  0
VERTEX
  8
0
  5
1924
 10
299.897
 20
97.3368
 30
0.000000
  70
    32
  0
VERTEX
  8
0
  5
1925
 10
299.898
 20
97.3349
 30
0.000000
  70
    32
  0
VERTEX
  8
0
  5
1926
 10
299.899
 20
97.3331
 30
0.000000
  70
    32
  0
VERTEX
  8
0
  5
1927
 10
299.901
 20
97.3312
 30
0.000000
  70
    32
  0
VERTEX
  8
0
  5
1928
 10
299.902
 20
97.3293
 30
0.000000
  70
    32
  0
VERTEX
  8
0
  5
1929
 10
299.903
 20
97.3274
 30
0.000000
  70
    32
  0
VERTEX
  8
0
  5
192A
 10
299.905
 20
97.3256
 30
0.000000
  70
    32
  0
VERTEX
  8
0
  5
192B
 10
299.906
 20
97.3237
 30
0.000000
  70
    32
  0
VERTEX
  8
0
  5
192C
 10
299.908
 20
97.3218
 30
0.000000
  70
    32
  0
VERTEX
  8
0
  5
192D
 10
299.909
 20
97.3199
 30
0.000000
  70
    32
  0
VERTEX
  8
0
  5
192E
 10
299.910
 20
97.3181
 30
0.000000
  70
    32
  0
VERTEX
  8
0
  5
192F
 10
299.912
 20
97.3162
 30
0.000000
  70
    32
  0
VERTEX
  8
0
  5
1930
 10
299.913
 20
97.3143
 30
0.000000
  70
    32
  0
VERTEX
  8
0
  5
1931
 10
299.915
 20
97.3125
 30
0.000000
  70
    32
  0
VERTEX
  8
0
  5
1932
 10
299.916
 20
97.3106
 30
0.000000
  70
    32
  0
VERTEX
  8
0
  5
1933
 10
299.918
 20
97.3087
 30
0.000000
  70
    32
  0
VERTEX
  8
0
  5
1934
 10
299.919
 20
97.3069
 30
0.000000
  70
    32
  0
VERTEX
  8
0
  5
1935
 10
299.921
 20
97.3050
 30
0.000000
  70
    32
  0
VERTEX
  8
0
  5
1936
 10
299.922
 20
97.3031
 30
0.000000
  70
    32
  0
VERTEX
  8
0
  5
1937
 10
299.924
 20
97.3013
 30
0.000000
  70
    32
  0
VERTEX
  8
0
  5
1938
 10
299.926
 20
97.2994
 30
0.000000
  70
    32
  0
VERTEX
  8
0
  5
1939
 10
299.927
 20
97.2975
 30
0.000000
  70
    32
  0
VERTEX
  8
0
  5
193A
 10
299.929
 20
97.2957
 30
0.000000
  70
    32
  0
VERTEX
  8
0
  5
193B
 10
299.930
 20
97.2938
 30
0.000000
  70
    32
  0
SEQEND
  8
0
  5
193C
  0
LINE
  5
1279
  8
0
 10
291.72297978700192
 20
97.293808654132704
 30
0.0
 11
299.93037129190759
 21
97.293808654132704
 31
0.0
  0
POLYLINE
  5
127A
  8
0
 10
291.72297978700198
 20
97.293808654132775
 30
0.0
 66
     1
 70
     8
  0
VERTEX
  8
0
  5
193D
 10
291.723
 20
97.2938
 30
0.000000
  70
    32
  0
VERTEX
  8
0
  5
193E
 10
291.725
 20
97.2957
 30
0.000000
  70
    32
  0
VERTEX
  8
0
  5
193F
 10
291.726
 20
97.2975
 30
0.000000
  70
    32
  0
VERTEX
  8
0
  5
1940
 10
291.728
 20
97.2994
 30
0.000000
  70
    32
  0
VERTEX
  8
0
  5
1941
 10
291.729
 20
97.3013
 30
0.000000
  70
    32
  0
VERTEX
  8
0
  5
1942
 10
291.731
 20
97.3031
 30
0.000000
  70
    32
  0
VERTEX
  8
0
  5
1943
 10
291.732
 20
97.3050
 30
0.000000
  70
    32
  0
VERTEX
  8
0
  5
1944
 10
291.734
 20
97.3069
 30
0.000000
  70
    32
  0
VERTEX
  8
0
  5
1945
 10
291.735
 20
97.3087
 30
0.000000
  70
    32
  0
VERTEX
  8
0
  5
1946
 10
291.737
 20
97.3106
 30
0.000000
  70
    32
  0
VERTEX
  8
0
  5
1947
 10
291.738
 20
97.3125
 30
0.000000
  70
    32
  0
VERTEX
  8
0
  5
1948
 10
291.740
 20
97.3143
 30
0.000000
  70
    32
  0
VERTEX
  8
0
  5
1949
 10
291.741
 20
97.3162
 30
0.000000
  70
    32
  0
VERTEX
  8
0
  5
194A
 10
291.743
 20
97.3181
 30
0.000000
  70
    32
  0
VERTEX
  8
0
  5
194B
 10
291.744
 20
97.3199
 30
0.000000
  70
    32
  0
VERTEX
  8
0
  5
194C
 10
291.746
 20
97.3218
 30
0.000000
  70
    32
  0
VERTEX
  8
0
  5
194D
 10
291.747
 20
97.3237
 30
0.000000
  70
    32
  0
VERTEX
  8
0
  5
194E
 10
291.749
 20
97.3256
 30
0.000000
  70
    32
  0
VERTEX
  8
0
  5
194F
 10
291.750
 20
97.3274
 30
0.000000
  70
    32
  0
VERTEX
  8
0
  5
1950
 10
291.751
 20
97.3293
 30
0.000000
  70
    32
  0
VERTEX
  8
0
  5
1951
 10
291.753
 20
97.3312
 30
0.000000
  70
    32
  0
VERTEX
  8
0
  5
1952
 10
291.754
 20
97.3331
 30
0.000000
  70
    32
  0
VERTEX
  8
0
  5
1953
 10
291.755
 20
97.3349
 30
0.000000
  70
    32
  0
VERTEX
  8
0
  5
1954
 10
291.757
 20
97.3368
 30
0.000000
  70
    32
  0
VERTEX
  8
0
  5
1955
 10
291.758
 20
97.3387
 30
0.000000
  70
    32
  0
VERTEX
  8
0
  5
1956
 10
291.759
 20
97.3406
 30
0.000000
  70
    32
  0
VERTEX
  8
0
  5
1957
 10
291.761
 20
97.3424
 30
0.000000
  70
    32
  0
VERTEX
  8
0
  5
1958
 10
291.762
 20
97.3443
 30
0.000000
  70
    32
  0
VERTEX
  8
0
  5
1959
 10
291.763
 20
97.3462
 30
0.000000
  70
    32
  0
VERTEX
  8
0
  5
195A
 10
291.765
 20
97.3481
 30
0.000000
  70
    32
  0
VERTEX
  8
0
  5
195B
 10
291.766
 20
97.3500
 30
0.000000
  70
    32
  0
VERTEX
  8
0
  5
195C
 10
291.767
 20
97.3518
 30
0.000000
  70
    32
  0
VERTEX
  8
0
  5
195D
 10
291.768
 20
97.3537
 30
0.000000
  70
    32
  0
VERTEX
  8
0
  5
195E
 10
291.769
 20
97.3556
 30
0.000000
  70
    32
  0
VERTEX
  8
0
  5
195F
 10
291.771
 20
97.3575
 30
0.000000
  70
    32
  0
VERTEX
  8
0
  5
1960
 10
291.772
 20
97.3594
 30
0.000000
  70
    32
  0
VERTEX
  8
0
  5
1961
 10
291.773
 20
97.3613
 30
0.000000
  70
    32
  0
VERTEX
  8
0
  5
1962
 10
291.774
 20
97.3632
 30
0.000000
  70
    32
  0
VERTEX
  8
0
  5
1963
 10
291.775
 20
97.3650
 30
0.000000
  70
    32
  0
VERTEX
  8
0
  5
1964
 10
291.776
 20
97.3669
 30
0.000000
  70
    32
  0
VERTEX
  8
0
  5
1965
 10
291.778
 20
97.3688
 30
0.000000
  70
    32
  0
VERTEX
  8
0
  5
1966
 10
291.779
 20
97.3707
 30
0.000000
  70
    32
  0
VERTEX
  8
0
  5
1967
 10
291.780
 20
97.3726
 30
0.000000
  70
    32
  0
VERTEX
  8
0
  5
1968
 10
291.781
 20
97.3745
 30
0.000000
  70
    32
  0
VERTEX
  8
0
  5
1969
 10
291.782
 20
97.3764
 30
0.000000
  70
    32
  0
VERTEX
  8
0
  5
196A
 10
291.783
 20
97.3783
 30
0.000000
  70
    32
  0
VERTEX
  8
0
  5
196B
 10
291.784
 20
97.3801
 30
0.000000
  70
    32
  0
VERTEX
  8
0
  5
196C
 10
291.785
 20
97.3820
 30
0.000000
  70
    32
  0
VERTEX
  8
0
  5
196D
 10
291.786
 20
97.3839
 30
0.000000
  70
    32
  0
VERTEX
  8
0
  5
196E
 10
291.787
 20
97.3858
 30
0.000000
  70
    32
  0
VERTEX
  8
0
  5
196F
 10
291.788
 20
97.3877
 30
0.000000
  70
    32
  0
VERTEX
  8
0
  5
1970
 10
291.789
 20
97.3896
 30
0.000000
  70
    32
  0
VERTEX
  8
0
  5
1971
 10
291.790
 20
97.3915
 30
0.000000
  70
    32
  0
VERTEX
  8
0
  5
1972
 10
291.791
 20
97.3934
 30
0.000000
  70
    32
  0
VERTEX
  8
0
  5
1973
 10
291.792
 20
97.3953
 30
0.000000
  70
    32
  0
VERTEX
  8
0
  5
1974
 10
291.793
 20
97.3972
 30
0.000000
  70
    32
  0
VERTEX
  8
0
  5
1975
 10
291.794
 20
97.3991
 30
0.000000
  70
    32
  0
VERTEX
  8
0
  5
1976
 10
291.795
 20
97.4010
 30
0.000000
  70
    32
  0
VERTEX
  8
0
  5
1977
 10
291.796
 20
97.4029
 30
0.000000
  70
    32
  0
VERTEX
  8
0
  5
1978
 10
291.796
 20
97.4048
 30
0.000000
  70
    32
  0
VERTEX
  8
0
  5
1979
 10
291.797
 20
97.4067
 30
0.000000
  70
    32
  0
VERTEX
  8
0
  5
197A
 10
291.798
 20
97.4086
 30
0.000000
  70
    32
  0
VERTEX
  8
0
  5
197B
 10
291.799
 20
97.4105
 30
0.000000
  70
    32
  0
VERTEX
  8
0
  5
197C
 10
291.800
 20
97.4123
 30
0.000000
  70
    32
  0
VERTEX
  8
0
  5
197D
 10
291.801
 20
97.4142
 30
0.000000
  70
    32
  0
VERTEX
  8
0
  5
197E
 10
291.801
 20
97.4161
 30
0.000000
  70
    32
  0
VERTEX
  8
0
  5
197F
 10
291.802
 20
97.4180
 30
0.000000
  70
    32
  0
VERTEX
  8
0
  5
1980
 10
291.803
 20
97.4199
 30
0.000000
  70
    32
  0
VERTEX
  8
0
  5
1981
 10
291.804
 20
97.4218
 30
0.000000
  70
    32
  0
VERTEX
  8
0
  5
1982
 10
291.805
 20
97.4237
 30
0.000000
  70
    32
  0
VERTEX
  8
0
  5
1983
 10
291.805
 20
97.4256
 30
0.000000
  70
    32
  0
VERTEX
  8
0
  5
1984
 10
291.806
 20
97.4275
 30
0.000000
  70
    32
  0
VERTEX
  8
0
  5
1985
 10
291.807
 20
97.4294
 30
0.000000
  70
    32
  0
VERTEX
  8
0
  5
1986
 10
291.807
 20
97.4313
 30
0.000000
  70
    32
  0
VERTEX
  8
0
  5
1987
 10
291.808
 20
97.4332
 30
0.000000
  70
    32
  0
VERTEX
  8
0
  5
1988
 10
291.809
 20
97.4352
 30
0.000000
  70
    32
  0
VERTEX
  8
0
  5
1989
 10
291.809
 20
97.4371
 30
0.000000
  70
    32
  0
VERTEX
  8
0
  5
198A
 10
291.810
 20
97.4390
 30
0.000000
  70
    32
  0
VERTEX
  8
0
  5
198B
 10
291.811
 20
97.4409
 30
0.000000
  70
    32
  0
VERTEX
  8
0
  5
198C
 10
291.811
 20
97.4428
 30
0.000000
  70
    32
  0
VERTEX
  8
0
  5
198D
 10
291.812
 20
97.4447
 30
0.000000
  70
    32
  0
VERTEX
  8
0
  5
198E
 10
291.813
 20
97.4466
 30
0.000000
  70
    32
  0
VERTEX
  8
0
  5
198F
 10
291.813
 20
97.4485
 30
0.000000
  70
    32
  0
VERTEX
  8
0
  5
1990
 10
291.814
 20
97.4504
 30
0.000000
  70
    32
  0
VERTEX
  8
0
  5
1991
 10
291.814
 20
97.4523
 30
0.000000
  70
    32
  0
VERTEX
  8
0
  5
1992
 10
291.815
 20
97.4542
 30
0.000000
  70
    32
  0
VERTEX
  8
0
  5
1993
 10
291.815
 20
97.4561
 30
0.000000
  70
    32
  0
VERTEX
  8
0
  5
1994
 10
291.816
 20
97.4580
 30
0.000000
  70
    32
  0
VERTEX
  8
0
  5
1995
 10
291.817
 20
97.4599
 30
0.000000
  70
    32
  0
VERTEX
  8
0
  5
1996
 10
291.817
 20
97.4618
 30
0.000000
  70
    32
  0
VERTEX
  8
0
  5
1997
 10
291.818
 20
97.4637
 30
0.000000
  70
    32
  0
VERTEX
  8
0
  5
1998
 10
291.818
 20
97.4656
 30
0.000000
  70
    32
  0
VERTEX
  8
0
  5
1999
 10
291.818
 20
97.4675
 30
0.000000
  70
    32
  0
VERTEX
  8
0
  5
199A
 10
291.819
 20
97.4694
 30
0.000000
  70
    32
  0
VERTEX
  8
0
  5
199B
 10
291.819
 20
97.4713
 30
0.000000
  70
    32
  0
VERTEX
  8
0
  5
199C
 10
291.820
 20
97.4733
 30
0.000000
  70
    32
  0
VERTEX
  8
0
  5
199D
 10
291.820
 20
97.4752
 30
0.000000
  70
    32
  0
VERTEX
  8
0
  5
199E
 10
291.821
 20
97.4771
 30
0.000000
  70
    32
  0
VERTEX
  8
0
  5
199F
 10
291.821
 20
97.4790
 30
0.000000
  70
    32
  0
VERTEX
  8
0
  5
19A0
 10
291.821
 20
97.4809
 30
0.000000
  70
    32
  0
VERTEX
  8
0
  5
19A1
 10
291.822
 20
97.4828
 30
0.000000
  70
    32
  0
VERTEX
  8
0
  5
19A2
 10
291.822
 20
97.4847
 30
0.000000
  70
    32
  0
VERTEX
  8
0
  5
19A3
 10
291.822
 20
97.4866
 30
0.000000
  70
    32
  0
VERTEX
  8
0
  5
19A4
 10
291.823
 20
97.4885
 30
0.000000
  70
    32
  0
VERTEX
  8
0
  5
19A5
 10
291.823
 20
97.4904
 30
0.000000
  70
    32
  0
VERTEX
  8
0
  5
19A6
 10
291.823
 20
97.4923
 30
0.000000
  70
    32
  0
VERTEX
  8
0
  5
19A7
 10
291.824
 20
97.4942
 30
0.000000
  70
    32
  0
VERTEX
  8
0
  5
19A8
 10
291.824
 20
97.4962
 30
0.000000
  70
    32
  0
VERTEX
  8
0
  5
19A9
 10
291.824
 20
97.4981
 30
0.000000
  70
    32
  0
VERTEX
  8
0
  5
19AA
 10
291.824
 20
97.5000
 30
0.000000
  70
    32
  0
VERTEX
  8
0
  5
19AB
 10
291.825
 20
97.5019
 30
0.000000
  70
    32
  0
VERTEX
  8
0
  5
19AC
 10
291.825
 20
97.5038
 30
0.000000
  70
    32
  0
VERTEX
  8
0
  5
19AD
 10
291.825
 20
97.5057
 30
0.000000
  70
    32
  0
VERTEX
  8
0
  5
19AE
 10
291.825
 20
97.5076
 30
0.000000
  70
    32
  0
VERTEX
  8
0
  5
19AF
 10
291.825
 20
97.5095
 30
0.000000
  70
    32
  0
VERTEX
  8
0
  5
19B0
 10
291.826
 20
97.5114
 30
0.000000
  70
    32
  0
VERTEX
  8
0
  5
19B1
 10
291.826
 20
97.5133
 30
0.000000
  70
    32
  0
VERTEX
  8
0
  5
19B2
 10
291.826
 20
97.5153
 30
0.000000
  70
    32
  0
VERTEX
  8
0
  5
19B3
 10
291.826
 20
97.5172
 30
0.000000
  70
    32
  0
VERTEX
  8
0
  5
19B4
 10
291.826
 20
97.5191
 30
0.000000
  70
    32
  0
VERTEX
  8
0
  5
19B5
 10
291.826
 20
97.5210
 30
0.000000
  70
    32
  0
VERTEX
  8
0
  5
19B6
 10
291.826
 20
97.5229
 30
0.000000
  70
    32
  0
VERTEX
  8
0
  5
19B7
 10
291.826
 20
97.5248
 30
0.000000
  70
    32
  0
VERTEX
  8
0
  5
19B8
 10
291.827
 20
97.5267
 30
0.000000
  70
    32
  0
VERTEX
  8
0
  5
19B9
 10
291.827
 20
97.5286
 30
0.000000
  70
    32
  0
VERTEX
  8
0
  5
19BA
 10
291.827
 20
97.5305
 30
0.000000
  70
    32
  0
VERTEX
  8
0
  5
19BB
 10
291.827
 20
97.5324
 30
0.000000
  70
    32
  0
VERTEX
  8
0
  5
19BC
 10
291.827
 20
97.5344
 30
0.000000
  70
    32
  0
VERTEX
  8
0
  5
19BD
 10
291.827
 20
97.5363
 30
0.000000
  70
    32
  0
SEQEND
  8
0
  5
19BE
  0
LINE
  5
127B
  8
0
 10
291.8266755394547
 20
97.53627131832026
 30
0.0
 11
291.8266755394547
 21
99.044978851839687
 31
0.0
  0
ARC
  5
127C
  8
0
 10
303.62035280646683
 20
101.31995681854001
 30
0.0
 40
5.461303197914452
 50
227.49461307259341
 51
272.16509415931841
  0
ARC
  5
127D
  8
0
 10
287.8864642400905
 20
101.7188659240752
 30
0.0
 40
5.8566187671697518
 50
269.41507210039998
 51
310.92522066768407
  0
LINE
  5
127E
  8
0
 10
303.8266755394547
 20
93.714395508681832
 30
0.0
 11
287.82667553945481
 21
93.714395508681875
 31
0.0
  0
ARC
  5
127F
  8
0
 10
292.08655007022747
 20
91.376808460602092
 30
0.0
 40
0.768371464998154
 50
87.006569918396877
 51
171.471273769145
  0
LINE
  5
1280
  8
0
 10
291.3266755394547
 20
91.490761984927985
 30
0.0
 11
291.3266755394547
 21
86.687698134166496
 31
0.0
  0
LINE
  5
1281
  8
0
 10
287.82667553945481
 20
88.566806987178609
 30
0.0
 11
291.3266755394547
 21
88.566806987178552
 31
0.0
  0
LINE
  5
1282
  8
0
 10
300.32667553945481
 20
88.566806987178552
 30
0.0
 11
303.8266755394547
 21
88.566806987178552
 31
0.0
  0
LINE
  5
1283
  8
0
 10
300.3266755394547
 20
86.687698134166453
 30
0.0
 11
300.32667553945481
 21
91.490761984927985
 31
0.0
  0
ARC
  5
1284
  8
0
 10
299.58849709820021
 20
91.403373629427733
 30
0.0
 40
0.7433331257316107
 50
6.7514680961772884
 51
94.770688216293252
  0
LINE
  5
1285
  8
0
 10
299.52667553945469
 20
92.144131505311748
 30
0.0
 11
292.12667553945471
 21
92.144131505311748
 31
0.0
  0
LINE
  5
1286
  8
0
 10
303.8266755394547
 20
86.687698134166453
 30
0.0
 11
303.8266755394547
 21
101.2830117780174
 31
0.0
  0
LINE
  5
1287
  8
0
 10
287.82667553945481
 20
86.687698134166496
 30
0.0
 11
287.82667553945481
 21
101.2830117780174
 31
0.0
  0
LINE
  5
1288
  8
0
 10
291.32667553945493
 20
74.467468216836096
 30
0.0
 11
291.32667553945493
 21
69.467468216836096
 31
0.0
  0
LINE
  5
1289
  8
0
 10
288.32667553945493
 20
81.467468216836153
 30
0.0
 11
288.32667553945493
 21
69.467468216836153
 31
0.0
  0
LINE
  5
128A
  8
0
 10
303.32667553945493
 20
81.467468216836096
 30
0.0
 11
303.32667553945493
 21
69.467468216836096
 31
0.0
  0
LINE
  5
128B
  8
0
 10
300.32667553945493
 20
74.467468216836096
 30
0.0
 11
300.32667553945493
 21
69.467468216836096
 31
0.0
  0
LINE
  5
128C
  8
0
 10
291.32667553945493
 20
74.467468216836096
 30
0.0
 11
300.32667553945493
 21
74.467468216836096
 31
0.0
  0
LINE
  5
128D
  8
0
 10
305.32667553945493
 20
81.467468216836096
 30
0.0
 11
305.32667553945493
 21
69.467468216836096
 31
0.0
  0
LINE
  5
128E
  8
0
 10
305.32667553945493
 20
69.467468216836096
 30
0.0
 11
304.32667553945481
 21
69.467468216836096
 31
0.0
  0
LINE
  5
128F
  8
0
 10
286.32667553945493
 20
81.467468216836153
 30
0.0
 11
286.32667553945493
 21
69.467468216836153
 31
0.0
  0
LINE
  5
1290
  8
0
 10
286.32667553945493
 20
81.467468216836153
 30
0.0
 11
305.32667553945493
 21
81.467468216836153
 31
0.0
  0
LINE
  5
1291
  8
0
 10
286.32667553945493
 20
69.467468216836153
 30
0.0
 11
287.3266755394547
 21
69.467468216836153
 31
0.0
  0
LINE
  5
1292
  8
0
 10
287.02667553945412
 20
101.4842870415804
 30
0.0
 11
287.59102985597463
 21
101.4842870415804
 31
0.0
  0
LINE
  5
1293
  8
0
 10
304.06232122293488
 20
101.4842870415804
 30
0.0
 11
304.62667553945528
 21
101.4842870415804
 31
0.0
  0
LINE
  5
1294
  8
0
 10
41.126675003012302
 20
110.6876971230438
 30
0.0
 11
40.326675003012291
 21
110.6876971230438
 31
0.0
  0
LINE
  5
1295
  8
0
 10
24.32667500301093
 20
110.6876971230438
 30
0.0
 11
23.526675003010919
 21
110.6876971230438
 31
0.0
  0
POLYLINE
  5
1296
  8
0
 66
     1
 10
0.0
 20
0.0
 30
0.0
 70
   128
  0
VERTEX
  5
17AF
  8
0
 10
23.326675003011619
 20
84.887697123043893
 30
0.0
  0
VERTEX
  5
17B0
  8
0
 10
23.840038721702062
 20
84.638132810872946
 30
0.0
  0
VERTEX
  5
17B1
  8
0
 10
24.214196085728851
 20
84.467467205713604
 30
0.0
  0
SEQEND
  5
17B2
  8
0
  0
POLYLINE
  5
1297
  8
0
 66
     1
 10
0.0
 20
0.0
 30
0.0
 70
   128
  0
VERTEX
  5
17B3
  8
0
 10
40.439153920294352
 20
84.467467205713604
 30
0.0
  0
VERTEX
  5
17B4
  8
0
 10
40.813311284321138
 20
84.638132810872946
 30
0.0
  0
VERTEX
  5
17B5
  8
0
 10
41.326675003011609
 20
84.887697123043893
 30
0.0
  0
SEQEND
  5
17B6
  8
0
  0
LINE
  5
1298
  8
0
 10
41.326675003011609
 20
84.887697123043893
 30
0.0
 11
41.326675003011609
 21
86.187697123043904
 31
0.0
  0
LINE
  5
1299
  8
0
 10
23.326675003011619
 20
86.187697123043904
 30
0.0
 11
23.326675003011619
 21
84.887697123043893
 31
0.0
  0
LINE
  5
129A
  8
0
 10
41.326675003011609
 20
86.187697123043904
 30
0.0
 11
40.826675003011623
 21
86.687697123043904
 31
0.0
  0
LINE
  5
129B
  8
0
 10
23.826675003011609
 20
86.687697123043904
 30
0.0
 11
23.326675003011619
 21
86.187697123043904
 31
0.0
  0
LINE
  5
129C
  8
0
 10
23.326675003011619
 20
81.967467205713604
 30
0.0
 11
23.826675003011609
 21
81.467467205713604
 31
0.0
  0
LINE
  5
129D
  8
0
 10
40.826675003011623
 20
81.467467205713604
 30
0.0
 11
41.326675003011609
 21
81.967467205713604
 31
0.0
  0
LINE
  5
129E
  8
0
 10
41.326675003011609
 20
81.967467205713604
 30
0.0
 11
41.326675003011609
 21
83.967467205713547
 31
0.0
  0
LINE
  5
129F
  8
0
 10
23.326675003011619
 20
83.967467205713547
 30
0.0
 11
23.326675003011619
 21
81.967467205713604
 31
0.0
  0
LINE
  5
12A0
  8
0
 10
41.326675003011609
 20
83.967467205713547
 30
0.0
 11
40.826675003011623
 21
84.467467205713604
 31
0.0
  0
LINE
  5
12A1
  8
0
 10
23.826675003011609
 20
84.467467205713604
 30
0.0
 11
23.326675003011619
 21
83.967467205713547
 31
0.0
  0
ARC
  5
12A2
  8
0
 10
32.326675003011623
 20
105.38769712304391
 30
0.0
 40
9.0000000000000071
 50
240.0000000000004
 51
243.2563160495977
  0
ARC
  5
12A3
  8
0
 10
32.326675003011623
 20
105.38769712304391
 30
0.0
 40
8.9999999999999947
 50
60.000000000000419
 51
119.9999999999995
  0
ARC
  5
12A4
  8
0
 10
32.326675003011623
 20
105.38769712304391
 30
0.0
 40
9.0
 50
296.74368395040233
 51
299.9999999999996
  0
LINE
  5
12A5
  8
0
 10
36.37667500301157
 20
60.387697123043893
 30
0.0
 11
36.376675003011599
 21
69.46746720571366
 31
0.0
  0
LINE
  5
12A6
  8
0
 10
36.376675003011599
 20
86.687697123043961
 30
0.0
 11
36.376675003011599
 21
97.350440128272623
 31
0.0
  0
LINE
  5
12A7
  8
0
 10
28.276675003011601
 20
97.350440128272623
 30
0.0
 11
28.276675003011601
 21
86.687697123043961
 31
0.0
  0
LINE
  5
12A8
  8
0
 10
28.276675003011601
 20
69.46746720571366
 30
0.0
 11
28.276675003011601
 21
60.387697123043893
 31
0.0
  0
LINE
  5
12A9
  8
0
 10
28.326675003011619
 20
31.587697123043881
 30
0.0
 11
29.526675003011601
 21
30.387697123043889
 31
0.0
  0
LINE
  5
12AA
  8
0
 10
35.12667500301157
 20
30.387697123043889
 30
0.0
 11
36.326675003011587
 21
31.587697123043881
 31
0.0
  0
LINE
  5
12AB
  8
0
 10
28.326675003011619
 20
60.387697123043893
 30
0.0
 11
28.326675003011619
 21
49.467697123043934
 31
0.0
  0
LINE
  5
12AC
  8
0
 10
28.326675003011619
 20
44.467697123043934
 30
0.0
 11
28.326675003011619
 21
31.587697123043881
 31
0.0
  0
LINE
  5
12AD
  8
0
 10
36.326675003011587
 20
31.587697123043881
 30
0.0
 11
36.326675003011587
 21
44.467697123043934
 31
0.0
  0
LINE
  5
12AE
  8
0
 10
36.326675003011587
 20
49.467697123043934
 30
0.0
 11
36.326675003011587
 21
60.387697123043893
 31
0.0
  0
LINE
  5
12AF
  8
0
 10
23.42667500301161
 20
109.38769712304391
 30
0.0
 11
22.826675003011619
 21
109.38769712304391
 31
0.0
  0
LINE
  5
12B0
  8
0
 10
22.826675003011619
 20
101.38769712304391
 30
0.0
 11
23.426675003011582
 21
101.38769712304391
 31
0.0
  0
LINE
  5
12B1
  8
0
 10
41.826675003011609
 20
101.38769712304391
 30
0.0
 11
42.326675003011609
 21
101.88769712304391
 31
0.0
  0
LINE
  5
12B2
  8
0
 10
42.326675003011609
 20
108.88769712304391
 30
0.0
 11
41.826675003011609
 21
109.38769712304391
 31
0.0
  0
LINE
  5
12B3
  8
0
 10
41.826675003011609
 20
109.38769712304391
 30
0.0
 11
41.226675003011621
 21
109.38769712304391
 31
0.0
  0
LINE
  5
12B4
  8
0
 10
41.226675003011621
 20
101.38769712304391
 30
0.0
 11
41.826675003011609
 21
101.38769712304391
 31
0.0
  0
LINE
  5
12B5
  8
0
 10
22.826675003011619
 20
109.38769712304391
 30
0.0
 11
22.326675003011619
 21
108.88769712304391
 31
0.0
  0
LINE
  5
12B6
  8
0
 10
22.326675003011619
 20
101.88769712304391
 30
0.0
 11
22.826675003011619
 21
101.38769712304391
 31
0.0
  0
LINE
  5
12B7
  8
0
 10
41.126675003012217
 20
101.5876971230438
 30
0.0
 11
41.226675003011621
 21
101.5876971230438
 31
0.0
  0
LINE
  5
12B8
  8
0
 10
41.226675003011621
 20
109.1876971230439
 30
0.0
 11
41.126675003012281
 21
109.1876971230439
 31
0.0
  0
LINE
  5
12B9
  8
0
 10
23.526675003010919
 20
109.1876971230439
 30
0.0
 11
23.42667500301161
 21
109.1876971230439
 31
0.0
  0
LINE
  5
12BA
  8
0
 10
23.426675003011582
 20
101.5876971230439
 30
0.0
 11
23.526675003011011
 21
101.5876971230439
 31
0.0
  0
ARC
  5
12BB
  8
0
 10
32.326675003011623
 20
110.88769712304349
 30
0.0
 40
12.5
 50
323.13010235415487
 51
216.8698976458422
  0
LINE
  5
12BC
  8
0
 10
40.326675003012177
 20
101.48428603045789
 30
0.0
 11
41.126675003012203
 21
101.48428603045789
 31
0.0
  0
LINE
  5
12BD
  8
0
 10
41.126675003012132
 20
98.687697123043833
 30
0.0
 11
41.126675003012302
 21
110.6876971230438
 31
0.0
  0
LINE
  5
12BE
  8
0
 10
41.126675003012203
 20
100.1929938599574
 30
0.0
 11
40.326675003012177
 21
100.1929938599574
 31
0.0
  0
LINE
  5
12BF
  8
0
 10
41.126675003012203
 20
98.795479268933889
 30
0.0
 11
40.326675003012149
 21
98.795479268933889
 31
0.0
  0
LINE
  5
12C0
  8
0
 10
40.326675003012149
 20
98.696152730787347
 30
0.0
 11
41.12667500301216
 21
98.696152730787347
 31
0.0
  0
LINE
  5
12C1
  8
0
 10
40.326675003012149
 20
98.687697123043833
 30
0.0
 11
41.12667500301216
 21
98.687697123043833
 31
0.0
  0
LINE
  5
12C2
  8
0
 10
23.526675003011011
 20
101.48428603045789
 30
0.0
 11
24.32667500301099
 21
101.48428603045789
 31
0.0
  0
LINE
  5
12C3
  8
0
 10
23.526675003010919
 20
110.6876971230438
 30
0.0
 11
23.526675003011039
 21
98.687697123043833
 31
0.0
  0
LINE
  5
12C4
  8
0
 10
24.326675003011051
 20
100.1929938599574
 30
0.0
 11
23.526675003011029
 21
100.1929938599574
 31
0.0
  0
LINE
  5
12C5
  8
0
 10
23.526675003011071
 20
98.795479268933889
 30
0.0
 11
24.326675003011051
 21
98.795479268933889
 31
0.0
  0
LINE
  5
12C6
  8
0
 10
23.526675003011029
 20
98.696152730787347
 30
0.0
 11
24.326675003011051
 21
98.696152730787347
 31
0.0
  0
LINE
  5
12C7
  8
0
 10
24.326675003011051
 20
98.687697123043833
 30
0.0
 11
23.526675003011029
 21
98.687697123043833
 31
0.0
  0
LINE
  5
12C8
  8
0
 10
36.079451752744149
 20
49.467697123043934
 30
0.0
 11
36.079451752744149
 21
44.467697123043934
 31
0.0
  0
LINE
  5
12C9
  8
0
 10
28.573898253279051
 20
49.467697123043934
 30
0.0
 11
28.573898253279051
 21
44.467697123043934
 31
0.0
  0
LINE
  5
12CA
  8
0
 10
39.83222850247671
 20
49.46769712304387
 30
0.0
 11
39.83222850247671
 21
44.467697123043934
 31
0.0
  0
LINE
  5
12CB
  8
0
 10
24.82112150354649
 20
49.46769712304387
 30
0.0
 11
24.82112150354649
 21
44.467697123043934
 31
0.0
  0
LINE
  5
12CC
  8
0
 10
24.82112150354649
 20
49.46769712304387
 30
0.0
 11
39.83222850247671
 21
49.46769712304399
 31
0.0
  0
LINE
  5
12CD
  8
0
 10
24.82112150354649
 20
44.467697123043934
 30
0.0
 11
39.83222850247671
 21
44.467697123043934
 31
0.0
  0
LINE
  5
12CE
  8
0
 10
23.826675003011609
 20
62.46746720571349
 30
0.0
 11
28.276675003011601
 21
62.46746720571349
 31
0.0
  0
LINE
  5
12CF
  8
0
 10
23.826675003011609
 20
69.46746720571349
 30
0.0
 11
23.826675003011609
 21
62.46746720571349
 31
0.0
  0
LINE
  5
12D0
  8
0
 10
40.82667500301158
 20
62.46746720571349
 30
0.0
 11
36.37667500301157
 21
62.46746720571349
 31
0.0
  0
LINE
  5
12D1
  8
0
 10
40.826675003011623
 20
69.46746720571349
 30
0.0
 11
40.82667500301158
 21
62.46746720571349
 31
0.0
  0
LINE
  5
12D2
  8
0
 10
41.326675003011609
 20
84.887697123043893
 30
0.0
 11
23.326675003011619
 21
84.887697123043893
 31
0.0
  0
LINE
  5
12D3
  8
0
 10
41.326675003011609
 20
86.187697123043975
 30
0.0
 11
23.326675003011619
 21
86.187697123043904
 31
0.0
  0
LINE
  5
12D4
  8
0
 10
23.826675003011609
 20
86.687697123043904
 30
0.0
 11
40.826675003011552
 21
86.687697123043961
 31
0.0
  0
LINE
  5
12D5
  8
0
 10
23.326675003011619
 20
81.967467205713604
 30
0.0
 11
41.326675003011637
 21
81.967467205713604
 31
0.0
  0
LINE
  5
12D6
  8
0
 10
41.326675003011609
 20
83.967467205713547
 30
0.0
 11
23.326675003011619
 21
83.967467205713547
 31
0.0
  0
LINE
  5
12D7
  8
0
 10
23.826675003011609
 20
84.467467205713604
 30
0.0
 11
40.826675003011623
 21
84.467467205713604
 31
0.0
  0
LINE
  5
12D8
  8
0
 10
36.376675003011599
 20
97.350440128272623
 30
0.0
 11
28.276675003011601
 21
97.350440128272623
 31
0.0
  0
LINE
  5
12D9
  8
0
 10
28.276675003011601
 20
60.387697123043893
 30
0.0
 11
36.37667500301157
 21
60.387697123043893
 31
0.0
  0
LINE
  5
12DA
  8
0
 10
29.526675003011601
 20
30.387697123043889
 30
0.0
 11
35.12667500301157
 21
30.387697123043889
 31
0.0
  0
LINE
  5
12DB
  8
0
 10
28.326675003011591
 20
31.587697123043881
 30
0.0
 11
36.326675003011587
 21
31.587697123043881
 31
0.0
  0
LINE
  5
12DC
  8
0
 10
23.42667500301161
 20
109.38769712304391
 30
0.0
 11
23.426675003011582
 21
101.38769712304391
 31
0.0
  0
LINE
  5
12DD
  8
0
 10
22.826675003011619
 20
109.38769712304391
 30
0.0
 11
22.826675003011619
 21
101.38769712304391
 31
0.0
  0
LINE
  5
12DE
  8
0
 10
42.326675003011609
 20
108.88769712304391
 30
0.0
 11
42.326675003011609
 21
101.88769712304391
 31
0.0
  0
LINE
  5
12DF
  8
0
 10
41.826675003011609
 20
101.38769712304391
 30
0.0
 11
41.826675003011609
 21
109.38769712304391
 31
0.0
  0
LINE
  5
12E0
  8
0
 10
41.226675003011621
 20
109.38769712304391
 30
0.0
 11
41.226675003011621
 21
101.38769712304391
 31
0.0
  0
LINE
  5
12E1
  8
0
 10
22.326675003011619
 20
101.88769712304391
 30
0.0
 11
22.326675003011619
 21
108.88769712304391
 31
0.0
  0
LINE
  5
12E2
  8
0
 10
24.326675003011619
 20
96.739269605603738
 30
0.0
 11
27.826675003011619
 21
96.739269605603738
 31
0.0
  0
LINE
  5
12E3
  8
0
 10
36.826675003011623
 20
96.739269605603738
 30
0.0
 11
40.326675003011609
 21
96.739269605603738
 31
0.0
  0
LINE
  5
12E4
  8
0
 10
36.82667500301163
 20
86.687697123043961
 30
0.0
 11
36.826675003011623
 21
114.88769712304391
 31
0.0
  0
LINE
  5
12E5
  8
0
 10
40.326675003011609
 20
114.88769712304391
 30
0.0
 11
40.326675003011609
 21
86.687697123043904
 31
0.0
  0
LINE
  5
12E6
  8
0
 10
40.326675003011609
 20
114.88769712304391
 30
0.0
 11
24.326675003011619
 21
114.88769712304391
 31
0.0
  0
LINE
  5
12E7
  8
0
 10
27.826675003011619
 20
114.88769712304391
 30
0.0
 11
27.826675003011619
 21
86.687697123043904
 31
0.0
  0
LINE
  5
12E8
  8
0
 10
24.326675003011619
 20
114.88769712304391
 30
0.0
 11
24.32667500301163
 21
86.687697123043847
 31
0.0
  0
ARC
  5
12E9
  8
0
 10
28.467590420660631
 20
91.455372016106693
 30
0.0
 40
0.6418916971789028
 50
107.30308099950309
 51
176.8395501532296
  0
ARC
  5
12EA
  8
0
 10
36.168556630323593
 20
91.445110014458521
 30
0.0
 40
0.6596997821424758
 50
3.9680160470888168
 51
71.610546597734071
  0
ARC
  5
12EB
  8
0
 10
32.348281684428549
 20
111.5399006999195
 30
0.0
 40
4.4474208874902947
 50
48.82916306122965
 51
131.17083693877029
  0
LINE
  5
12EC
  8
0
 10
37.326675003011808
 20
78.467467205713604
 30
0.0
 11
37.326675003011808
 21
69.46746720571366
 31
0.0
  0
LINE
  5
12ED
  8
0
 10
27.32667500301179
 20
78.467467205713604
 30
0.0
 11
27.32667500301179
 21
69.46746720571366
 31
0.0
  0
LINE
  5
12EE
  8
0
 10
37.326675003011808
 20
78.467467205713604
 30
0.0
 11
27.32667500301179
 21
78.467467205713604
 31
0.0
  0
LINE
  5
12EF
  8
0
 10
41.826675003011751
 20
69.467467205713717
 30
0.0
 11
22.826675003011729
 21
69.467467205713604
 31
0.0
  0
LINE
  5
12F0
  8
0
 10
22.826675003011729
 20
81.467467205713604
 30
0.0
 11
22.826675003011729
 21
69.467467205713604
 31
0.0
  0
LINE
  5
12F1
  8
0
 10
41.826675003011751
 20
81.467467205713604
 30
0.0
 11
22.826675003011729
 21
81.467467205713604
 31
0.0
  0
LINE
  5
12F2
  8
0
 10
24.326675003011729
 20
81.467467205713604
 30
0.0
 11
27.32667500301179
 21
78.467467205713604
 31
0.0
  0
LINE
  5
12F3
  8
0
 10
41.826675003011751
 20
81.467467205713604
 30
0.0
 11
41.826675003011751
 21
69.467467205713604
 31
0.0
  0
LINE
  5
12F4
  8
0
 10
40.326675003011751
 20
81.467467205713604
 30
0.0
 11
37.326675003011808
 21
78.467467205713604
 31
0.0
  0
LINE
  5
12F5
  8
0
 10
28.626675003011631
 20
114.88769712304391
 30
0.0
 11
28.626675003011631
 21
113.5919643054313
 31
0.0
  0
LINE
  5
12F6
  8
0
 10
36.026675003011611
 20
113.5919643054313
 30
0.0
 11
36.026675003011611
 21
114.88769712304379
 31
0.0
  0
LINE
  5
12F7
  8
0
 10
116.77667553945351
 20
60.387697462642848
 30
0.0
 11
124.8766755394535
 21
60.387697462642848
 31
0.0
  0
ARC
  5
12F8
  8
0
 10
224.8266755394535
 20
110.88769746264281
 30
0.0
 40
12.500000000000041
 50
203.6518581754498
 51
156.34814182455011
  0
CIRCLE
  5
12F9
  8
0
 10
295.8266755394547
 20
110.8876981341667
 30
0.0
 40
12.50000000000005
  0
LINE
  5
12FB
  8
0
 10
213.3766755394536
 20
187.90242556418451
 30
0.0
 11
213.3766755394536
 21
177.87296894879421
 31
0.0
  0
ARC
  5
12FC
  8
0
 10
224.8266755394537
 20
182.88769725648939
 30
0.0
 40
12.500000000000041
 50
203.6518581754498
 51
156.3481418245502
  0
LINE
  5
1304
  8
3
 10
28.976674518723829
 20
60.387697123043893
 30
0.0
 11
28.976674518723939
 21
49.467467062892581
 31
0.0
  0
LINE
  5
1305
  8
3
 10
35.676674518723992
 20
49.467467062892517
 30
0.0
 11
35.676674518723992
 21
60.387697123043893
 31
0.0
  0
LINE
  5
1306
  8
3
 10
35.676674518723871
 20
30.937697227351979
 30
0.0
 11
35.676674518723871
 21
44.467467062892517
 31
0.0
  0
LINE
  5
1307
  8
3
 10
28.97667451872406
 20
44.467467062892581
 30
0.0
 11
28.976674518723829
 21
30.937697227351979
 31
0.0
  0
LINE
  5
1308
  8
3
 10
299.17667505516721
 20
49.467468074015017
 30
0.0
 11
299.17667505516721
 21
60.467467196338418
 31
0.0
  0
LINE
  5
1309
  8
3
 10
292.47667505516688
 20
60.467467196338482
 30
0.0
 11
292.47667505516699
 21
49.46746807401513
 31
0.0
  0
LINE
  5
130A
  8
3
 10
292.47667505516722
 20
44.467468074015123
 30
0.0
 11
292.47667505516688
 21
30.937698238474471
 31
0.0
  0
LINE
  5
130B
  8
3
 10
299.17667505516692
 20
30.937698238474471
 30
0.0
 11
299.17667505516692
 21
44.467468074015017
 31
0.0
  0
LINE
  5
130C
  8
3
 10
117.4766755394535
 20
60.387697596088678
 30
0.0
 11
117.4766755394535
 21
49.467467535937537
 31
0.0
  0
LINE
  5
130D
  8
3
 10
117.4766755394535
 20
44.467467535937537
 30
0.0
 11
117.4766755394534
 21
30.93769759608875
 31
0.0
  0
LINE
  5
130E
  8
3
 10
124.1766755394533
 20
30.93769759608875
 30
0.0
 11
124.1766755394534
 21
44.467467535937487
 31
0.0
  0
LINE
  5
130F
  8
3
 10
124.1766755394534
 20
49.467467535937487
 30
0.0
 11
124.1766755394535
 21
60.387697596088678
 31
0.0
  0
LINE
  5
1310
  8
3
 10
137.47667505516591
 20
60.46746764962063
 30
0.0
 11
137.47667505516591
 21
49.46746764962063
 31
0.0
  0
LINE
  5
1311
  8
3
 10
137.47667505516591
 20
44.46746764962063
 30
0.0
 11
137.47667505516571
 21
33.017467649620592
 31
0.0
  0
LINE
  5
1312
  8
3
 10
144.17667505516579
 20
33.017467649620592
 30
0.0
 11
144.17667505516579
 21
44.46746764962063
 31
0.0
  0
LINE
  5
1313
  8
3
 10
144.1766750551659
 20
49.46746764962063
 30
0.0
 11
144.1766750551659
 21
60.46746764962063
 31
0.0
  0
LINE
  5
1574
  8
1
 10
32.326675003011587
 20
128.3876962453669
 30
0.0
 11
32.326675003011587
 21
25.387697123043889
 31
0.0
  0
LINE
  5
1575
  8
1
 10
140.82667607589519
 20
27.467467068475351
 30
0.0
 11
140.82667607589539
 21
78.46746805046007
 31
0.0
  0
LINE
  5
1576
  8
1
 10
120.82667607589551
 20
119.88769511763449
 30
0.0
 11
120.82667607589531
 21
25.38769709948895
 31
0.0
  0
LINE
  5
1577
  8
1
 10
106.82667607589531
 20
84.467467649620744
 30
0.0
 11
106.82667607589509
 21
66.467467545312502
 31
0.0
  0
LINE
  5
1578
  8
1
 10
136.82667607589531
 20
84.467467649620616
 30
0.0
 11
136.82667607589531
 21
66.467467545312502
 31
0.0
  0
LINE
  5
1579
  8
1
 10
130.72667607589551
 20
105.3876972329346
 30
0.0
 11
110.9266760758953
 21
105.3876972329346
 31
0.0
  0
LINE
  5
15B7
  8
1
 10
242.3266755394537
 20
182.8876972564893
 30
0.0
 11
89.826675539453589
 21
182.8876972564893
 31
0.0
  0
LINE
  5
15B8
  8
1
 10
120.8266755394538
 20
197.8876972564893
 30
0.0
 11
120.8266755394538
 21
167.88769725648939
 31
0.0
  0
LINE
  5
15B9
  8
1
 10
106.8266755394537
 20
190.3876972564893
 30
0.0
 11
106.8266755394537
 21
175.3876972564893
 31
0.0
  0
LINE
  5
15BA
  8
1
 10
136.82667607589539
 20
190.3876972564893
 30
0.0
 11
136.82667607589539
 21
175.3876972564893
 31
0.0
  0
LINE
  5
15BB
  8
1
 10
140.82667607589539
 20
190.3876972564893
 30
0.0
 11
140.82667607589539
 21
175.3876972564893
 31
0.0
  0
LINE
  5
1626
  8
1
 10
295.8266755394547
 20
128.38769725648939
 30
0.0
 11
295.8266755394547
 21
25.387698134166389
 31
0.0
  0
LINE
  5
16C5
  8
0
 10
144.8266755394535
 20
60.467467649620581
 30
0.0
 11
136.8266755394535
 21
60.467467649620581
 31
0.0
  0
LINE
  5
16C6
  8
0
 10
299.82667553945453
 20
60.467467196338418
 30
0.0
 11
291.82667553945453
 21
60.467467196338418
 31
0.0
  0
ENDSEC
  0
EOF
