  0
SECTION
  2
HEADER
  9
$ACADVER
  1
AC1009
  9
$INSBASE
 10
0.0
 20
0.0
 30
0.0
  9
$EXTMIN
 10
0.0
 20
-2.960436562073669
 30
0.0
  9
$EXTMAX
 10
292.49999999999977
 20
232.4517059221717
 30
0.0
  9
$LIMMIN
 10
0.0
 20
0.0
  9
$LIMMAX
 10
375.0
 20
270.0
  9
$ORTHOMODE
 70
     1
  9
$REGENMODE
 70
     1
  9
$FILLMODE
 70
     1
  9
$QTEXTMODE
 70
     0
  9
$MIRRTEXT
 70
     0
  9
$DRAGMODE
 70
     2
  9
$LTSCALE
 40
10.0
  9
$OSMODE
 70
  3071
  9
$ATTMODE
 70
     1
  9
$TEXTSIZE
 40
0.2
  9
$TRACEWID
 40
0.05
  9
$TEXTSTYLE
  7
STANDARD
  9
$CLAYER
  8
0
  9
$CELTYPE
  6
BYLAYER
  9
$CECOLOR
 62
   256
  9
$DIMSCALE
 40
1.0
  9
$DIMASZ
 40
3.0
  9
$DIMEXO
 40
2.0
  9
$DIMDLI
 40
0.38
  9
$DIMRND
 40
0.0
  9
$DIMDLE
 40
0.0
  9
$DIMEXE
 40
2.0
  9
$DIMTP
 40
0.0
  9
$DIMTM
 40
0.0
  9
$DIMTXT
 40
3.2000000000000002
  9
$DIMCEN
 40
0.0
  9
$DIMTSZ
 40
0.0
  9
$DIMTOL
 70
     0
  9
$DIMLIM
 70
     0
  9
$DIMTIH
 70
     0
  9
$DIMTOH
 70
     0
  9
$DIMSE1
 70
     0
  9
$DIMSE2
 70
     0
  9
$DIMTAD
 70
     1
  9
$DIMZIN
 70
     0
  9
$DIMBLK
  1

  9
$DIMASO
 70
     0
  9
$DIMSHO
 70
     0
  9
$DIMPOST
  1

  9
$DIMAPOST
  1

  9
$DIMALT
 70
     0
  9
$DIMALTD
 70
     2
  9
$DIMALTF
 40
25.399999999999999
  9
$DIMLFAC
 40
1.0
  9
$DIMTOFL
 70
     1
  9
$DIMTVP
 40
1.6000000000000001
  9
$DIMTIX
 70
     1
  9
$DIMSOXD
 70
     0
  9
$DIMSAH
 70
     0
  9
$DIMBLK1
  1

  9
$DIMBLK2
  1

  9
$DIMSTYLE
  2
STANDARD
  9
$DIMCLRD
 70
     0
  9
$DIMCLRE
 70
     0
  9
$DIMCLRT
 70
     0
  9
$DIMTFAC
 40
1.0
  9
$DIMGAP
 40
0.09
  9
$LUNITS
 70
     2
  9
$LUPREC
 70
     4
  9
$SKETCHINC
 40
0.1
  9
$FILLETRAD
 40
0.0
  9
$AUNITS
 70
     0
  9
$AUPREC
 70
     4
  9
$MENU
  1
E:\r13\win\SUPPORT\ACAD
  9
$ELEVATION
 40
0.0
  9
$PELEVATION
 40
0.0
  9
$THICKNESS
 40
0.0
  9
$LIMCHECK
 70
     0
  9
$BLIPMODE
 70
     0
  9
$CHAMFERA
 40
0.0
  9
$CHAMFERB
 40
0.0
  9
$SKPOLY
 70
     0
  9
$TDCREATE
 40
2449839.7514236118
  9
$TDUPDATE
 40
2456597.622088681
  9
$TDINDWG
 40
0.2906083218
  9
$TDUSRTIMER
 40
0.2906083218
  9
$USRTIMER
 70
     1
  9
$ANGBASE
 50
0.0
  9
$ANGDIR
 70
     0
  9
$PDMODE
 70
     0
  9
$PDSIZE
 40
0.0
  9
$PLINEWID
 40
0.0
  9
$COORDS
 70
     1
  9
$SPLFRAME
 70
     0
  9
$SPLINETYPE
 70
     6
  9
$SPLINESEGS
 70
     8
  9
$ATTDIA
 70
     0
  9
$ATTREQ
 70
     1
  9
$HANDLING
 70
     1
  9
$HANDSEED
  5
F05
  9
$SURFTAB1
 70
     6
  9
$SURFTAB2
 70
     6
  9
$SURFTYPE
 70
     6
  9
$SURFU
 70
     6
  9
$SURFV
 70
     6
  9
$UCSNAME
  2

  9
$UCSORG
 10
0.0
 20
0.0
 30
0.0
  9
$UCSXDIR
 10
1.0
 20
0.0
 30
0.0
  9
$UCSYDIR
 10
0.0
 20
1.0
 30
0.0
  9
$PUCSNAME
  2

  9
$PUCSORG
 10
0.0
 20
0.0
 30
0.0
  9
$PUCSXDIR
 10
1.0
 20
0.0
 30
0.0
  9
$PUCSYDIR
 10
0.0
 20
1.0
 30
0.0
  9
$USERI1
 70
     0
  9
$USERI2
 70
     1
  9
$USERI3
 70
     0
  9
$USERI4
 70
     0
  9
$USERI5
 70
     0
  9
$USERR1
 40
0.0
  9
$USERR2
 40
0.0
  9
$USERR3
 40
0.0
  9
$USERR4
 40
0.0
  9
$USERR5
 40
0.0
  9
$WORLDVIEW
 70
     1
  9
$SHADEDGE
 70
     3
  9
$SHADEDIF
 70
    70
  9
$TILEMODE
 70
     1
  9
$MAXACTVP
 70
    16
  9
$PLIMCHECK
 70
     0
  9
$PEXTMIN
 10
1.0000000000000000E+020
 20
1.0000000000000000E+020
 30
1.0000000000000000E+020
  9
$PEXTMAX
 10
-1.0000000000000000E+020
 20
-1.0000000000000000E+020
 30
-1.0000000000000000E+020
  9
$PLIMMIN
 10
0.0
 20
0.0
  9
$PLIMMAX
 10
12.0
 20
9.0
  9
$UNITMODE
 70
     0
  9
$VISRETAIN
 70
     0
  9
$PLINEGEN
 70
     0
  9
$PSLTSCALE
 70
     0
  0
ENDSEC
  0
SECTION
  2
TABLES
  0
TABLE
  2
VPORT
 70
     1
  0
VPORT
  2
*ACTIVE
 70
     0
 10
0.0
 20
0.0
 11
1.0
 21
1.0
 12
195.0581083320873
 22
133.5127261426681
 13
0.0
 23
0.0
 14
10.0
 24
10.0
 15
10.0
 25
10.0
 16
0.0
 26
0.0
 36
1.0
 17
0.0
 27
0.0
 37
0.0
 40
275.42274993631997
 41
1.831871345029239
 42
50.0
 43
0.0
 44
0.0
 50
0.0
 51
0.0
 71
     0
 72
   500
 73
     1
 74
     0
 75
     0
 76
     0
 77
     0
 78
     2
  0
ENDTAB
  0
TABLE
  2
LTYPE
 70
     4
  0
LTYPE
  2
CONTINUOUS
 70
     0
  3
Solid Line
 72
    65
 73
     0
 40
0.0
  0
LTYPE
  2
CENTER
 70
     0
  3
____ _ ____ _ ____ _ ____ _ ____ _ ____ _ ____
 72
    65
 73
     4
 40
2.0
 49
1.25
 49
-0.25
 49
0.25
 49
-0.25
  0
LTYPE
  2
HIDDEN
 70
     0
  3
_ _ _ _ _ _ _ _ _ _ _ _ _ _ _ _ _ _ _ _ _ _ _
 72
    65
 73
     2
 40
0.375
 49
0.25
 49
-0.125
  0
LTYPE
  2
PHANTOM2
 70
     0
  3
___ _ _ ___ _ _ ___ _ _ ___ _ _
 72
    65
 73
     6
 40
1.25
 49
0.625
 49
-0.125
 49
0.125
 49
-0.125
 49
0.125
 49
-0.125
  0
ENDTAB
  0
TABLE
  2
LAYER
 70
     4
  0
LAYER
  2
0
 70
     0
 62
     7
  6
CONTINUOUS
  0
LAYER
  2
1
 70
     0
 62
     1
  6
CENTER
  0
LAYER
  2
2
 70
     0
 62
     2
  6
HIDDEN
  0
LAYER
  2
3
 70
     0
 62
     3
  6
CONTINUOUS
  0
ENDTAB
  0
TABLE
  2
STYLE
 70
     2
  0
STYLE
  2
STANDARD
 70
     0
 40
0.0
 41
1.0
 50
0.0
 71
     0
 42
0.2
  3
TXT
  4
BIGFONT
  0
STYLE
  2
STANDARD1
 70
     0
 40
0.0
 41
1.0
 50
0.0
 71
     0
 42
3.0
  3
txt
  4

  0
ENDTAB
  0
TABLE
  2
VIEW
 70
     1
  0
VIEW
  2
ALL
 70
     0
 40
179.5384664489153
 10
135.0
 20
89.769233224457665
 41
0.0
 11
0.0
 21
0.0
 31
1.0
 12
0.0
 22
0.0
 32
0.0
 42
0.0
 43
0.0
 44
0.0
 50
0.0
 71
     0
  0
ENDTAB
  0
TABLE
  2
UCS
 70
     0
  0
ENDTAB
  0
TABLE
  2
APPID
 70
     4
  0
APPID
  2
ACAD
 70
     0
  0
APPID
  2
ACAD_MLEADERVER
 70
     0
  0
APPID
  2
ACAD_NAV_VCDISPLAY
 70
     0
  0
APPID
  2
ACAD_EXEMPT_FROM_CAD_STANDARDS
 70
     0
  0
ENDTAB
  0
TABLE
  2
DIMSTYLE
 70
     1
  0
DIMSTYLE
  2
STANDARD
 70
     0
  3

  4

  5

  6

  7

 40
1.0
 41
0.18
 42
0.0625
 43
0.38
 44
0.18
 45
0.0
 46
0.0
 47
0.0
 48
0.0
140
0.18
141
0.09
142
0.0
143
25.399999999999999
144
1.0
145
0.0
146
1.0
147
0.09
 71
     0
 72
     0
 73
     1
 74
     1
 75
     0
 76
     0
 77
     0
 78
     0
170
     0
171
     2
172
     0
173
     0
174
     0
175
     0
176
     0
177
     0
178
     0
  0
ENDTAB
  0
ENDSEC
  0
SECTION
  2
BLOCKS
  0
BLOCK
  8
0
  2
$MODEL_SPACE
 70
     0
 10
0.0
 20
0.0
 30
0.0
  3
$MODEL_SPACE
  1

  0
ENDBLK
  5
1B6
  8
0
  0
BLOCK
 67
     1
  8
0
  2
$PAPER_SPACE
 70
     0
 10
0.0
 20
0.0
 30
0.0
  3
$PAPER_SPACE
  1

  0
ENDBLK
  5
1B4
 67
     1
  8
0
  0
ENDSEC
  0
SECTION
  2
ENTITIES
  0
ARC
  5
11F
  8
0
 10
189.9999999999994
 20
210.0
 30
0.0
 40
11.0
 50
72.024034886867895
 51
287.97596511317312
  0
CIRCLE
  5
120
  8
0
 10
189.9999999999998
 20
210.0
 30
0.0
 40
7.866025403784362
  0
LINE
  5
121
  8
0
 10
193.3947981153521
 20
199.53695332343401
 30
0.0
 11
208.85697890846461
 21
204.86085257086111
 31
0.0
  0
ARC
  5
122
  8
0
 10
189.9999999999998
 20
210.0
 30
0.0
 40
11.0
 50
304.49870752370413
 51
55.501292476295859
  0
LINE
  5
123
  8
1
 10
189.9999999999998
 20
232.4517059221717
 30
0.0
 11
189.9999999999998
 21
187.54829407782819
 31
0.0
  0
ARC
  5
124
  8
0
 10
208.53141931306499
 20
205.80637409353699
 30
0.0
 40
1.0
 50
288.99948134587203
 51
347.2488416806184
  0
ARC
  5
125
  8
0
 10
208.53141931306499
 20
214.19362590646301
 30
0.0
 40
1.0
 50
12.75115831938151
 51
71.000518654131128
  0
LINE
  5
126
  8
0
 10
193.39479811534909
 20
220.4630466765671
 30
0.0
 11
208.85697890846461
 21
215.13914742913889
 31
0.0
  0
ARC
  5
127
  8
0
 10
189.9999999999998
 20
210.0
 30
0.0
 40
20.0
 50
347.2488416806184
 51
12.75115831938156
  0
LINE
  5
128
  8
1
 10
220.0
 20
210.0
 30
0.0
 11
168.99999999999969
 21
210.00000000000011
 31
0.0
  0
ARC
  5
28B
  8
0
 10
290.49999999999972
 20
126.4999999999999
 30
0.0
 40
0.5
 50
270.0
 51
0.0000000000002106
  0
ARC
  5
28C
  8
0
 10
290.49999999999972
 20
136.49999999999989
 30
0.0
 40
0.5
 50
0.0000000000002106
 51
90.0
  0
LINE
  5
28D
  8
0
 10
290.9999999999996
 20
136.49999999999989
 30
0.0
 11
290.99999999999977
 21
126.4999999999999
 31
0.0
  0
LINE
  5
28E
  8
0
 10
290.49999999999972
 20
125.9999999999999
 30
0.0
 11
287.6420999999998
 21
125.9999999999999
 31
0.0
  0
LINE
  5
28F
  8
0
 10
268.99999999999977
 20
136.49999999999989
 30
0.0
 11
268.99999999999977
 21
126.4999999999999
 31
0.0
  0
ARC
  5
290
  8
0
 10
269.49999999999977
 20
136.49999999999989
 30
0.0
 40
0.5
 50
90.0
 51
179.99999999999989
  0
ARC
  5
291
  8
0
 10
269.49999999999977
 20
126.4999999999999
 30
0.0
 40
0.5
 50
179.99999999999989
 51
270.0
  0
ARC
  5
292
  8
0
 10
270.69999999999982
 20
125.1999999999998
 30
0.0
 40
0.8
 50
0.0000000000007195
 51
90.0
  0
LINE
  5
294
  8
0
 10
288.99999999999977
 20
124.05838015129081
 30
0.0
 11
270.99999999999977
 21
124.05838015129019
 31
0.0
  0
LINE
  5
295
  8
0
 10
288.99999999999977
 20
124.05838015129019
 30
0.0
 11
288.99999999999977
 21
97.499999999999915
 31
0.0
  0
LINE
  5
296
  8
0
 10
288.49999999999977
 20
124.7999999999999
 30
0.0
 11
288.49999999999977
 21
125.1999999999998
 31
0.0
  0
ARC
  5
297
  8
0
 10
289.29999999999973
 20
125.1999999999998
 30
0.0
 40
0.8
 50
90.0
 51
179.9999999999994
  0
ARC
  5
298
  8
0
 10
289.29999999999973
 20
124.7999999999999
 30
0.0
 40
0.8
 50
179.99999999999901
 51
247.97568716296129
  0
ARC
  5
299
  8
0
 10
270.69999999999982
 20
124.7999999999999
 30
0.0
 40
0.8
 50
292.02431283703862
 51
0.000000000000923
  0
LINE
  5
29A
  8
0
 10
271.49999999999977
 20
124.7999999999999
 30
0.0
 11
271.49999999999977
 21
125.1999999999998
 31
0.0
  0
LINE
  5
29B
  8
0
 10
270.99999999999977
 20
124.05838015129019
 30
0.0
 11
270.99999999999977
 21
97.499999999999915
 31
0.0
  0
LINE
  5
29C
  8
0
 10
269.49999999999977
 20
136.9999999999998
 30
0.0
 11
290.50000190734829
 21
136.9999999999998
 31
0.0
  0
LINE
  5
29D
  8
0
 10
285.63397459621387
 20
138.9999999999998
 30
0.0
 11
286.49999999999977
 21
138.49999999999889
 31
0.0
  0
LINE
  5
29E
  8
0
 10
286.49999999999977
 20
138.49999999999889
 30
0.0
 11
286.49999999999977
 21
136.9999999999998
 31
0.0
  0
LINE
  5
29F
  8
0
 10
273.49999999999977
 20
138.49999999999889
 30
0.0
 11
273.49999999999977
 21
136.99999999999989
 31
0.0
  0
LINE
  5
2A0
  8
0
 10
274.36602540378573
 20
138.9999999999998
 30
0.0
 11
273.49999999999977
 21
138.49999999999889
 31
0.0
  0
LINE
  5
2A1
  8
0
 10
274.36602540378573
 20
138.9999999999998
 30
0.0
 11
285.63397459621387
 21
138.9999999999998
 31
0.0
  0
LINE
  5
2A2
  8
0
 10
286.49999999999977
 20
138.49999999999889
 30
0.0
 11
273.49999999999977
 21
138.49999999999889
 31
0.0
  0
LINE
  5
2A3
  8
0
 10
272.97216999999972
 20
124.9999999999999
 30
0.0
 11
287.02782999999982
 21
124.9999999999999
 31
0.0
  0
LINE
  5
2A4
  8
0
 10
272.99999999999977
 20
131.99999999999989
 30
0.0
 11
286.99999999999972
 21
131.99999999999989
 31
0.0
  0
LINE
  5
2A5
  8
0
 10
286.99999999999977
 20
131.99999999999989
 30
0.0
 11
286.99999999999977
 21
124.9999999999999
 31
0.0
  0
LINE
  5
2A6
  8
0
 10
272.99999999999977
 20
131.99999999999989
 30
0.0
 11
272.99999999999977
 21
124.9999999999999
 31
0.0
  0
LINE
  5
2A7
  8
0
 10
272.35789999999957
 20
125.9999999999999
 30
0.0
 11
269.49999999999977
 21
125.9999999999999
 31
0.0
  0
LINE
  5
2A8
  8
0
 10
272.35789999999957
 20
125.9999999999999
 30
0.0
 11
272.97216999999972
 21
124.9999999999999
 31
0.0
  0
LINE
  5
2A9
  8
0
 10
287.6420999999998
 20
125.9999999999999
 30
0.0
 11
287.02782999999982
 21
124.9999999999999
 31
0.0
  0
LINE
  5
2AA
  8
0
 10
286.99999999999977
 20
131.99999999999989
 30
0.0
 11
290.49999999999972
 21
136.99999999999989
 31
0.0
  0
LINE
  5
2AB
  8
0
 10
272.99999999999977
 20
131.99999999999989
 30
0.0
 11
269.49999999999977
 21
136.9999999999998
 31
0.0
  0
LINE
  5
2AC
  8
0
 10
271.49999999999977
 20
96.999999999999943
 30
0.0
 11
270.99999999999977
 21
97.499999999999957
 31
0.0
  0
LINE
  5
2AD
  8
0
 10
288.49999999999972
 20
96.999999999999929
 30
0.0
 11
288.99999999999972
 21
97.499999999999915
 31
0.0
  0
LINE
  5
2AE
  8
0
 10
271.49999999999977
 20
96.999999999999943
 30
0.0
 11
288.49999999999972
 21
96.999999999999943
 31
0.0
  0
LINE
  5
2AF
  8
0
 10
270.99999999999977
 20
97.500000000000071
 30
0.0
 11
288.99999999999977
 21
97.500000000000071
 31
0.0
  0
LINE
  5
2B0
  8
0
 10
100.9999999999998
 20
97.500000000000071
 30
0.0
 11
118.9999999999997
 21
97.500000000000071
 31
0.0
  0
LINE
  5
2B1
  8
0
 10
116.4999999999997
 20
138.49999999999889
 30
0.0
 11
103.4999999999997
 21
138.49999999999889
 31
0.0
  0
LINE
  5
2B2
  8
0
 10
104.3660254037856
 20
138.9999999999998
 30
0.0
 11
115.6339745962138
 21
138.9999999999998
 31
0.0
  0
LINE
  5
2B3
  8
0
 10
104.3660254037856
 20
138.9999999999998
 30
0.0
 11
103.4999999999997
 21
138.49999999999889
 31
0.0
  0
LINE
  5
2B4
  8
0
 10
103.4999999999997
 20
138.49999999999889
 30
0.0
 11
103.4999999999997
 21
136.99999999999989
 31
0.0
  0
LINE
  5
2B5
  8
0
 10
116.4999999999997
 20
138.49999999999889
 30
0.0
 11
116.4999999999997
 21
136.9999999999998
 31
0.0
  0
LINE
  5
2B6
  8
0
 10
115.6339745962138
 20
138.9999999999998
 30
0.0
 11
116.4999999999997
 21
138.49999999999889
 31
0.0
  0
LINE
  5
2B7
  8
0
 10
99.499999999999773
 20
136.9999999999998
 30
0.0
 11
120.50000190734831
 21
136.9999999999998
 31
0.0
  0
LINE
  5
2B8
  8
0
 10
100.9999999999998
 20
124.05838015129019
 30
0.0
 11
100.9999999999998
 21
97.499999999999915
 31
0.0
  0
LINE
  5
2B9
  8
0
 10
101.4999999999997
 20
96.999999999999943
 30
0.0
 11
118.4999999999996
 21
96.999999999999943
 31
0.0
  0
LINE
  5
2BA
  8
0
 10
118.4999999999996
 20
96.999999999999929
 30
0.0
 11
118.9999999999996
 21
97.499999999999915
 31
0.0
  0
LINE
  5
2BB
  8
0
 10
101.4999999999997
 20
96.999999999999943
 30
0.0
 11
100.9999999999998
 21
97.499999999999957
 31
0.0
  0
LINE
  5
2BC
  8
0
 10
101.4999999999997
 20
124.7999999999999
 30
0.0
 11
101.4999999999997
 21
125.1999999999998
 31
0.0
  0
ARC
  5
2BD
  8
0
 10
100.6999999999997
 20
124.7999999999999
 30
0.0
 40
0.8
 50
292.02431283703862
 51
0.000000000000923
  0
ARC
  5
2BE
  8
0
 10
119.2999999999996
 20
124.7999999999999
 30
0.0
 40
0.8
 50
179.99999999999901
 51
247.97568716296129
  0
ARC
  5
2BF
  8
0
 10
119.2999999999996
 20
125.1999999999998
 30
0.0
 40
0.8
 50
90.0
 51
179.9999999999994
  0
LINE
  5
2C0
  8
0
 10
118.4999999999997
 20
124.7999999999999
 30
0.0
 11
118.4999999999997
 21
125.1999999999998
 31
0.0
  0
LINE
  5
2C1
  8
0
 10
118.9999999999997
 20
124.05838015129019
 30
0.0
 11
118.9999999999997
 21
97.499999999999915
 31
0.0
  0
LINE
  5
2C2
  8
0
 10
118.9999999999997
 20
124.05838015129081
 30
0.0
 11
100.9999999999998
 21
124.05838015129019
 31
0.0
  0
ARC
  5
2C4
  8
0
 10
100.6999999999997
 20
125.1999999999998
 30
0.0
 40
0.8
 50
0.0000000000007195
 51
90.0
  0
ARC
  5
2C5
  8
0
 10
99.499999999999716
 20
126.4999999999999
 30
0.0
 40
0.5
 50
179.99999999999989
 51
270.0
  0
ARC
  5
2C6
  8
0
 10
99.499999999999773
 20
136.49999999999989
 30
0.0
 40
0.5
 50
90.0
 51
179.99999999999989
  0
LINE
  5
2C7
  8
0
 10
98.999999999999773
 20
136.49999999999989
 30
0.0
 11
98.999999999999716
 21
126.4999999999999
 31
0.0
  0
LINE
  5
2C8
  8
0
 10
120.4999999999997
 20
125.9999999999999
 30
0.0
 11
99.499999999999716
 21
125.9999999999999
 31
0.0
  0
LINE
  5
2C9
  8
0
 10
120.9999999999996
 20
136.49999999999989
 30
0.0
 11
120.9999999999997
 21
126.4999999999999
 31
0.0
  0
ARC
  5
2CA
  8
0
 10
120.4999999999996
 20
136.49999999999989
 30
0.0
 40
0.5
 50
0.0000000000002106
 51
90.0
  0
ARC
  5
2CB
  8
0
 10
120.4999999999997
 20
126.4999999999999
 30
0.0
 40
0.5
 50
270.0
 51
0.0000000000002106
  0
LINE
  5
2CC
  8
0
 10
201.58767453844109
 20
125.9999999999999
 30
0.0
 11
179.49999999999969
 21
125.9999999999999
 31
0.0
  0
LINE
  5
2CD
  8
0
 10
178.99999999999969
 20
136.49999999999989
 30
0.0
 11
178.99999999999969
 21
126.4999999999999
 31
0.0
  0
LINE
  5
2CE
  8
0
 10
203.22483920649421
 20
124.9999999999999
 30
0.0
 11
201.58767453844109
 21
125.9999999999999
 31
0.0
  0
ARC
  5
2CF
  8
0
 10
179.49999999999969
 20
136.49999999999989
 30
0.0
 40
0.5
 50
90.0
 51
179.99999999999989
  0
ARC
  5
2D0
  8
0
 10
179.49999999999969
 20
126.4999999999999
 30
0.0
 40
0.5
 50
179.99999999999989
 51
270.0
  0
ARC
  5
2D1
  8
0
 10
180.6999999999997
 20
125.1999999999998
 30
0.0
 40
0.8
 50
0.0000000000007195
 51
90.0
  0
LINE
  5
2D3
  8
0
 10
198.99999999999969
 20
124.05838015129081
 30
0.0
 11
180.99999999999969
 21
124.05838015129019
 31
0.0
  0
LINE
  5
2D4
  8
0
 10
198.99999999999969
 20
124.05838015129019
 30
0.0
 11
198.99999999999969
 21
97.499999999999915
 31
0.0
  0
LINE
  5
2D5
  8
0
 10
198.49999999999969
 20
124.7999999999999
 30
0.0
 11
198.49999999999969
 21
125.1999999999998
 31
0.0
  0
ARC
  5
2D6
  8
0
 10
199.2999999999997
 20
125.1999999999998
 30
0.0
 40
0.8
 50
90.0
 51
179.9999999999994
  0
ARC
  5
2D7
  8
0
 10
199.2999999999997
 20
124.7999999999999
 30
0.0
 40
0.8
 50
179.99999999999901
 51
247.97568716296129
  0
ARC
  5
2D8
  8
0
 10
180.6999999999997
 20
124.7999999999999
 30
0.0
 40
0.8
 50
292.02431283703862
 51
0.000000000000923
  0
LINE
  5
2D9
  8
0
 10
181.49999999999969
 20
124.7999999999999
 30
0.0
 11
181.49999999999969
 21
125.1999999999998
 31
0.0
  0
LINE
  5
2DA
  8
0
 10
181.49999999999969
 20
96.999999999999943
 30
0.0
 11
180.99999999999969
 21
97.499999999999957
 31
0.0
  0
LINE
  5
2DB
  8
0
 10
198.4999999999996
 20
96.999999999999929
 30
0.0
 11
198.9999999999996
 21
97.499999999999915
 31
0.0
  0
LINE
  5
2DC
  8
0
 10
181.49999999999969
 20
96.999999999999943
 30
0.0
 11
198.4999999999996
 21
96.999999999999943
 31
0.0
  0
LINE
  5
2DD
  8
0
 10
180.99999999999969
 20
124.05838015129019
 30
0.0
 11
180.99999999999969
 21
97.499999999999915
 31
0.0
  0
ARC
  5
2DE
  8
0
 10
209.49999999999969
 20
131.70579832550061
 30
0.0
 40
0.5
 50
0.0000000000001088
 51
60.945395900922883
  0
ARC
  5
2DF
  8
0
 10
198.40873971802571
 20
126.9999999999999
 30
0.0
 40
10.0
 50
60.945395900922883
 51
90.0
  0
LINE
  5
2E0
  8
0
 10
209.742821465589
 20
132.14287696356129
 30
0.0
 11
203.265169029812
 21
135.7415727612152
 31
0.0
  0
ARC
  5
2E1
  8
0
 10
209.49999999999969
 20
125.4999999999999
 30
0.0
 40
0.5
 50
270.0
 51
0.0000000000001088
  0
LINE
  5
2E2
  8
0
 10
209.99999999999969
 20
131.70579832550061
 30
0.0
 11
209.99999999999969
 21
125.4999999999999
 31
0.0
  0
LINE
  5
2E3
  8
0
 10
179.49999999999969
 20
136.9999999999998
 30
0.0
 11
198.40873971802571
 21
136.9999999999998
 31
0.0
  0
LINE
  5
2E4
  8
0
 10
209.49999999999969
 20
124.9999999999999
 30
0.0
 11
203.22483920649421
 21
124.9999999999999
 31
0.0
  0
LINE
  5
2E5
  8
0
 10
195.63397459621379
 20
138.9999999999998
 30
0.0
 11
196.49999999999969
 21
138.49999999999889
 31
0.0
  0
LINE
  5
2E6
  8
0
 10
196.49999999999969
 20
138.49999999999889
 30
0.0
 11
196.49999999999969
 21
136.9999999999998
 31
0.0
  0
LINE
  5
2E7
  8
0
 10
183.49999999999969
 20
138.49999999999889
 30
0.0
 11
183.49999999999969
 21
136.99999999999989
 31
0.0
  0
LINE
  5
2E8
  8
0
 10
184.36602540378561
 20
138.9999999999998
 30
0.0
 11
183.49999999999969
 21
138.49999999999889
 31
0.0
  0
LINE
  5
2E9
  8
0
 10
184.36602540378561
 20
138.9999999999998
 30
0.0
 11
195.63397459621379
 21
138.9999999999998
 31
0.0
  0
LINE
  5
2EA
  8
0
 10
196.49999999999969
 20
138.49999999999889
 30
0.0
 11
183.49999999999969
 21
138.49999999999889
 31
0.0
  0
LINE
  5
2EB
  8
0
 10
180.99999999999969
 20
97.500000000000071
 30
0.0
 11
198.9999999999998
 21
97.500000000000071
 31
0.0
  0
LINE
  5
306
  8
1
 10
279.99999999999972
 20
148.9999999999998
 30
0.0
 11
279.99999999999972
 21
50.999999999999957
 31
0.0
  0
LINE
  5
309
  8
0
 10
283.99999999999972
 20
77.499999999999972
 30
0.0
 11
283.99999999999972
 21
62.199999999999932
 31
0.0
  0
LINE
  5
30A
  8
0
 10
275.99999999999972
 20
77.5
 30
0.0
 11
275.99999999999972
 21
62.199999999999982
 31
0.0
  0
LINE
  5
30B
  8
0
 10
282.79999999999973
 20
60.999999999999943
 30
0.0
 11
277.1999999999997
 21
61.0
 31
0.0
  0
LINE
  5
30C
  8
0
 10
275.99999999999972
 20
77.5
 30
0.0
 11
283.99999999999972
 21
77.5
 31
0.0
  0
LINE
  5
30D
  8
0
 10
276.74999999999972
 20
79.599999999999966
 30
0.0
 11
276.74999999999972
 21
77.899999999999977
 31
0.0
  0
LINE
  5
30E
  8
0
 10
275.99999999999972
 20
62.199999999999982
 30
0.0
 11
277.1999999999997
 21
61.0
 31
0.0
  0
LINE
  5
30F
  8
0
 10
282.79999999999973
 20
60.999999999999943
 30
0.0
 11
283.99999999999972
 21
62.199999999999932
 31
0.0
  0
LINE
  5
310
  8
0
 10
283.99999999999977
 20
62.199999999999982
 30
0.0
 11
275.99999999999972
 21
62.199999999999982
 31
0.0
  0
ARC
  5
313
  8
0
 10
276.34999999999968
 20
79.599999999999966
 30
0.0
 40
0.4
 50
0.0
 51
90.0
  0
ARC
  5
314
  8
0
 10
276.34999999999968
 20
77.899999999999977
 30
0.0
 40
0.4
 50
270.0
 51
0.0
  0
ARC
  5
315
  8
0
 10
283.64999999999969
 20
77.899999999999977
 30
0.0
 40
0.4
 50
180.0
 51
270.0
  0
ARC
  5
316
  8
0
 10
283.64999999999969
 20
79.599999999999966
 30
0.0
 40
0.4
 50
90.0
 51
180.0
  0
LINE
  5
317
  8
0
 10
283.24999999999972
 20
79.599999999999966
 30
0.0
 11
283.24999999999972
 21
77.899999999999977
 31
0.0
  0
LINE
  5
318
  8
0
 10
272.99999999999932
 20
97.000000000000014
 30
0.0
 11
271.99999999999932
 21
96.000000000000028
 31
0.0
  0
LINE
  5
319
  8
0
 10
287.00000000000011
 20
97.000000000000014
 30
0.0
 11
288.00000000000011
 21
96.000000000000028
 31
0.0
  0
LINE
  5
31A
  8
3
 10
283.3234999999998
 20
61.52350000000007
 30
0.0
 11
283.3234999999998
 21
77.500000000000014
 31
0.0
  0
LINE
  5
31B
  8
3
 10
276.67649999999958
 20
61.523500000000112
 30
0.0
 11
276.67649999999969
 21
77.500000000000014
 31
0.0
  0
LINE
  5
33C
  8
1
 10
109.9999999999997
 20
148.9999999999998
 30
0.0
 11
109.9999999999997
 21
50.999999999999957
 31
0.0
  0
LINE
  5
33F
  8
0
 10
113.9999999999997
 20
77.499999999999972
 30
0.0
 11
113.9999999999997
 21
62.199999999999932
 31
0.0
  0
LINE
  5
340
  8
0
 10
105.9999999999997
 20
77.5
 30
0.0
 11
105.9999999999997
 21
62.199999999999982
 31
0.0
  0
LINE
  5
341
  8
0
 10
112.7999999999997
 20
60.999999999999943
 30
0.0
 11
107.1999999999997
 21
61.0
 31
0.0
  0
LINE
  5
342
  8
0
 10
105.9999999999997
 20
77.5
 30
0.0
 11
113.9999999999997
 21
77.5
 31
0.0
  0
LINE
  5
343
  8
0
 10
106.7499999999997
 20
79.599999999999966
 30
0.0
 11
106.7499999999997
 21
77.899999999999977
 31
0.0
  0
LINE
  5
344
  8
0
 10
105.9999999999997
 20
62.199999999999982
 30
0.0
 11
107.1999999999997
 21
61.0
 31
0.0
  0
LINE
  5
345
  8
0
 10
112.7999999999997
 20
60.999999999999943
 30
0.0
 11
113.9999999999997
 21
62.199999999999932
 31
0.0
  0
LINE
  5
346
  8
0
 10
113.9999999999997
 20
62.199999999999982
 30
0.0
 11
105.9999999999997
 21
62.199999999999982
 31
0.0
  0
ARC
  5
349
  8
0
 10
106.3499999999997
 20
79.599999999999966
 30
0.0
 40
0.4
 50
0.0
 51
90.0
  0
ARC
  5
34A
  8
0
 10
106.3499999999997
 20
77.899999999999977
 30
0.0
 40
0.4
 50
270.0
 51
0.0
  0
ARC
  5
34B
  8
0
 10
113.64999999999969
 20
77.899999999999977
 30
0.0
 40
0.4
 50
180.0
 51
270.0
  0
ARC
  5
34C
  8
0
 10
113.64999999999969
 20
79.599999999999966
 30
0.0
 40
0.4
 50
90.0
 51
180.0
  0
LINE
  5
34D
  8
0
 10
113.2499999999997
 20
79.599999999999966
 30
0.0
 11
113.2499999999997
 21
77.899999999999977
 31
0.0
  0
LINE
  5
34E
  8
0
 10
102.9999999999993
 20
97.000000000000014
 30
0.0
 11
101.9999999999993
 21
96.000000000000028
 31
0.0
  0
LINE
  5
34F
  8
0
 10
117.0000000000001
 20
97.000000000000014
 30
0.0
 11
118.0000000000001
 21
96.000000000000028
 31
0.0
  0
LINE
  5
350
  8
3
 10
113.3234999999998
 20
61.52350000000007
 30
0.0
 11
113.3234999999998
 21
77.500000000000014
 31
0.0
  0
LINE
  5
351
  8
3
 10
106.67649999999961
 20
61.523500000000112
 30
0.0
 11
106.67649999999961
 21
77.500000000000014
 31
0.0
  0
LINE
  5
370
  8
3
 10
186.67649999999961
 20
61.523500000000112
 30
0.0
 11
186.67649999999961
 21
77.500000000000014
 31
0.0
  0
LINE
  5
371
  8
3
 10
193.3234999999998
 20
61.52350000000007
 30
0.0
 11
193.3234999999998
 21
77.500000000000014
 31
0.0
  0
LINE
  5
372
  8
0
 10
197.00000000000011
 20
97.000000000000014
 30
0.0
 11
198.00000000000011
 21
96.000000000000028
 31
0.0
  0
LINE
  5
375
  8
0
 10
182.99999999999929
 20
97.000000000000014
 30
0.0
 11
181.99999999999929
 21
96.000000000000028
 31
0.0
  0
LINE
  5
378
  8
0
 10
193.24999999999969
 20
79.599999999999966
 30
0.0
 11
193.24999999999969
 21
77.899999999999977
 31
0.0
  0
ARC
  5
379
  8
0
 10
193.64999999999969
 20
79.599999999999966
 30
0.0
 40
0.4
 50
90.0
 51
180.0
  0
ARC
  5
37A
  8
0
 10
193.64999999999969
 20
77.899999999999977
 30
0.0
 40
0.4
 50
180.0
 51
270.0
  0
ARC
  5
37B
  8
0
 10
186.34999999999971
 20
77.899999999999977
 30
0.0
 40
0.4
 50
270.0
 51
0.0
  0
ARC
  5
37C
  8
0
 10
186.34999999999971
 20
79.599999999999966
 30
0.0
 40
0.4
 50
0.0
 51
90.0
  0
LINE
  5
380
  8
0
 10
193.99999999999969
 20
62.199999999999982
 30
0.0
 11
185.99999999999969
 21
62.199999999999982
 31
0.0
  0
LINE
  5
381
  8
0
 10
192.7999999999997
 20
60.999999999999943
 30
0.0
 11
193.99999999999969
 21
62.199999999999932
 31
0.0
  0
LINE
  5
382
  8
0
 10
185.99999999999969
 20
62.199999999999982
 30
0.0
 11
187.1999999999997
 21
61.0
 31
0.0
  0
LINE
  5
383
  8
0
 10
186.74999999999969
 20
79.599999999999966
 30
0.0
 11
186.74999999999969
 21
77.899999999999977
 31
0.0
  0
LINE
  5
384
  8
0
 10
185.99999999999969
 20
77.5
 30
0.0
 11
193.99999999999969
 21
77.5
 31
0.0
  0
LINE
  5
385
  8
0
 10
192.7999999999997
 20
60.999999999999943
 30
0.0
 11
187.1999999999997
 21
61.0
 31
0.0
  0
LINE
  5
386
  8
0
 10
185.99999999999969
 20
77.5
 30
0.0
 11
185.99999999999969
 21
62.199999999999982
 31
0.0
  0
LINE
  5
387
  8
0
 10
193.99999999999969
 20
77.499999999999972
 30
0.0
 11
193.99999999999969
 21
62.199999999999932
 31
0.0
  0
LINE
  5
38D
  8
1
 10
189.99999999999969
 20
148.9999999999998
 30
0.0
 11
189.99999999999969
 21
50.999999999999957
 31
0.0
  0
CIRCLE
  5
38E
  8
0
 10
189.99999999999969
 20
210.0
 30
0.0
 40
6.5
  0
LINE
  5
38F
  8
0
 10
191.7320508075685
 20
207.0
 30
0.0
 11
193.46410161513739
 21
210.0
 31
0.0
  0
LINE
  5
390
  8
0
 10
193.46410161513739
 20
210.0
 30
0.0
 11
191.7320508075685
 21
213.0
 31
0.0
  0
LINE
  5
391
  8
0
 10
191.7320508075685
 20
213.0
 30
0.0
 11
188.2679491924309
 21
213.0
 31
0.0
  0
LINE
  5
392
  8
0
 10
188.2679491924309
 20
213.0
 30
0.0
 11
186.53589838486201
 21
210.0
 31
0.0
  0
LINE
  5
393
  8
0
 10
186.53589838486201
 20
210.0
 30
0.0
 11
188.2679491924309
 21
207.0
 31
0.0
  0
LINE
  5
394
  8
0
 10
188.2679491924309
 20
207.0
 30
0.0
 11
191.73205080756881
 21
207.0
 31
0.0
  0
CIRCLE
  5
395
  8
0
 10
189.99999999999969
 20
210.0
 30
0.0
 40
5.633974596214216
  0
CIRCLE
  5
63F
  8
0
 10
200.1999999999997
 20
96.699999999999989
 30
0.0
 40
0.7
  0
CIRCLE
  5
640
  8
0
 10
200.1999999999997
 20
125.2999999999999
 30
0.0
 40
0.7
  0
LINE
  5
641
  8
3
 10
199.4999999999996
 20
125.2999999999999
 30
0.0
 11
199.4999999999996
 21
96.699999999999989
 31
0.0
  0
LINE
  5
642
  8
3
 10
200.89999999999969
 20
96.699999999999989
 30
0.0
 11
200.89999999999969
 21
125.2999999999999
 31
0.0
  0
CIRCLE
  5
64D
  8
0
 10
290.1999999999997
 20
96.69999999999996
 30
0.0
 40
0.7
  0
CIRCLE
  5
64E
  8
0
 10
290.1999999999997
 20
125.2999999999999
 30
0.0
 40
0.7
  0
LINE
  5
64F
  8
3
 10
289.4999999999996
 20
125.2999999999999
 30
0.0
 11
289.4999999999996
 21
96.69999999999996
 31
0.0
  0
LINE
  5
650
  8
3
 10
290.89999999999969
 20
96.69999999999996
 30
0.0
 11
290.89999999999969
 21
125.2999999999999
 31
0.0
  0
CIRCLE
  5
65B
  8
0
 10
120.1999999999997
 20
96.699999999999989
 30
0.0
 40
0.7
  0
CIRCLE
  5
65C
  8
0
 10
120.1999999999997
 20
125.2999999999999
 30
0.0
 40
0.7
  0
LINE
  5
65D
  8
3
 10
119.4999999999996
 20
125.2999999999999
 30
0.0
 11
119.4999999999996
 21
96.699999999999989
 31
0.0
  0
LINE
  5
65E
  8
3
 10
120.89999999999969
 20
96.699999999999989
 30
0.0
 11
120.89999999999969
 21
125.2999999999999
 31
0.0
  0
LINE
  5
669
  8
3
 10
99.099999999999682
 20
96.699999999999989
 30
0.0
 11
99.099999999999682
 21
125.2999999999999
 31
0.0
  0
LINE
  5
66A
  8
3
 10
100.4999999999996
 20
125.2999999999999
 30
0.0
 11
100.4999999999996
 21
96.699999999999989
 31
0.0
  0
CIRCLE
  5
66B
  8
0
 10
99.799999999999685
 20
125.2999999999999
 30
0.0
 40
0.7
  0
CIRCLE
  5
66C
  8
0
 10
99.799999999999685
 20
96.699999999999989
 30
0.0
 40
0.7
  0
LINE
  5
677
  8
3
 10
179.0999999999996
 20
96.699999999999989
 30
0.0
 11
179.0999999999996
 21
125.2999999999999
 31
0.0
  0
LINE
  5
678
  8
3
 10
180.4999999999996
 20
125.2999999999999
 30
0.0
 11
180.4999999999996
 21
96.699999999999989
 31
0.0
  0
CIRCLE
  5
679
  8
0
 10
179.79999999999961
 20
125.2999999999999
 30
0.0
 40
0.7
  0
CIRCLE
  5
67A
  8
0
 10
179.79999999999961
 20
96.699999999999989
 30
0.0
 40
0.7
  0
LINE
  5
685
  8
3
 10
269.09999999999968
 20
96.699999999999989
 30
0.0
 11
269.09999999999968
 21
125.2999999999999
 31
0.0
  0
LINE
  5
686
  8
3
 10
270.4999999999996
 20
125.2999999999999
 30
0.0
 11
270.4999999999996
 21
96.699999999999989
 31
0.0
  0
CIRCLE
  5
687
  8
0
 10
269.79999999999973
 20
125.2999999999999
 30
0.0
 40
0.7
  0
CIRCLE
  5
688
  8
0
 10
269.79999999999973
 20
96.699999999999989
 30
0.0
 40
0.7
  0
LINE
  5
A9A
  8
0
 10
200.4999999999998
 20
79.999999999999972
 30
0.0
 11
200.99999999999969
 21
80.28867513459474
 31
0.0
  0
LINE
  5
A9B
  8
0
 10
200.9999999999998
 20
95.711324865405317
 30
0.0
 11
200.4999999999998
 21
96.000000000000085
 31
0.0
  0
LINE
  5
A9C
  8
0
 10
200.9999999999998
 20
95.711324865405317
 30
0.0
 11
200.99999999999969
 21
80.28867513459474
 31
0.0
  0
LINE
  5
AAF
  8
0
 10
200.50000000000011
 20
95.999999999999972
 30
0.0
 11
179.4999999999996
 21
96.000000000000085
 31
0.0
  0
LINE
  5
AB0
  8
0
 10
178.9999999999996
 20
95.711324865405317
 30
0.0
 11
178.99999999999969
 21
80.28867513459474
 31
0.0
  0
LINE
  5
AB1
  8
0
 10
200.49999999999969
 20
79.999999999999972
 30
0.0
 11
179.4999999999996
 21
79.999999999999972
 31
0.0
  0
LINE
  5
AB7
  8
0
 10
189.64174095030069
 20
94.958672337933507
 30
0.0
 11
189.6417409503006
 21
81.041327662066436
 31
0.0
  0
LINE
  5
AB8
  8
0
 10
179.358259049699
 20
94.987147666530944
 30
0.0
 11
179.35825904969869
 21
81.012852333469127
 31
0.0
  0
ARC
  5
ABE
  8
0
 10
189.9999999999998
 20
210.0
 30
0.0
 40
12.5
 50
148.3576365763289
 51
151.642363423673
  0
ARC
  5
ABF
  8
0
 10
189.9999999999998
 20
210.0
 30
0.0
 40
12.5
 50
208.35763657632691
 51
211.6423634236711
  0
ARC
  5
AC0
  8
0
 10
189.9999999999998
 20
210.0
 30
0.0
 40
12.5
 50
268.35763657632913
 51
271.64236342367087
  0
ARC
  5
AC1
  8
2
 10
189.9999999999998
 20
210.0
 30
0.0
 40
12.5
 50
328.3576365763289
 51
331.64236342367229
  0
ARC
  5
AC2
  8
2
 10
189.9999999999998
 20
210.0
 30
0.0
 40
12.5
 50
28.357636576326961
 51
31.6423634236711
  0
ARC
  5
AD5
  8
0
 10
189.9999999999998
 20
210.0
 30
0.0
 40
12.5
 50
88.357636576329085
 51
91.642363423670901
  0
LINE
  5
ADC
  8
0
 10
178.99999999999969
 20
94.987147666530944
 30
0.0
 11
179.35825904969889
 21
94.987147666530944
 31
0.0
  0
LINE
  5
ADD
  8
0
 10
189.64174095030069
 20
94.958672337933507
 30
0.0
 11
190.35825904969869
 21
94.958672337933507
 31
0.0
  0
ARC
  5
ADE
  8
0
 10
184.45145360280719
 20
77.441031654957527
 30
0.0
 40
18.270380889499869
 50
73.496013584395868
 51
106.1866791076806
  0
LINE
  5
D39
  8
0
 10
178.9999999999996
 20
95.711324865405317
 30
0.0
 11
179.4999999999996
 21
96.000000000000085
 31
0.0
  0
LINE
  5
D3A
  8
0
 10
179.4999999999996
 20
79.999999999999972
 30
0.0
 11
178.99999999999969
 21
80.28867513459474
 31
0.0
  0
LINE
  5
D74
  8
0
 10
189.64174095030069
 20
81.04132766206655
 30
0.0
 11
190.35825904969869
 21
81.04132766206655
 31
0.0
  0
LINE
  5
D75
  8
0
 10
178.99999999999969
 20
81.012852333469127
 30
0.0
 11
179.35825904969889
 21
81.012852333469127
 31
0.0
  0
LINE
  5
D7D
  8
0
 10
190.35825904969889
 20
94.958672337933507
 30
0.0
 11
190.35825904969869
 21
81.041327662066436
 31
0.0
  0
ARC
  5
D86
  8
0
 10
184.45145360280719
 20
98.55896834504243
 30
0.0
 40
18.270380889499869
 50
253.81332089231941
 51
286.50398641560412
  0
LINE
  5
D87
  8
0
 10
200.64174095030049
 20
94.987147666530944
 30
0.0
 11
200.64174095030069
 21
81.012852333469127
 31
0.0
  0
LINE
  5
D88
  8
0
 10
200.99999999999969
 20
94.987147666530944
 30
0.0
 11
200.64174095030049
 21
94.987147666530944
 31
0.0
  0
ARC
  5
D89
  8
0
 10
195.54854639719221
 20
77.441031654957527
 30
0.0
 40
18.270380889499869
 50
73.813320892319396
 51
106.5039864156041
  0
LINE
  5
D8A
  8
0
 10
200.99999999999969
 20
81.012852333469127
 30
0.0
 11
200.64174095030049
 21
81.012852333469127
 31
0.0
  0
ARC
  5
D8B
  8
0
 10
195.54854639719221
 20
98.55896834504243
 30
0.0
 40
18.270380889499869
 50
253.49601358439591
 51
286.18667910768062
  0
LINE
  5
DE2
  8
0
 10
194.5906454904096
 20
220.05129551252949
 30
0.0
 11
190.358259049699
 21
222.49486496338841
 31
0.0
  0
LINE
  5
DE3
  8
0
 10
189.6417409503006
 20
222.49486496338841
 30
0.0
 11
179.358259049699
 21
216.55769391986939
 31
0.0
  0
LINE
  5
DE4
  8
0
 10
178.9999999999998
 20
215.93717104351899
 30
0.0
 11
178.9999999999998
 21
204.0628289564811
 31
0.0
  0
LINE
  5
DE5
  8
0
 10
179.358259049699
 20
203.44230608013069
 30
0.0
 11
189.6417409503006
 21
197.50513503661179
 31
0.0
  0
LINE
  5
DE6
  8
0
 10
190.358259049699
 20
197.5051350366117
 30
0.0
 11
194.59064549040929
 21
199.94870448747031
 31
0.0
  0
LINE
  5
DE7
  8
2
 10
200.9999999999998
 20
204.0628289564811
 30
0.0
 11
200.9999999999998
 21
215.93717104351899
 31
0.0
  0
LINE
  5
DE8
  8
2
 10
200.6417409503006
 20
216.55769391986939
 30
0.0
 11
194.5906454904096
 21
220.05129551252949
 31
0.0
  0
LINE
  5
DE9
  8
2
 10
194.59064549040929
 20
199.94870448747031
 30
0.0
 11
200.64174095030069
 21
203.44230608013069
 31
0.0
  0
LINE
  5
DEC
  8
0
 10
291.9999999999996
 20
79.999999999999972
 30
0.0
 11
292.49999999999949
 21
80.28867513459474
 31
0.0
  0
LINE
  5
DED
  8
0
 10
292.4999999999996
 20
95.711324865405317
 30
0.0
 11
291.9999999999996
 21
96.000000000000085
 31
0.0
  0
LINE
  5
DEE
  8
0
 10
292.4999999999996
 20
95.711324865405317
 30
0.0
 11
292.49999999999949
 21
80.28867513459474
 31
0.0
  0
LINE
  5
DEF
  8
0
 10
291.99999999999977
 20
95.999999999999957
 30
0.0
 11
267.9999999999996
 21
96.000000000000099
 31
0.0
  0
LINE
  5
DF0
  8
0
 10
267.49999999999949
 20
95.711324865405317
 30
0.0
 11
267.4999999999996
 21
80.28867513459474
 31
0.0
  0
LINE
  5
DF1
  8
0
 10
291.9999999999996
 20
79.999999999999972
 30
0.0
 11
267.9999999999996
 21
79.999999999999972
 31
0.0
  0
LINE
  5
DF2
  8
0
 10
267.49999999999949
 20
95.711324865405317
 30
0.0
 11
267.99999999999949
 21
96.000000000000085
 31
0.0
  0
LINE
  5
DF3
  8
0
 10
267.99999999999949
 20
79.999999999999972
 30
0.0
 11
267.4999999999996
 21
80.28867513459474
 31
0.0
  0
ARC
  5
DF4
  8
0
 10
270.44428255724318
 20
86.634492662282099
 30
0.0
 40
6.3459939933334262
 50
242.35711330342741
 51
298.19200134630768
  0
ARC
  5
DF5
  8
0
 10
279.99999999999949
 20
71.918375695923061
 30
0.0
 40
23.79296680432763
 50
75.550019632010674
 51
104.4499803679893
  0
ARC
  5
DF6
  8
0
 10
279.99999999999949
 20
104.0794103105561
 30
0.0
 40
23.790822855013619
 50
255.54868911486079
 51
284.45131088513921
  0
LINE
  5
DF7
  8
0
 10
273.44230608013038
 20
81.04132766206655
 30
0.0
 11
273.44230608013038
 21
94.958672337933507
 31
0.0
  0
LINE
  5
DF8
  8
0
 10
274.06282895648059
 20
81.04132766206655
 30
0.0
 11
274.06282895648059
 21
94.958672337933507
 31
0.0
  0
LINE
  5
DF9
  8
0
 10
285.93717104351839
 20
81.04132766206655
 30
0.0
 11
285.93717104351839
 21
94.958672337933507
 31
0.0
  0
LINE
  5
DFA
  8
0
 10
286.55769391986888
 20
81.041327662066536
 30
0.0
 11
286.55769391986888
 21
94.958672337933507
 31
0.0
  0
LINE
  5
DFB
  8
0
 10
286.55769391986888
 20
94.958672337933507
 30
0.0
 11
285.93717104351839
 21
94.958672337933507
 31
0.0
  0
LINE
  5
DFC
  8
0
 10
274.06282895648059
 20
94.958672337933507
 30
0.0
 11
273.44230608013038
 21
94.958672337933507
 31
0.0
  0
LINE
  5
DFD
  8
0
 10
286.55769391986888
 20
81.04132766206655
 30
0.0
 11
285.93717104351839
 21
81.04132766206655
 31
0.0
  0
LINE
  5
DFE
  8
0
 10
274.06282895648059
 20
81.04132766206655
 30
0.0
 11
273.44230608013038
 21
81.04132766206655
 31
0.0
  0
ARC
  5
DFF
  8
0
 10
270.44428255724318
 20
89.365507337717929
 30
0.0
 40
6.3459939933334262
 50
61.807998653692323
 51
117.6428866965726
  0
ARC
  5
E00
  8
0
 10
289.55571744275602
 20
86.634492662282099
 30
0.0
 40
6.3459939933334262
 50
241.807998653689
 51
297.64288669657589
  0
ARC
  5
E01
  8
0
 10
289.55571744275602
 20
89.365507337717929
 30
0.0
 40
6.3459939933334262
 50
62.357113303424107
 51
118.1920013463109
  0
LINE
  5
E02
  8
0
 10
121.9999999999996
 20
79.999999999999972
 30
0.0
 11
122.4999999999995
 21
80.28867513459474
 31
0.0
  0
LINE
  5
E03
  8
0
 10
122.4999999999996
 20
95.711324865405317
 30
0.0
 11
121.9999999999996
 21
96.000000000000085
 31
0.0
  0
LINE
  5
E04
  8
0
 10
122.4999999999996
 20
95.711324865405317
 30
0.0
 11
122.4999999999995
 21
80.28867513459474
 31
0.0
  0
LINE
  5
E05
  8
0
 10
121.9999999999998
 20
95.999999999999957
 30
0.0
 11
97.999999999999616
 21
96.000000000000099
 31
0.0
  0
LINE
  5
E06
  8
0
 10
97.499999999999503
 20
95.711324865405317
 30
0.0
 11
97.499999999999602
 21
80.28867513459474
 31
0.0
  0
LINE
  5
E07
  8
0
 10
121.9999999999996
 20
79.999999999999972
 30
0.0
 11
97.999999999999616
 21
79.999999999999972
 31
0.0
  0
LINE
  5
E08
  8
0
 10
97.499999999999503
 20
95.711324865405317
 30
0.0
 11
97.999999999999488
 21
96.000000000000085
 31
0.0
  0
LINE
  5
E09
  8
0
 10
97.999999999999488
 20
79.999999999999972
 30
0.0
 11
97.499999999999602
 21
80.28867513459474
 31
0.0
  0
ARC
  5
E0A
  8
0
 10
100.4442825572432
 20
86.634492662282099
 30
0.0
 40
6.3459939933334262
 50
242.35711330342741
 51
298.19200134630768
  0
ARC
  5
E0B
  8
0
 10
109.9999999999995
 20
71.918375695923061
 30
0.0
 40
23.79296680432763
 50
75.550019632010674
 51
104.4499803679893
  0
ARC
  5
E0C
  8
0
 10
109.9999999999995
 20
104.0794103105561
 30
0.0
 40
23.790822855013619
 50
255.54868911486079
 51
284.45131088513921
  0
LINE
  5
E0D
  8
0
 10
103.44230608013039
 20
81.04132766206655
 30
0.0
 11
103.44230608013039
 21
94.958672337933507
 31
0.0
  0
LINE
  5
E0E
  8
0
 10
104.0628289564806
 20
81.04132766206655
 30
0.0
 11
104.0628289564806
 21
94.958672337933507
 31
0.0
  0
LINE
  5
E0F
  8
0
 10
115.9371710435184
 20
81.04132766206655
 30
0.0
 11
115.9371710435184
 21
94.958672337933507
 31
0.0
  0
LINE
  5
E10
  8
0
 10
116.5576939198688
 20
81.041327662066536
 30
0.0
 11
116.5576939198688
 21
94.958672337933507
 31
0.0
  0
LINE
  5
E11
  8
0
 10
116.5576939198688
 20
94.958672337933507
 30
0.0
 11
115.9371710435184
 21
94.958672337933507
 31
0.0
  0
LINE
  5
E12
  8
0
 10
104.0628289564806
 20
94.958672337933507
 30
0.0
 11
103.44230608013039
 21
94.958672337933507
 31
0.0
  0
LINE
  5
E13
  8
0
 10
116.5576939198688
 20
81.04132766206655
 30
0.0
 11
115.9371710435184
 21
81.04132766206655
 31
0.0
  0
LINE
  5
E14
  8
0
 10
104.0628289564806
 20
81.04132766206655
 30
0.0
 11
103.44230608013039
 21
81.04132766206655
 31
0.0
  0
ARC
  5
E15
  8
0
 10
100.4442825572432
 20
89.365507337717929
 30
0.0
 40
6.3459939933334262
 50
61.807998653692323
 51
117.6428866965726
  0
ARC
  5
E16
  8
0
 10
119.55571744275601
 20
86.634492662282099
 30
0.0
 40
6.3459939933334262
 50
241.807998653689
 51
297.64288669657589
  0
ARC
  5
E17
  8
0
 10
119.55571744275601
 20
89.365507337717929
 30
0.0
 40
6.3459939933334262
 50
62.357113303424107
 51
118.1920013463109
  0
TEXT
  5
EAD
  8
0
 62
     3
 10
0.0
 20
0.0
 30
0.0
 40
10.0
  1
BJ131-08120
  7
STANDARD1
  0
ENDSEC
  0
EOF
