  0
SECTION
  2
HEADER
  9
$ACADVER
  1
AC1009
  9
$INSBASE
 10
0.0
 20
0.0
 30
0.0
  9
$EXTMIN
 10
0.0
 20
-2.960436562073669
 30
0.0
  9
$EXTMAX
 10
411.2743450742168
 20
382.8541043597192
 30
0.0
  9
$LIMMIN
 10
0.0
 20
0.0
  9
$LIMMAX
 10
780.0
 20
540.0
  9
$ORTHOMODE
 70
     0
  9
$REGENMODE
 70
     1
  9
$FILLMODE
 70
     1
  9
$QTEXTMODE
 70
     0
  9
$MIRRTEXT
 70
     0
  9
$DRAGMODE
 70
     2
  9
$LTSCALE
 40
20.0
  9
$OSMODE
 70
  3071
  9
$ATTMODE
 70
     1
  9
$TEXTSIZE
 40
0.2
  9
$TRACEWID
 40
0.05
  9
$TEXTSTYLE
  7
STANDARD
  9
$CLAYER
  8
0
  9
$CELTYPE
  6
BYLAYER
  9
$CECOLOR
 62
   256
  9
$DIMSCALE
 40
2.0
  9
$DIMASZ
 40
3.0
  9
$DIMEXO
 40
2.0
  9
$DIMDLI
 40
0.38
  9
$DIMRND
 40
0.0
  9
$DIMDLE
 40
0.0
  9
$DIMEXE
 40
2.0
  9
$DIMTP
 40
0.0
  9
$DIMTM
 40
0.0
  9
$DIMTXT
 40
3.0
  9
$DIMCEN
 40
0.0
  9
$DIMTSZ
 40
0.0
  9
$DIMTOL
 70
     0
  9
$DIMLIM
 70
     0
  9
$DIMTIH
 70
     0
  9
$DIMTOH
 70
     0
  9
$DIMSE1
 70
     0
  9
$DIMSE2
 70
     0
  9
$DIMTAD
 70
     1
  9
$DIMZIN
 70
     0
  9
$DIMBLK
  1

  9
$DIMASO
 70
     0
  9
$DIMSHO
 70
     0
  9
$DIMPOST
  1

  9
$DIMAPOST
  1

  9
$DIMALT
 70
     0
  9
$DIMALTD
 70
     2
  9
$DIMALTF
 40
25.399999999999999
  9
$DIMLFAC
 40
1.0
  9
$DIMTOFL
 70
     1
  9
$DIMTVP
 40
1.6000000000000001
  9
$DIMTIX
 70
     1
  9
$DIMSOXD
 70
     0
  9
$DIMSAH
 70
     0
  9
$DIMBLK1
  1

  9
$DIMBLK2
  1

  9
$DIMSTYLE
  2
STANDARD
  9
$DIMCLRD
 70
     0
  9
$DIMCLRE
 70
     0
  9
$DIMCLRT
 70
     0
  9
$DIMTFAC
 40
1.0
  9
$DIMGAP
 40
0.09
  9
$LUNITS
 70
     2
  9
$LUPREC
 70
     4
  9
$SKETCHINC
 40
0.1
  9
$FILLETRAD
 40
0.0
  9
$AUNITS
 70
     0
  9
$AUPREC
 70
     4
  9
$MENU
  1
E:\r13\win\SUPPORT\ACAD
  9
$ELEVATION
 40
0.0
  9
$PELEVATION
 40
0.0
  9
$THICKNESS
 40
0.0
  9
$LIMCHECK
 70
     0
  9
$BLIPMODE
 70
     0
  9
$CHAMFERA
 40
0.0
  9
$CHAMFERB
 40
0.0
  9
$SKPOLY
 70
     0
  9
$TDCREATE
 40
2449840.3509722222
  9
$TDUPDATE
 40
2456597.6218708218
  9
$TDINDWG
 40
0.0115998843
  9
$TDUSRTIMER
 40
2456518.2079372918
  9
$USRTIMER
 70
     1
  9
$ANGBASE
 50
0.0
  9
$ANGDIR
 70
     0
  9
$PDMODE
 70
     0
  9
$PDSIZE
 40
0.0
  9
$PLINEWID
 40
0.0
  9
$COORDS
 70
     1
  9
$SPLFRAME
 70
     0
  9
$SPLINETYPE
 70
     6
  9
$SPLINESEGS
 70
     8
  9
$ATTDIA
 70
     0
  9
$ATTREQ
 70
     1
  9
$HANDLING
 70
     1
  9
$HANDSEED
  5
5C1
  9
$SURFTAB1
 70
     6
  9
$SURFTAB2
 70
     6
  9
$SURFTYPE
 70
     6
  9
$SURFU
 70
     6
  9
$SURFV
 70
     6
  9
$UCSNAME
  2

  9
$UCSORG
 10
0.0
 20
0.0
 30
0.0
  9
$UCSXDIR
 10
1.0
 20
0.0
 30
0.0
  9
$UCSYDIR
 10
0.0
 20
1.0
 30
0.0
  9
$PUCSNAME
  2

  9
$PUCSORG
 10
0.0
 20
0.0
 30
0.0
  9
$PUCSXDIR
 10
1.0
 20
0.0
 30
0.0
  9
$PUCSYDIR
 10
0.0
 20
1.0
 30
0.0
  9
$USERI1
 70
     3
  9
$USERI2
 70
     1
  9
$USERI3
 70
     0
  9
$USERI4
 70
     0
  9
$USERI5
 70
     0
  9
$USERR1
 40
2.0
  9
$USERR2
 40
3.0
  9
$USERR3
 40
3.0
  9
$USERR4
 40
3.0
  9
$USERR5
 40
10.0
  9
$WORLDVIEW
 70
     1
  9
$SHADEDGE
 70
     3
  9
$SHADEDIF
 70
    70
  9
$TILEMODE
 70
     1
  9
$MAXACTVP
 70
    16
  9
$PLIMCHECK
 70
     0
  9
$PEXTMIN
 10
1.0000000000000000E+020
 20
1.0000000000000000E+020
 30
1.0000000000000000E+020
  9
$PEXTMAX
 10
-1.0000000000000000E+020
 20
-1.0000000000000000E+020
 30
-1.0000000000000000E+020
  9
$PLIMMIN
 10
0.0
 20
0.0
  9
$PLIMMAX
 10
12.0
 20
9.0
  9
$UNITMODE
 70
     0
  9
$VISRETAIN
 70
     0
  9
$PLINEGEN
 70
     0
  9
$PSLTSCALE
 70
     0
  0
ENDSEC
  0
SECTION
  2
TABLES
  0
TABLE
  2
VPORT
 70
     1
  0
VPORT
  2
*ACTIVE
 70
     0
 10
0.0
 20
0.0
 11
1.0
 21
1.0
 12
389.988099052557
 22
383.6881458164155
 13
0.0
 23
0.0
 14
5.0
 24
5.0
 15
10.0
 25
10.0
 16
0.0
 26
0.0
 36
1.0
 17
0.0
 27
0.0
 37
0.0
 40
780.34809480459126
 41
1.831871345029239
 42
50.0
 43
0.0
 44
0.0
 50
0.0
 51
0.0
 71
    16
 72
   100
 73
     1
 74
     0
 75
     0
 76
     0
 77
     0
 78
     2
  0
ENDTAB
  0
TABLE
  2
LTYPE
 70
     4
  0
LTYPE
  2
CONTINUOUS
 70
     0
  3
Solid Line
 72
    65
 73
     0
 40
0.0
  0
LTYPE
  2
PHANTOM2
 70
     0
  3
___ _ _ ___ _ _ ___ _ _ ___ _ _
 72
    65
 73
     6
 40
1.25
 49
0.625
 49
-0.125
 49
0.125
 49
-0.125
 49
0.125
 49
-0.125
  0
LTYPE
  2
CENTER
 70
     0
  3
____ _ ____ _ ____ _ ____ _ ____ _ ____ _ ____
 72
    65
 73
     4
 40
2.0
 49
1.25
 49
-0.25
 49
0.25
 49
-0.25
  0
LTYPE
  2
HIDDEN
 70
     0
  3
_ _ _ _ _ _ _ _ _ _ _ _ _ _ _ _ _ _ _ _ _ _ _
 72
    65
 73
     2
 40
0.375
 49
0.25
 49
-0.125
  0
ENDTAB
  0
TABLE
  2
LAYER
 70
     4
  0
LAYER
  2
0
 70
     0
 62
     7
  6
CONTINUOUS
  0
LAYER
  2
1
 70
     0
 62
     1
  6
CENTER
  0
LAYER
  2
3
 70
     0
 62
     3
  6
CONTINUOUS
  0
LAYER
  2
2
 70
     0
 62
     2
  6
HIDDEN
  0
ENDTAB
  0
TABLE
  2
STYLE
 70
     3
  0
STYLE
  2
STANDARD
 70
     0
 40
0.0
 41
1.0
 50
0.0
 71
     0
 42
0.2
  3
TXT
  4
BIGFONT
  0
STYLE
  2
ANNOTATIVE
 70
     0
 40
0.0
 41
1.0
 50
0.0
 71
     0
 42
0.2
  3
txt
  4

  0
STYLE
  2
STANDARD1
 70
     0
 40
0.0
 41
1.0
 50
0.0
 71
     0
 42
3.0
  3
txt
  4

  0
ENDTAB
  0
TABLE
  2
VIEW
 70
     1
  0
VIEW
  2
ALL
 70
     0
 40
270.0
 10
220.99159700000001
 20
135.0
 41
0.0
 11
0.0
 21
0.0
 31
1.0
 12
0.0
 22
0.0
 32
0.0
 42
0.0
 43
0.0
 44
0.0
 50
0.0
 71
     0
  0
ENDTAB
  0
TABLE
  2
UCS
 70
     0
  0
ENDTAB
  0
TABLE
  2
APPID
 70
     5
  0
APPID
  2
ACAD
 70
     0
  0
APPID
  2
ACADANNOTATIVE
 70
     0
  0
APPID
  2
ACAD_MLEADERVER
 70
     0
  0
APPID
  2
ACAD_EXEMPT_FROM_CAD_STANDARDS
 70
     0
  0
APPID
  2
ACAD_NAV_VCDISPLAY
 70
     0
  0
ENDTAB
  0
TABLE
  2
DIMSTYLE
 70
     2
  0
DIMSTYLE
  2
STANDARD
 70
     0
  3

  4

  5

  6

  7

 40
1.0
 41
0.18
 42
0.0625
 43
0.38
 44
0.18
 45
0.0
 46
0.0
 47
0.0
 48
0.0
140
0.18
141
0.09
142
0.0
143
25.399999999999999
144
1.0
145
0.0
146
1.0
147
0.09
 71
     0
 72
     0
 73
     1
 74
     1
 75
     0
 76
     0
 77
     0
 78
     0
170
     0
171
     2
172
     0
173
     0
174
     0
175
     0
176
     0
177
     0
178
     0
  0
DIMSTYLE
  2
ANNOTATIVE
 70
     0
  3

  4

  5

  6

  7

 40
1.0
 41
0.18
 42
0.0625
 43
0.38
 44
0.18
 45
0.0
 46
0.0
 47
0.0
 48
0.0
140
0.18
141
0.09
142
0.0
143
25.399999999999999
144
1.0
145
0.0
146
1.0
147
0.09
 71
     0
 72
     0
 73
     1
 74
     1
 75
     0
 76
     0
 77
     0
 78
     0
170
     0
171
     2
172
     0
173
     0
174
     0
175
     0
176
     0
177
     0
178
     0
  0
ENDTAB
  0
ENDSEC
  0
SECTION
  2
BLOCKS
  0
BLOCK
  8
0
  2
$MODEL_SPACE
 70
     0
 10
0.0
 20
0.0
 30
0.0
  3
$MODEL_SPACE
  1

  0
ENDBLK
  5
4F3
  8
0
  0
BLOCK
 67
     1
  8
0
  2
$PAPER_SPACE
 70
     0
 10
0.0
 20
0.0
 30
0.0
  3
$PAPER_SPACE
  1

  0
ENDBLK
  5
4EF
 67
     1
  8
0
  0
BLOCK
  8
0
  2
STDGX5
 70
     0
 10
0.0
 20
0.0
 30
0.0
  3
STDGX5
  1

  0
ENDBLK
  5
3D
  8
0
  0
ENDSEC
  0
SECTION
  2
ENTITIES
  0
INSERT
  5
148
  8
0
  2
STDGX5
 10
0.0
 20
0.0
 30
0.0
  0
INSERT
  5
14F
  8
0
  2
STDGX5
 10
0.0
 20
0.0
 30
0.0
  0
INSERT
  5
150
  8
0
  2
STDGX5
 10
0.0
 20
0.0
 30
0.0
  0
INSERT
  5
151
  8
0
  2
STDGX5
 10
0.0
 20
0.0
 30
0.0
  0
LINE
  5
2B2
  8
1
 10
316.27434507421691
 20
342.85410435971932
 30
0.0
 11
206.27434507421691
 21
342.85410435971932
 31
0.0
  0
LINE
  5
2B3
  8
1
 10
246.27434507421691
 20
302.85410435971932
 30
0.0
 11
246.27434507421691
 21
382.8541043597192
 31
0.0
  0
ARC
  5
2B7
  8
0
 10
246.27434507421691
 20
342.85410435971932
 30
0.0
 40
25.0
 50
42.734341368984168
 51
317.26565863101581
  0
LINE
  5
2B9
  8
0
 10
114.2743450742168
 20
93.854104359719244
 30
0.0
 11
98.274345074216853
 21
93.854104359719244
 31
0.0
  0
LINE
  5
2BA
  8
0
 10
112.2743450742168
 20
67.854104359719244
 30
0.0
 11
100.2743450742168
 21
67.854104359719244
 31
0.0
  0
LINE
  5
2BB
  8
0
 10
114.2743450742168
 20
69.854104359719258
 30
0.0
 11
98.274345074216853
 21
69.854104359719258
 31
0.0
  0
LINE
  5
2BC
  8
0
 10
111.7743450742168
 20
97.454104359719267
 30
0.0
 11
111.7743450742168
 21
94.254104359719264
 31
0.0
  0
ARC
  5
2BD
  8
0
 10
112.1743450742168
 20
94.254104359719264
 30
0.0
 40
0.4
 50
180.0
 51
270.0
  0
LINE
  5
2BE
  8
3
 10
113.1743450742168
 20
93.854104359719244
 30
0.0
 11
113.1743450742168
 21
68.754104359719264
 31
0.0
  0
LINE
  5
2BF
  8
0
 10
114.2743450742168
 20
93.854104359719244
 30
0.0
 11
114.2743450742168
 21
69.854104359719258
 31
0.0
  0
LINE
  5
2C0
  8
0
 10
112.2743450742168
 20
67.854104359719244
 30
0.0
 11
114.2743450742168
 21
69.854104359719258
 31
0.0
  0
LINE
  5
2C1
  8
0
 10
100.2743450742168
 20
67.854104359719244
 30
0.0
 11
98.274345074216853
 21
69.854104359719258
 31
0.0
  0
LINE
  5
2C2
  8
0
 10
98.274345074216853
 20
93.854104359719244
 30
0.0
 11
98.274345074216853
 21
69.854104359719258
 31
0.0
  0
LINE
  5
2C3
  8
0
 10
103.2596260742168
 20
127.8541043597192
 30
0.0
 11
103.2596260742168
 21
107.8541043597192
 31
0.0
  0
LINE
  5
2C4
  8
0
 10
103.2596260742168
 20
107.8541043597192
 30
0.0
 11
86.289064074216867
 21
107.8541043597192
 31
0.0
  0
LINE
  5
2C5
  8
0
 10
86.289064074216867
 20
107.8541043597192
 30
0.0
 11
86.289064074216867
 21
127.8541043597192
 31
0.0
  0
LINE
  5
2C6
  8
0
 10
86.289064074216867
 20
127.8541043597192
 30
0.0
 11
103.2596260742168
 21
127.8541043597192
 31
0.0
  0
ARC
  5
2C7
  8
0
 10
94.774345074216825
 20
97.254540359719286
 30
0.0
 40
31.754265
 50
74.50126700000196
 51
105.498732999998
  0
ARC
  5
2C8
  8
0
 10
94.774345074216825
 20
138.45366835971919
 30
0.0
 40
31.754265
 50
254.50126700000189
 51
285.49873299999803
  0
ARC
  5
2C9
  8
0
 10
117.7743450742168
 20
138.45366835971919
 30
0.0
 40
31.754265
 50
254.50126700000189
 51
285.49873299999803
  0
ARC
  5
2CA
  8
0
 10
117.7743450742168
 20
97.254540359719286
 30
0.0
 40
31.754265
 50
74.50126700000196
 51
105.498732999998
  0
LINE
  5
2CB
  8
0
 10
126.2596260742168
 20
127.8541043597192
 30
0.0
 11
109.2890640742169
 21
127.8541043597192
 31
0.0
  0
LINE
  5
2CC
  8
0
 10
126.2596260742168
 20
107.8541043597192
 30
0.0
 11
126.2596260742168
 21
127.8541043597192
 31
0.0
  0
LINE
  5
2CD
  8
0
 10
109.2890640742169
 20
107.8541043597192
 30
0.0
 11
126.2596260742168
 21
107.8541043597192
 31
0.0
  0
LINE
  5
2CE
  8
0
 10
109.2890640742169
 20
127.8541043597192
 30
0.0
 11
109.2890640742169
 21
107.8541043597192
 31
0.0
  0
LINE
  5
2CF
  8
3
 10
99.374345074216876
 20
93.854104359719244
 30
0.0
 11
99.374345074216876
 21
68.754104359719264
 31
0.0
  0
LINE
  5
2D0
  8
0
 10
131.2743450742168
 20
196.8541043597192
 30
0.0
 11
131.2743450742168
 21
129.00880535971919
 31
0.0
  0
LINE
  5
2D1
  8
0
 10
129.2743450742168
 20
127.8541043597192
 30
0.0
 11
129.2743450742168
 21
107.8541043597192
 31
0.0
  0
LINE
  5
2D2
  8
0
 10
130.2743450742168
 20
197.8541043597192
 30
0.0
 11
131.2743450742168
 21
196.8541043597192
 31
0.0
  0
LINE
  5
2D3
  8
0
 10
131.2743450742168
 20
98.854104359719273
 30
0.0
 11
130.2743450742168
 21
97.854104359719244
 31
0.0
  0
ARC
  5
2D4
  8
0
 10
112.1743450742168
 20
97.454104359719267
 30
0.0
 40
0.4
 50
90.0
 51
180.0
  0
LINE
  5
2D5
  8
0
 10
129.2743450742168
 20
127.8541043597192
 30
0.0
 11
131.2743450742168
 21
129.00880535971919
 31
0.0
  0
LINE
  5
2D6
  8
0
 10
129.2743450742168
 20
107.8541043597192
 30
0.0
 11
131.2743450742168
 21
106.6994033597193
 31
0.0
  0
LINE
  5
2D7
  8
0
 10
131.2743450742168
 20
106.6994033597193
 30
0.0
 11
131.2743450742168
 21
98.854104359719273
 31
0.0
  0
LINE
  5
2D8
  8
0
 10
81.274345074216839
 20
106.6994033597193
 30
0.0
 11
81.274345074216839
 21
98.854104359719273
 31
0.0
  0
LINE
  5
2D9
  8
0
 10
83.274345074216825
 20
107.8541043597192
 30
0.0
 11
81.274345074216839
 21
106.6994033597193
 31
0.0
  0
LINE
  5
2DA
  8
0
 10
83.274345074216825
 20
127.8541043597192
 30
0.0
 11
81.274345074216839
 21
129.00880535971919
 31
0.0
  0
ARC
  5
2DB
  8
0
 10
100.37434507421681
 20
94.254104359719264
 30
0.0
 40
0.4
 50
270.0
 51
0.0
  0
ARC
  5
2DC
  8
0
 10
100.37434507421681
 20
97.454104359719267
 30
0.0
 40
0.4
 50
0.0
 51
90.0
  0
LINE
  5
2DD
  8
0
 10
81.274345074216839
 20
98.854104359719273
 30
0.0
 11
82.274345074216825
 21
97.854104359719244
 31
0.0
  0
LINE
  5
2DE
  8
0
 10
82.274345074216825
 20
197.8541043597192
 30
0.0
 11
81.274345074216839
 21
196.8541043597192
 31
0.0
  0
LINE
  5
2DF
  8
0
 10
100.7743450742168
 20
97.454104359719267
 30
0.0
 11
100.7743450742168
 21
94.254104359719264
 31
0.0
  0
LINE
  5
2E0
  8
0
 10
82.274345074216825
 20
97.854104359719244
 30
0.0
 11
130.2743450742168
 21
97.854104359719244
 31
0.0
  0
LINE
  5
2E1
  8
0
 10
83.274345074216825
 20
127.8541043597192
 30
0.0
 11
83.274345074216825
 21
107.8541043597192
 31
0.0
  0
LINE
  5
2E2
  8
0
 10
81.274345074216839
 20
196.8541043597192
 30
0.0
 11
81.274345074216839
 21
129.00880535971919
 31
0.0
  0
LINE
  5
2E3
  8
0
 10
130.2743450742168
 20
197.8541043597192
 30
0.0
 11
82.274345074216825
 21
197.8541043597192
 31
0.0
  0
LINE
  5
2E5
  8
0
 10
394.27434507421691
 20
93.854104359719244
 30
0.0
 11
378.2743450742168
 21
93.854104359719244
 31
0.0
  0
LINE
  5
2E6
  8
0
 10
392.27434507421691
 20
67.854104359719244
 30
0.0
 11
380.2743450742168
 21
67.854104359719244
 31
0.0
  0
LINE
  5
2E7
  8
0
 10
394.27434507421691
 20
69.854104359719258
 30
0.0
 11
378.2743450742168
 21
69.854104359719258
 31
0.0
  0
LINE
  5
2E8
  8
0
 10
391.77434507421691
 20
97.454104359719267
 30
0.0
 11
391.77434507421691
 21
94.254104359719264
 31
0.0
  0
ARC
  5
2E9
  8
0
 10
392.17434507421677
 20
94.254104359719264
 30
0.0
 40
0.4
 50
180.0
 51
270.0
  0
LINE
  5
2EA
  8
3
 10
393.17434507421677
 20
93.854104359719244
 30
0.0
 11
393.17434507421677
 21
68.754104359719264
 31
0.0
  0
LINE
  5
2EB
  8
0
 10
394.27434507421691
 20
93.854104359719244
 30
0.0
 11
394.27434507421691
 21
69.854104359719258
 31
0.0
  0
LINE
  5
2EC
  8
0
 10
392.27434507421691
 20
67.854104359719244
 30
0.0
 11
394.27434507421691
 21
69.854104359719258
 31
0.0
  0
LINE
  5
2ED
  8
0
 10
380.2743450742168
 20
67.854104359719244
 30
0.0
 11
378.2743450742168
 21
69.854104359719258
 31
0.0
  0
LINE
  5
2EE
  8
0
 10
378.2743450742168
 20
93.854104359719244
 30
0.0
 11
378.2743450742168
 21
69.854104359719258
 31
0.0
  0
LINE
  5
2EF
  8
0
 10
383.25962607421678
 20
127.8541043597192
 30
0.0
 11
383.25962607421678
 21
107.8541043597192
 31
0.0
  0
LINE
  5
2F0
  8
0
 10
383.25962607421678
 20
107.8541043597192
 30
0.0
 11
366.28906407421692
 21
107.8541043597192
 31
0.0
  0
LINE
  5
2F1
  8
0
 10
366.28906407421692
 20
107.8541043597192
 30
0.0
 11
366.28906407421692
 21
127.8541043597192
 31
0.0
  0
LINE
  5
2F2
  8
0
 10
366.28906407421692
 20
127.8541043597192
 30
0.0
 11
383.25962607421678
 21
127.8541043597192
 31
0.0
  0
ARC
  5
2F3
  8
0
 10
374.77434507421691
 20
97.254540359719286
 30
0.0
 40
31.754265
 50
74.50126700000196
 51
105.498732999998
  0
ARC
  5
2F4
  8
0
 10
374.77434507421691
 20
138.45366835971919
 30
0.0
 40
31.754265
 50
254.50126700000189
 51
285.49873299999803
  0
ARC
  5
2F5
  8
0
 10
397.77434507421691
 20
138.45366835971919
 30
0.0
 40
31.754265
 50
254.50126700000189
 51
285.49873299999803
  0
ARC
  5
2F6
  8
0
 10
397.77434507421691
 20
97.254540359719286
 30
0.0
 40
31.754265
 50
74.50126700000196
 51
105.498732999998
  0
LINE
  5
2F7
  8
0
 10
406.25962607421678
 20
127.8541043597192
 30
0.0
 11
389.28906407421692
 21
127.8541043597192
 31
0.0
  0
LINE
  5
2F8
  8
0
 10
406.25962607421678
 20
107.8541043597192
 30
0.0
 11
406.25962607421678
 21
127.8541043597192
 31
0.0
  0
LINE
  5
2F9
  8
0
 10
389.28906407421692
 20
107.8541043597192
 30
0.0
 11
406.25962607421678
 21
107.8541043597192
 31
0.0
  0
LINE
  5
2FA
  8
0
 10
389.28906407421692
 20
127.8541043597192
 30
0.0
 11
389.28906407421692
 21
107.8541043597192
 31
0.0
  0
LINE
  5
2FB
  8
3
 10
379.37434507421682
 20
93.854104359719244
 30
0.0
 11
379.37434507421682
 21
68.754104359719264
 31
0.0
  0
LINE
  5
2FC
  8
0
 10
411.2743450742168
 20
196.8541043597192
 30
0.0
 11
411.2743450742168
 21
129.00880535971919
 31
0.0
  0
LINE
  5
2FD
  8
0
 10
409.2743450742168
 20
127.8541043597192
 30
0.0
 11
409.2743450742168
 21
107.8541043597192
 31
0.0
  0
LINE
  5
2FE
  8
0
 10
410.2743450742168
 20
197.8541043597192
 30
0.0
 11
411.2743450742168
 21
196.8541043597192
 31
0.0
  0
LINE
  5
2FF
  8
0
 10
411.2743450742168
 20
98.854104359719273
 30
0.0
 11
410.2743450742168
 21
97.854104359719244
 31
0.0
  0
ARC
  5
300
  8
0
 10
392.17434507421677
 20
97.454104359719267
 30
0.0
 40
0.4
 50
90.0
 51
180.0
  0
LINE
  5
301
  8
0
 10
409.2743450742168
 20
127.8541043597192
 30
0.0
 11
411.2743450742168
 21
129.00880535971919
 31
0.0
  0
LINE
  5
302
  8
0
 10
409.2743450742168
 20
107.8541043597192
 30
0.0
 11
411.2743450742168
 21
106.6994033597193
 31
0.0
  0
LINE
  5
303
  8
0
 10
411.2743450742168
 20
106.6994033597193
 30
0.0
 11
411.2743450742168
 21
98.854104359719273
 31
0.0
  0
LINE
  5
304
  8
0
 10
361.2743450742168
 20
106.6994033597193
 30
0.0
 11
361.2743450742168
 21
98.854104359719273
 31
0.0
  0
LINE
  5
305
  8
0
 10
363.2743450742168
 20
107.8541043597192
 30
0.0
 11
361.2743450742168
 21
106.6994033597193
 31
0.0
  0
LINE
  5
306
  8
0
 10
363.2743450742168
 20
127.8541043597192
 30
0.0
 11
361.2743450742168
 21
129.00880535971919
 31
0.0
  0
ARC
  5
307
  8
0
 10
380.37434507421682
 20
94.254104359719264
 30
0.0
 40
0.4
 50
270.0
 51
0.0
  0
ARC
  5
308
  8
0
 10
380.37434507421682
 20
97.454104359719267
 30
0.0
 40
0.4
 50
0.0
 51
90.0
  0
LINE
  5
309
  8
0
 10
361.2743450742168
 20
98.854104359719273
 30
0.0
 11
362.27434507421691
 21
97.854104359719244
 31
0.0
  0
LINE
  5
30A
  8
0
 10
362.27434507421691
 20
197.8541043597192
 30
0.0
 11
361.2743450742168
 21
196.8541043597192
 31
0.0
  0
LINE
  5
30B
  8
0
 10
380.77434507421691
 20
97.454104359719267
 30
0.0
 11
380.77434507421691
 21
94.254104359719264
 31
0.0
  0
LINE
  5
30C
  8
0
 10
362.27434507421691
 20
97.854104359719244
 30
0.0
 11
410.2743450742168
 21
97.854104359719244
 31
0.0
  0
LINE
  5
30D
  8
0
 10
363.2743450742168
 20
127.8541043597192
 30
0.0
 11
363.2743450742168
 21
107.8541043597192
 31
0.0
  0
LINE
  5
30E
  8
0
 10
361.2743450742168
 20
196.8541043597192
 30
0.0
 11
361.2743450742168
 21
129.00880535971919
 31
0.0
  0
LINE
  5
30F
  8
0
 10
410.2743450742168
 20
197.8541043597192
 30
0.0
 11
362.27434507421691
 21
197.8541043597192
 31
0.0
  0
LINE
  5
310
  8
1
 10
106.2743450742168
 20
243.85410435971929
 30
0.0
 11
106.2743450742168
 21
57.854104359719251
 31
0.0
  0
LINE
  5
312
  8
0
 10
89.891931074216799
 20
197.8540943597192
 30
0.0
 11
89.593049074216864
 21
198.8541043597192
 31
0.0
  0
ARC
  5
315
  8
0
 10
123.4743450742169
 20
199.65410435971921
 30
0.0
 40
0.8
 50
270.0
 51
0.0
  0
LINE
  5
316
  8
0
 10
122.65675907421689
 20
197.8540943597192
 30
0.0
 11
122.9556410742168
 21
198.8541043597192
 31
0.0
  0
LINE
  5
317
  8
0
 10
123.4743450742169
 20
198.8541043597192
 30
0.0
 11
89.074345074216808
 21
198.8541043597192
 31
0.0
  0
LINE
  5
318
  8
0
 10
89.074345074216808
 20
218.85410435971929
 30
0.0
 11
123.4743450742169
 21
218.85410435971929
 31
0.0
  0
ARC
  5
319
  8
0
 10
123.4743450742169
 20
199.65410435971921
 30
0.0
 40
0.8
 50
270.0
 51
0.0
  0
ARC
  5
31A
  8
0
 10
123.4743450742169
 20
218.05410435971919
 30
0.0
 40
0.8
 50
0.0
 51
90.0
  0
LINE
  5
31B
  8
0
 10
124.2743450742168
 20
218.05410435971919
 30
0.0
 11
124.2743450742168
 21
199.65410435971921
 31
0.0
  0
LINE
  5
31C
  8
2
 10
98.274345074216853
 20
134.8541043597192
 30
0.0
 11
100.2743450742168
 21
132.8541043597192
 31
0.0
  0
LINE
  5
31D
  8
2
 10
98.274345074216853
 20
158.8541043597192
 30
0.0
 11
98.274345074216853
 21
134.8541043597192
 31
0.0
  0
LINE
  5
31E
  8
2
 10
113.1743450742168
 20
158.8541043597192
 30
0.0
 11
113.1743450742168
 21
133.75410435971921
 31
0.0
  0
LINE
  5
31F
  8
2
 10
114.2743450742168
 20
134.8541043597192
 30
0.0
 11
112.2743450742168
 21
132.8541043597192
 31
0.0
  0
LINE
  5
320
  8
2
 10
114.2743450742168
 20
158.8541043597192
 30
0.0
 11
114.2743450742168
 21
134.8541043597192
 31
0.0
  0
LINE
  5
321
  8
2
 10
90.274345074216839
 20
159.8541043597192
 30
0.0
 11
91.274345074216839
 21
158.8541043597192
 31
0.0
  0
LINE
  5
322
  8
2
 10
121.2743450742168
 20
158.8541043597192
 30
0.0
 11
122.2743450742168
 21
159.8541043597192
 31
0.0
  0
ARC
  5
323
  8
0
 10
89.074345074216808
 20
199.65410435971921
 30
0.0
 40
0.8
 50
180.0
 51
270.0
  0
ARC
  5
324
  8
0
 10
89.074345074216808
 20
218.05410435971919
 30
0.0
 40
0.8
 50
90.0
 51
180.0
  0
ARC
  5
325
  8
0
 10
90.374345074216876
 20
198.4541043597192
 30
0.0
 40
0.4
 50
0.0
 51
90.0
  0
ARC
  5
326
  8
0
 10
122.1743450742168
 20
198.4541043597192
 30
0.0
 40
0.4
 50
90.0
 51
180.0
  0
LINE
  5
327
  8
0
 10
118.2743450742168
 20
232.8541043597192
 30
0.0
 11
118.2743450742168
 21
218.85410435971929
 31
0.0
  0
LINE
  5
328
  8
0
 10
118.2743450742168
 20
232.8541043597192
 30
0.0
 11
116.5422940742169
 21
233.85410435971929
 31
0.0
  0
LINE
  5
329
  8
0
 10
121.7743450742168
 20
197.8541043597192
 30
0.0
 11
121.7743450742168
 21
198.4541043597192
 31
0.0
  0
LINE
  5
32A
  8
2
 10
122.2743450742168
 20
159.8541043597192
 30
0.0
 11
122.2743450742168
 21
196.8541043597192
 31
0.0
  0
LINE
  5
32B
  8
2
 10
90.274345074216839
 20
196.8541043597192
 30
0.0
 11
90.274345074216839
 21
159.8541043597192
 31
0.0
  0
LINE
  5
32C
  8
0
 10
90.774345074216825
 20
198.4541043597192
 30
0.0
 11
90.774345074216825
 21
197.8541043597192
 31
0.0
  0
LINE
  5
32D
  8
0
 10
88.274345074216825
 20
218.05410435971919
 30
0.0
 11
88.274345074216825
 21
199.65410435971921
 31
0.0
  0
LINE
  5
32E
  8
0
 10
94.274345074216839
 20
232.8541043597192
 30
0.0
 11
94.274345074216839
 21
218.85410435971929
 31
0.0
  0
LINE
  5
32F
  8
0
 10
94.274345074216839
 20
232.8541043597192
 30
0.0
 11
96.006396074216809
 21
233.85410435971929
 31
0.0
  0
LINE
  5
330
  8
2
 10
99.374345074216876
 20
158.8541043597192
 30
0.0
 11
99.374345074216876
 21
133.75410435971921
 31
0.0
  0
LINE
  5
331
  8
2
 10
112.2743450742168
 20
132.8541043597192
 30
0.0
 11
100.2743450742168
 21
132.8541043597192
 31
0.0
  0
LINE
  5
332
  8
2
 10
114.2743450742168
 20
134.8541043597192
 30
0.0
 11
98.274345074216853
 21
134.8541043597192
 31
0.0
  0
LINE
  5
333
  8
2
 10
122.2743450742168
 20
159.8541043597192
 30
0.0
 11
90.274345074216839
 21
159.8541043597192
 31
0.0
  0
LINE
  5
334
  8
2
 10
122.2743450742168
 20
196.8541043597192
 30
0.0
 11
90.274345074216839
 21
196.8541043597192
 31
0.0
  0
LINE
  5
335
  8
0
 10
118.2743450742168
 20
232.8541043597192
 30
0.0
 11
94.274345074216839
 21
232.8541043597192
 31
0.0
  0
LINE
  5
336
  8
0
 10
116.5422940742169
 20
233.85410435971929
 30
0.0
 11
96.006396074216809
 21
233.85410435971929
 31
0.0
  0
LINE
  5
337
  8
2
 10
121.2743450742168
 20
158.8541043597192
 30
0.0
 11
91.274345074216839
 21
158.8541043597192
 31
0.0
  0
LINE
  5
338
  8
0
 10
397.20759207421679
 20
212.96696735971921
 30
0.0
 11
403.47434507421679
 21
218.05410435971919
 31
0.0
  0
LINE
  5
339
  8
0
 10
375.3410980742168
 20
212.96696735971921
 30
0.0
 11
369.07434507421692
 21
218.05410435971919
 31
0.0
  0
ARC
  5
33A
  8
0
 10
376.14109807421693
 20
212.16696735971919
 30
0.0
 40
0.8
 50
90.0
 51
180.0
  0
ARC
  5
33B
  8
0
 10
396.40759207421678
 20
212.16696735971919
 30
0.0
 40
0.8
 50
0.0
 51
90.0
  0
ARC
  5
33C
  8
0
 10
396.40759207421678
 20
198.65409435971929
 30
0.0
 40
0.8
 50
270.0
 51
0.0
  0
ARC
  5
33D
  8
0
 10
376.14109807421693
 20
198.65409435971929
 30
0.0
 40
0.8
 50
180.0
 51
270.0
  0
LINE
  5
33E
  8
0
 10
396.40759207421678
 20
212.96696735971921
 30
0.0
 11
376.14109807421693
 21
212.96696735971921
 31
0.0
  0
LINE
  5
33F
  8
0
 10
397.20759207421679
 20
198.65409435971929
 30
0.0
 11
397.20759207421679
 21
212.16696735971919
 31
0.0
  0
LINE
  5
340
  8
0
 10
375.3410980742168
 20
212.16696735971919
 30
0.0
 11
375.3410980742168
 21
198.65409435971929
 31
0.0
  0
LINE
  5
341
  8
0
 10
369.89193107421693
 20
197.8540943597192
 30
0.0
 11
369.59304907421682
 21
198.8541043597192
 31
0.0
  0
LINE
  5
342
  8
0
 10
402.95564107421683
 20
198.8541043597192
 30
0.0
 11
403.47434507421679
 21
198.8541043597192
 31
0.0
  0
LINE
  5
343
  8
0
 10
402.65675907421678
 20
197.8540943597192
 30
0.0
 11
402.95564107421683
 21
198.8541043597192
 31
0.0
  0
LINE
  5
345
  8
0
 10
369.07434507421692
 20
198.8541043597192
 30
0.0
 11
369.59304907421682
 21
198.8541043597192
 31
0.0
  0
LINE
  5
346
  8
0
 10
403.47434507421679
 20
218.85410435971929
 30
0.0
 11
369.07434507421692
 21
218.85410435971929
 31
0.0
  0
ARC
  5
347
  8
0
 10
369.07434507421692
 20
199.65410435971921
 30
0.0
 40
0.8
 50
180.0
 51
270.0
  0
ARC
  5
348
  8
0
 10
369.07434507421692
 20
218.05410435971919
 30
0.0
 40
0.8
 50
90.0
 51
180.0
  0
LINE
  5
349
  8
0
 10
368.27434507421691
 20
218.05410435971919
 30
0.0
 11
368.27434507421691
 21
199.65410435971921
 31
0.0
  0
LINE
  5
34A
  8
2
 10
394.27434507421691
 20
134.8541043597192
 30
0.0
 11
392.27434507421691
 21
132.8541043597192
 31
0.0
  0
LINE
  5
34B
  8
2
 10
394.27434507421691
 20
158.8541043597192
 30
0.0
 11
394.27434507421691
 21
134.8541043597192
 31
0.0
  0
LINE
  5
34C
  8
2
 10
379.37434507421682
 20
158.8541043597192
 30
0.0
 11
379.37434507421682
 21
133.75410435971921
 31
0.0
  0
LINE
  5
34D
  8
2
 10
378.2743450742168
 20
134.8541043597192
 30
0.0
 11
380.2743450742168
 21
132.8541043597192
 31
0.0
  0
LINE
  5
34E
  8
2
 10
378.2743450742168
 20
158.8541043597192
 30
0.0
 11
378.2743450742168
 21
134.8541043597192
 31
0.0
  0
LINE
  5
34F
  8
2
 10
402.2743450742168
 20
159.8541043597192
 30
0.0
 11
401.2743450742168
 21
158.8541043597192
 31
0.0
  0
LINE
  5
350
  8
2
 10
371.27434507421691
 20
158.8541043597192
 30
0.0
 11
370.27434507421691
 21
159.8541043597192
 31
0.0
  0
ARC
  5
351
  8
0
 10
403.47434507421679
 20
199.65410435971921
 30
0.0
 40
0.8
 50
270.0
 51
0.0
  0
ARC
  5
352
  8
0
 10
403.47434507421679
 20
218.05410435971919
 30
0.0
 40
0.8
 50
0.0
 51
90.0
  0
LINE
  5
353
  8
0
 10
374.2743450742168
 20
232.8541043597192
 30
0.0
 11
374.2743450742168
 21
218.85410435971929
 31
0.0
  0
LINE
  5
354
  8
0
 10
374.2743450742168
 20
232.8541043597192
 30
0.0
 11
376.00639607421692
 21
233.85410435971929
 31
0.0
  0
LINE
  5
355
  8
2
 10
370.77434507421691
 20
196.8541043597192
 30
0.0
 11
370.77434507421691
 21
197.8540943597192
 31
0.0
  0
LINE
  5
356
  8
2
 10
370.27434507421691
 20
159.8541043597192
 30
0.0
 11
370.27434507421691
 21
196.8541043597192
 31
0.0
  0
LINE
  5
357
  8
2
 10
402.2743450742168
 20
196.8541043597192
 30
0.0
 11
402.2743450742168
 21
159.8541043597192
 31
0.0
  0
LINE
  5
358
  8
2
 10
401.7743450742168
 20
197.8540943597192
 30
0.0
 11
401.7743450742168
 21
196.8541043597192
 31
0.0
  0
LINE
  5
359
  8
0
 10
404.2743450742168
 20
218.05410435971919
 30
0.0
 11
404.2743450742168
 21
199.65410435971921
 31
0.0
  0
LINE
  5
35A
  8
0
 10
398.27434507421691
 20
232.8541043597192
 30
0.0
 11
398.27434507421691
 21
218.85410435971929
 31
0.0
  0
LINE
  5
35B
  8
0
 10
398.27434507421691
 20
232.8541043597192
 30
0.0
 11
396.54229407421678
 21
233.85410435971929
 31
0.0
  0
LINE
  5
35C
  8
2
 10
393.17434507421677
 20
158.8541043597192
 30
0.0
 11
393.17434507421677
 21
133.75410435971921
 31
0.0
  0
LINE
  5
35D
  8
2
 10
380.2743450742168
 20
132.8541043597192
 30
0.0
 11
392.27434507421691
 21
132.8541043597192
 31
0.0
  0
LINE
  5
35E
  8
2
 10
378.2743450742168
 20
134.8541043597192
 30
0.0
 11
394.27434507421691
 21
134.8541043597192
 31
0.0
  0
LINE
  5
35F
  8
2
 10
370.27434507421691
 20
159.8541043597192
 30
0.0
 11
402.2743450742168
 21
159.8541043597192
 31
0.0
  0
LINE
  5
360
  8
2
 10
370.27434507421691
 20
196.8541043597192
 30
0.0
 11
402.2743450742168
 21
196.8541043597192
 31
0.0
  0
LINE
  5
361
  8
0
 10
374.2743450742168
 20
232.8541043597192
 30
0.0
 11
398.27434507421691
 21
232.8541043597192
 31
0.0
  0
LINE
  5
362
  8
0
 10
376.00639607421692
 20
233.85410435971929
 30
0.0
 11
396.54229407421678
 21
233.85410435971929
 31
0.0
  0
LINE
  5
363
  8
2
 10
371.27434507421691
 20
158.8541043597192
 30
0.0
 11
401.2743450742168
 21
158.8541043597192
 31
0.0
  0
LINE
  5
364
  8
1
 10
386.2743450742168
 20
243.85410435971929
 30
0.0
 11
386.2743450742168
 21
57.854104359719251
 31
0.0
  0
CIRCLE
  5
366
  8
0
 10
246.27434507421691
 20
342.85410435971932
 30
0.0
 40
13.0
  0
ARC
  5
368
  8
0
 10
256.27434507421691
 20
342.85410435971932
 30
0.0
 40
18.0
 50
270.0
 51
90.0
  0
ARC
  5
369
  8
0
 10
246.27434507421691
 20
342.85410435971932
 30
0.0
 40
18.0
 50
90.0
 51
270.0
  0
LINE
  5
36A
  8
0
 10
256.27434507421691
 20
360.85410435971932
 30
0.0
 11
246.27434507421691
 21
360.85410435971932
 31
0.0
  0
LINE
  5
36B
  8
0
 10
256.27434507421691
 20
324.85410435971932
 30
0.0
 11
246.27434507421691
 21
324.85410435971932
 31
0.0
  0
ARC
  5
36C
  8
0
 10
303.53497507421679
 20
352.08558835971922
 30
0.0
 40
2.0
 50
9.1583469999992513
 51
90.0
  0
LINE
  5
36D
  8
0
 10
303.53805807421679
 20
354.10658435971931
 30
0.0
 11
258.8895550742169
 21
360.66311035971921
 31
0.0
  0
ARC
  5
36E
  8
0
 10
303.53497507421679
 20
333.62262035971918
 30
0.0
 40
2.0
 50
270.0
 51
350.84165300000069
  0
ARC
  5
36F
  8
0
 10
246.27434507421691
 20
342.85410435971932
 30
0.0
 40
60.0
 50
350.84165299999978
 51
9.1583470000000542
  0
LINE
  5
370
  8
0
 10
303.53805807421679
 20
331.60162435971921
 30
0.0
 11
258.8895550742169
 21
325.04509835971919
 31
0.0
  0
LINE
  5
371
  8
0
 10
254.35724907421681
 20
342.85410435971932
 30
0.0
 11
250.3157970742169
 21
349.85410435971932
 31
0.0
  0
LINE
  5
372
  8
0
 10
250.3157970742169
 20
335.85410435971932
 30
0.0
 11
254.35724907421681
 21
342.85410435971932
 31
0.0
  0
LINE
  5
373
  8
0
 10
242.2328930742168
 20
335.85410435971932
 30
0.0
 11
250.3157970742169
 21
335.85410435971932
 31
0.0
  0
LINE
  5
374
  8
0
 10
238.1914410742169
 20
342.85410435971932
 30
0.0
 11
242.2328930742168
 21
335.85410435971932
 31
0.0
  0
LINE
  5
375
  8
0
 10
242.2328930742168
 20
349.85410435971932
 30
0.0
 11
238.1914410742169
 21
342.85410435971932
 31
0.0
  0
LINE
  5
376
  8
0
 10
250.3157970742169
 20
349.85410435971932
 30
0.0
 11
242.2328930742168
 21
349.85410435971932
 31
0.0
  0
CIRCLE
  5
378
  8
0
 10
246.27434507421691
 20
342.85410435971932
 30
0.0
 40
12.0
  0
CIRCLE
  5
379
  8
0
 10
292.27434507421691
 20
342.85410435971932
 30
0.0
 40
5.0
  0
CIRCLE
  5
37A
  8
3
 10
292.27434507421691
 20
342.85410435971932
 30
0.0
 40
6.0
  0
LINE
  5
37B
  8
1
 10
292.27434507421691
 20
332.8541043597192
 30
0.0
 11
292.27434507421691
 21
352.85410435971932
 31
0.0
  0
LINE
  5
37C
  8
2
 10
230.2743450742168
 20
159.8541043597192
 30
0.0
 11
231.27434507421691
 21
158.8541043597192
 31
0.0
  0
LINE
  5
37D
  8
2
 10
261.2743450742168
 20
158.8541043597192
 30
0.0
 11
262.27434507421691
 21
159.8541043597192
 31
0.0
  0
ARC
  5
37E
  8
0
 10
230.3743450742169
 20
198.4541043597192
 30
0.0
 40
0.4
 50
0.0
 51
90.0
  0
ARC
  5
37F
  8
0
 10
262.17434507421677
 20
198.4541043597192
 30
0.0
 40
0.4
 50
90.0
 51
180.0
  0
LINE
  5
380
  8
0
 10
261.7743453181169
 20
197.85409472557279
 30
0.0
 11
261.7743450742168
 21
198.4541043597192
 31
0.0
  0
LINE
  5
381
  8
2
 10
262.27434507421691
 20
159.8541043597192
 30
0.0
 11
262.27434507421691
 21
196.8541043597192
 31
0.0
  0
LINE
  5
382
  8
2
 10
230.2743450742168
 20
196.8541043597192
 30
0.0
 11
230.2743450742168
 21
159.8541043597192
 31
0.0
  0
LINE
  5
383
  8
0
 10
230.77434507421691
 20
198.4541043597192
 30
0.0
 11
230.7743453181188
 21
197.8541022865484
 31
0.0
  0
LINE
  5
384
  8
2
 10
262.27434507421691
 20
159.8541043597192
 30
0.0
 11
230.2743450742168
 21
159.8541043597192
 31
0.0
  0
LINE
  5
385
  8
2
 10
262.27434507421691
 20
196.8541043597192
 30
0.0
 11
230.2743450742168
 21
196.8541043597192
 31
0.0
  0
LINE
  5
386
  8
2
 10
261.2743450742168
 20
158.8541043597192
 30
0.0
 11
231.27434507421691
 21
158.8541043597192
 31
0.0
  0
LINE
  5
387
  8
2
 10
238.2743450742168
 20
134.8541043597192
 30
0.0
 11
240.2743450742168
 21
132.8541043597192
 31
0.0
  0
LINE
  5
388
  8
2
 10
238.2743450742168
 20
158.8541043597192
 30
0.0
 11
238.2743450742168
 21
134.8541043597192
 31
0.0
  0
LINE
  5
389
  8
2
 10
253.1743450742168
 20
158.8541043597192
 30
0.0
 11
253.1743450742168
 21
133.75410435971921
 31
0.0
  0
LINE
  5
38A
  8
2
 10
254.27434507421691
 20
134.8541043597192
 30
0.0
 11
252.27434507421691
 21
132.8541043597192
 31
0.0
  0
LINE
  5
38B
  8
2
 10
254.27434507421691
 20
158.8541043597192
 30
0.0
 11
254.27434507421691
 21
134.8541043597192
 31
0.0
  0
LINE
  5
38C
  8
2
 10
239.3743450742169
 20
158.8541043597192
 30
0.0
 11
239.3743450742169
 21
133.75410435971921
 31
0.0
  0
LINE
  5
38D
  8
2
 10
252.27434507421691
 20
132.8541043597192
 30
0.0
 11
240.2743450742168
 21
132.8541043597192
 31
0.0
  0
LINE
  5
38E
  8
2
 10
254.27434507421691
 20
134.8541043597192
 30
0.0
 11
238.2743450742168
 21
134.8541043597192
 31
0.0
  0
LINE
  5
38F
  8
0
 10
264.78114107421692
 20
198.85410135971921
 30
0.0
 11
266.16308407421678
 21
197.85665735971921
 31
0.0
  0
LINE
  5
390
  8
0
 10
222.2743450742168
 20
197.8541043597192
 30
0.0
 11
304.27434507421691
 21
197.8540843597192
 31
0.0
  0
LINE
  5
391
  8
0
 10
228.2743450742168
 20
218.05410435971919
 30
0.0
 11
228.2743450742168
 21
199.65396935971921
 31
0.0
  0
LINE
  5
392
  8
0
 10
306.27434507421691
 20
212.1423183597193
 30
0.0
 11
306.27434507421691
 21
199.8540843597192
 31
0.0
  0
ARC
  5
393
  8
0
 10
229.07434507421689
 20
218.05410435971919
 30
0.0
 40
0.8
 50
90.0
 51
180.0
  0
ARC
  5
394
  8
0
 10
304.27434507421691
 20
199.8540843597192
 30
0.0
 40
2.0
 50
270.0
 51
0.0
  0
LINE
  5
395
  8
0
 10
229.07434507421689
 20
218.85410435971929
 30
0.0
 11
273.4978030742169
 21
218.85410435971929
 31
0.0
  0
ARC
  5
397
  8
0
 10
229.07434507421689
 20
199.65396935971921
 30
0.0
 40
0.8
 50
180.0
 51
268.97504823642788
  0
LINE
  5
39C
  8
0
 10
304.58310007421687
 20
214.11834235971921
 30
0.0
 11
275.04157807421677
 21
218.73422335971921
 31
0.0
  0
ARC
  5
39D
  8
0
 10
273.4978030742169
 20
208.85410435971929
 30
0.0
 40
10.0
 50
81.119306000000705
 51
90.0
  0
ARC
  5
39E
  8
0
 10
304.27434507421691
 20
212.1423183597193
 30
0.0
 40
2.0
 50
0.0
 51
81.119306000000705
  0
LINE
  5
39F
  8
0
 10
264.7811470742169
 20
198.85409735971919
 30
0.0
 11
229.060034811609
 21
198.85409735971919
 31
0.0
  0
LINE
  5
3A0
  8
1
 10
246.27434507421691
 20
243.85410435971929
 30
0.0
 11
246.27434507421691
 21
57.854104359719251
 31
0.0
  0
LINE
  5
3A1
  8
0
 10
235.27434507421691
 20
233.85410435971929
 30
0.0
 11
234.2743450742168
 21
232.8541043597192
 31
0.0
  0
LINE
  5
3A2
  8
0
 10
257.2743450742168
 20
233.85410435971929
 30
0.0
 11
235.27434507421691
 21
233.85410435971929
 31
0.0
  0
LINE
  5
3A3
  8
0
 10
258.27434507421691
 20
232.8541043597192
 30
0.0
 11
257.2743450742168
 21
233.85410435971929
 31
0.0
  0
LINE
  5
3A4
  8
0
 10
258.27434507421691
 20
218.85410435971929
 30
0.0
 11
258.27434507421691
 21
232.8541043597192
 31
0.0
  0
LINE
  5
3A5
  8
0
 10
234.2743450742168
 20
232.8541043597192
 30
0.0
 11
234.2743450742168
 21
218.85410435971929
 31
0.0
  0
LINE
  5
3A6
  8
0
 10
258.27434507421691
 20
232.8541043597192
 30
0.0
 11
234.2743450742168
 21
232.8541043597192
 31
0.0
  0
LINE
  5
3A7
  8
1
 10
292.27434507421691
 20
221.04159335971929
 30
0.0
 11
292.27434507421691
 21
192.8540843597192
 31
0.0
  0
LINE
  5
3A8
  8
0
 10
221.45678107421691
 20
127.8541043597192
 30
0.0
 11
221.45678107421691
 21
107.8541043597192
 31
0.0
  0
LINE
  5
3A9
  8
0
 10
231.25474007421681
 20
127.8541043597192
 30
0.0
 11
231.25474007421681
 21
107.8541043597192
 31
0.0
  0
LINE
  5
3AA
  8
0
 10
236.47638607421689
 20
127.8541043597192
 30
0.0
 11
236.47638607421689
 21
107.8541043597192
 31
0.0
  0
LINE
  5
3AB
  8
0
 10
256.0723040742169
 20
127.8541043597192
 30
0.0
 11
256.0723040742169
 21
107.8541043597192
 31
0.0
  0
LINE
  5
3AC
  8
0
 10
256.0723040742169
 20
107.8541043597192
 30
0.0
 11
236.47638607421689
 21
107.8541043597192
 31
0.0
  0
LINE
  5
3AD
  8
0
 10
256.0723040742169
 20
127.8541043597192
 30
0.0
 11
236.47638607421689
 21
127.8541043597192
 31
0.0
  0
ARC
  5
3AE
  8
0
 10
246.27434507421691
 20
86.862235359719236
 30
0.0
 40
42.14656999999999
 50
76.557261000000807
 51
103.44273899999919
  0
ARC
  5
3AF
  8
0
 10
246.27434507421691
 20
148.84597335971921
 30
0.0
 40
42.14656999999999
 50
256.55726100000078
 51
283.44273899999922
  0
ARC
  5
3B0
  8
0
 10
226.35576107421679
 20
117.6690593597192
 30
0.0
 40
10.969654999999999
 50
243.47464799999801
 51
296.52535200000199
  0
ARC
  5
3B1
  8
0
 10
226.35576107421679
 20
118.0391493597192
 30
0.0
 40
10.969654999999999
 50
63.47464799999797
 51
116.525352000002
  0
LINE
  5
3B2
  8
0
 10
231.25474007421681
 20
127.8541043597192
 30
0.0
 11
221.45678107421691
 21
127.8541043597192
 31
0.0
  0
LINE
  5
3B3
  8
0
 10
231.25474007421681
 20
107.8541043597192
 30
0.0
 11
221.45678107421691
 21
107.8541043597192
 31
0.0
  0
LINE
  5
3B4
  8
0
 10
261.29395007421681
 20
107.8541043597192
 30
0.0
 11
271.0919090742168
 21
107.8541043597192
 31
0.0
  0
LINE
  5
3B5
  8
0
 10
261.29395007421681
 20
127.8541043597192
 30
0.0
 11
271.0919090742168
 21
127.8541043597192
 31
0.0
  0
ARC
  5
3B6
  8
0
 10
266.19292907421692
 20
118.0391493597192
 30
0.0
 40
10.969654999999999
 50
63.47464799999797
 51
116.525352000002
  0
ARC
  5
3B7
  8
0
 10
266.19292907421692
 20
117.6690593597192
 30
0.0
 40
10.969654999999999
 50
243.47464799999801
 51
296.52535200000199
  0
LINE
  5
3B8
  8
0
 10
261.29395007421681
 20
127.8541043597192
 30
0.0
 11
261.29395007421681
 21
107.8541043597192
 31
0.0
  0
LINE
  5
3B9
  8
0
 10
271.0919090742168
 20
127.8541043597192
 30
0.0
 11
271.0919090742168
 21
107.8541043597192
 31
0.0
  0
LINE
  5
3BB
  8
0
 10
221.27434507421691
 20
196.8541043597192
 30
0.0
 11
221.27434507421691
 21
98.854104359719273
 31
0.0
  0
LINE
  5
3BC
  8
0
 10
222.2743450742168
 20
97.854104359719244
 30
0.0
 11
270.2743450742168
 21
97.854104359719244
 31
0.0
  0
LINE
  5
3BD
  8
0
 10
240.7743450742168
 20
97.454104359719267
 30
0.0
 11
240.7743450742168
 21
94.254104359719264
 31
0.0
  0
LINE
  5
3BE
  8
0
 10
222.2743450742168
 20
197.8541043597192
 30
0.0
 11
221.27434507421691
 21
196.8541043597192
 31
0.0
  0
LINE
  5
3BF
  8
0
 10
221.27434507421691
 20
98.854104359719273
 30
0.0
 11
222.2743450742168
 21
97.854104359719244
 31
0.0
  0
ARC
  5
3C0
  8
0
 10
240.3743450742169
 20
97.454104359719267
 30
0.0
 40
0.4
 50
0.0
 51
90.0
  0
ARC
  5
3C1
  8
0
 10
240.3743450742169
 20
94.254104359719264
 30
0.0
 40
0.4
 50
270.0
 51
0.0
  0
ARC
  5
3C2
  8
0
 10
252.1743450742168
 20
97.454104359719267
 30
0.0
 40
0.4
 50
90.0
 51
180.0
  0
LINE
  5
3C3
  8
0
 10
271.27434507421691
 20
98.854104359719273
 30
0.0
 11
270.2743450742168
 21
97.854104359719244
 31
0.0
  0
LINE
  5
3C4
  8
0
 10
270.2743450742168
 20
197.8541043597192
 30
0.0
 11
271.27434507421691
 21
196.8541043597192
 31
0.0
  0
LINE
  5
3C5
  8
0
 10
271.27434507421691
 20
196.8541043597192
 30
0.0
 11
271.27434507421691
 21
98.854104359719273
 31
0.0
  0
LINE
  5
3C6
  8
3
 10
239.3743450742169
 20
93.854104359719244
 30
0.0
 11
239.3743450742169
 21
68.754104359719264
 31
0.0
  0
LINE
  5
3C7
  8
0
 10
238.2743450742168
 20
93.854104359719244
 30
0.0
 11
238.2743450742168
 21
69.854104359719258
 31
0.0
  0
LINE
  5
3C8
  8
0
 10
240.2743450742168
 20
67.854104359719244
 30
0.0
 11
238.2743450742168
 21
69.854104359719258
 31
0.0
  0
LINE
  5
3C9
  8
0
 10
252.27434507421691
 20
67.854104359719244
 30
0.0
 11
254.27434507421691
 21
69.854104359719258
 31
0.0
  0
LINE
  5
3CA
  8
0
 10
254.27434507421691
 20
93.854104359719244
 30
0.0
 11
254.27434507421691
 21
69.854104359719258
 31
0.0
  0
LINE
  5
3CB
  8
3
 10
253.1743450742168
 20
93.854104359719244
 30
0.0
 11
253.1743450742168
 21
68.754104359719264
 31
0.0
  0
ARC
  5
3CC
  8
0
 10
252.1743450742168
 20
94.254104359719264
 30
0.0
 40
0.4
 50
180.0
 51
270.0
  0
LINE
  5
3CD
  8
0
 10
251.77434507421691
 20
97.454104359719267
 30
0.0
 11
251.77434507421691
 21
94.254104359719264
 31
0.0
  0
LINE
  5
3CE
  8
0
 10
254.27434507421691
 20
69.854104359719258
 30
0.0
 11
238.2743450742168
 21
69.854104359719258
 31
0.0
  0
LINE
  5
3CF
  8
0
 10
252.27434507421691
 20
67.854104359719244
 30
0.0
 11
240.2743450742168
 21
67.854104359719244
 31
0.0
  0
LINE
  5
3D0
  8
0
 10
254.27434507421691
 20
93.854104359719244
 30
0.0
 11
238.2743450742168
 21
93.854104359719244
 31
0.0
  0
LINE
  5
3FE
  8
2
 10
261.7743453181169
 20
197.85409472557279
 30
0.0
 11
261.7743453181169
 21
196.8541043597192
 31
0.0
  0
LINE
  5
3FF
  8
2
 10
230.7743453181188
 20
197.8541022865484
 30
0.0
 11
230.7743453181188
 21
196.8541043597192
 31
0.0
  0
LINE
  5
400
  8
2
 10
121.7743450742168
 20
197.8541043597192
 30
0.0
 11
121.7743450742168
 21
196.8541043597192
 31
0.0
  0
LINE
  5
401
  8
2
 10
90.774345074216825
 20
197.8541043597192
 30
0.0
 11
90.774345074216825
 21
196.8541043597192
 31
0.0
  0
TEXT
  5
562
  8
0
 62
     3
 10
0.0
 20
0.0
 30
0.0
 40
10.0
  1
BJ130-16160A2
  7
STANDARD1
  0
ENDSEC
  0
EOF
