  0
SECTION
  2
HEADER
  9
$ACADVER
  1
AC1009
  9
$INSBASE
 10
0.0
 20
0.0
 30
0.0
  9
$EXTMIN
 10
0.0
 20
-2.960436562073669
 30
0.0
  9
$EXTMAX
 10
412.087634711026
 20
347.69698985029481
 30
0.0
  9
$LIMMIN
 10
0.0
 20
0.0
  9
$LIMMAX
 10
780.0
 20
540.0
  9
$ORTHOMODE
 70
     0
  9
$REGENMODE
 70
     1
  9
$FILLMODE
 70
     1
  9
$QTEXTMODE
 70
     0
  9
$MIRRTEXT
 70
     0
  9
$DRAGMODE
 70
     2
  9
$LTSCALE
 40
20.0
  9
$OSMODE
 70
  3071
  9
$ATTMODE
 70
     1
  9
$TEXTSIZE
 40
0.2
  9
$TRACEWID
 40
0.05
  9
$TEXTSTYLE
  7
STANDARD
  9
$CLAYER
  8
0
  9
$CELTYPE
  6
BYLAYER
  9
$CECOLOR
 62
   256
  9
$DIMSCALE
 40
2.0
  9
$DIMASZ
 40
3.0
  9
$DIMEXO
 40
2.0
  9
$DIMDLI
 40
0.38
  9
$DIMRND
 40
0.0
  9
$DIMDLE
 40
0.0
  9
$DIMEXE
 40
2.0
  9
$DIMTP
 40
0.0
  9
$DIMTM
 40
0.0
  9
$DIMTXT
 40
3.0
  9
$DIMCEN
 40
0.0
  9
$DIMTSZ
 40
0.0
  9
$DIMTOL
 70
     0
  9
$DIMLIM
 70
     0
  9
$DIMTIH
 70
     0
  9
$DIMTOH
 70
     0
  9
$DIMSE1
 70
     0
  9
$DIMSE2
 70
     0
  9
$DIMTAD
 70
     1
  9
$DIMZIN
 70
     0
  9
$DIMBLK
  1

  9
$DIMASO
 70
     0
  9
$DIMSHO
 70
     0
  9
$DIMPOST
  1

  9
$DIMAPOST
  1

  9
$DIMALT
 70
     0
  9
$DIMALTD
 70
     2
  9
$DIMALTF
 40
25.399999999999999
  9
$DIMLFAC
 40
1.0
  9
$DIMTOFL
 70
     1
  9
$DIMTVP
 40
1.6000000000000001
  9
$DIMTIX
 70
     1
  9
$DIMSOXD
 70
     0
  9
$DIMSAH
 70
     0
  9
$DIMBLK1
  1

  9
$DIMBLK2
  1

  9
$DIMSTYLE
  2
STANDARD
  9
$DIMCLRD
 70
     0
  9
$DIMCLRE
 70
     0
  9
$DIMCLRT
 70
     0
  9
$DIMTFAC
 40
1.0
  9
$DIMGAP
 40
0.09
  9
$LUNITS
 70
     2
  9
$LUPREC
 70
     4
  9
$SKETCHINC
 40
0.1
  9
$FILLETRAD
 40
0.0
  9
$AUNITS
 70
     0
  9
$AUPREC
 70
     4
  9
$MENU
  1
E:\r13\win\SUPPORT\ACAD
  9
$ELEVATION
 40
0.0
  9
$PELEVATION
 40
0.0
  9
$THICKNESS
 40
0.0
  9
$LIMCHECK
 70
     0
  9
$BLIPMODE
 70
     0
  9
$CHAMFERA
 40
0.0
  9
$CHAMFERB
 40
0.0
  9
$SKPOLY
 70
     0
  9
$TDCREATE
 40
2449840.350706018
  9
$TDUPDATE
 40
2456597.6211780789
  9
$TDINDWG
 40
0.0224156713
  9
$TDUSRTIMER
 40
2456518.1419594451
  9
$USRTIMER
 70
     1
  9
$ANGBASE
 50
0.0
  9
$ANGDIR
 70
     0
  9
$PDMODE
 70
     0
  9
$PDSIZE
 40
0.0
  9
$PLINEWID
 40
0.0
  9
$COORDS
 70
     1
  9
$SPLFRAME
 70
     0
  9
$SPLINETYPE
 70
     6
  9
$SPLINESEGS
 70
     8
  9
$ATTDIA
 70
     0
  9
$ATTREQ
 70
     1
  9
$HANDLING
 70
     1
  9
$HANDSEED
  5
625
  9
$SURFTAB1
 70
     6
  9
$SURFTAB2
 70
     6
  9
$SURFTYPE
 70
     6
  9
$SURFU
 70
     6
  9
$SURFV
 70
     6
  9
$UCSNAME
  2

  9
$UCSORG
 10
0.0
 20
0.0
 30
0.0
  9
$UCSXDIR
 10
1.0
 20
0.0
 30
0.0
  9
$UCSYDIR
 10
0.0
 20
1.0
 30
0.0
  9
$PUCSNAME
  2

  9
$PUCSORG
 10
0.0
 20
0.0
 30
0.0
  9
$PUCSXDIR
 10
1.0
 20
0.0
 30
0.0
  9
$PUCSYDIR
 10
0.0
 20
1.0
 30
0.0
  9
$USERI1
 70
     3
  9
$USERI2
 70
     1
  9
$USERI3
 70
     0
  9
$USERI4
 70
     0
  9
$USERI5
 70
     0
  9
$USERR1
 40
2.0
  9
$USERR2
 40
3.0
  9
$USERR3
 40
3.0
  9
$USERR4
 40
3.0
  9
$USERR5
 40
10.0
  9
$WORLDVIEW
 70
     1
  9
$SHADEDGE
 70
     3
  9
$SHADEDIF
 70
    70
  9
$TILEMODE
 70
     1
  9
$MAXACTVP
 70
    16
  9
$PLIMCHECK
 70
     0
  9
$PEXTMIN
 10
1.0000000000000000E+020
 20
1.0000000000000000E+020
 30
1.0000000000000000E+020
  9
$PEXTMAX
 10
-1.0000000000000000E+020
 20
-1.0000000000000000E+020
 30
-1.0000000000000000E+020
  9
$PLIMMIN
 10
0.0
 20
0.0
  9
$PLIMMAX
 10
12.0
 20
9.0
  9
$UNITMODE
 70
     0
  9
$VISRETAIN
 70
     0
  9
$PLINEGEN
 70
     0
  9
$PSLTSCALE
 70
     0
  0
ENDSEC
  0
SECTION
  2
TABLES
  0
TABLE
  2
VPORT
 70
     1
  0
VPORT
  2
*ACTIVE
 70
     0
 10
0.0
 20
0.0
 11
1.0
 21
1.0
 12
389.988099052557
 22
383.6881458164155
 13
0.0
 23
0.0
 14
5.0
 24
5.0
 15
10.0
 25
10.0
 16
0.0
 26
0.0
 36
1.0
 17
0.0
 27
0.0
 37
0.0
 40
780.34809480459126
 41
1.831871345029239
 42
50.0
 43
0.0
 44
0.0
 50
0.0
 51
0.0
 71
    16
 72
   100
 73
     1
 74
     0
 75
     0
 76
     0
 77
     0
 78
     2
  0
ENDTAB
  0
TABLE
  2
LTYPE
 70
     4
  0
LTYPE
  2
CONTINUOUS
 70
     0
  3
Solid Line
 72
    65
 73
     0
 40
0.0
  0
LTYPE
  2
PHANTOM2
 70
     0
  3
___ _ _ ___ _ _ ___ _ _ ___ _ _
 72
    65
 73
     6
 40
1.25
 49
0.625
 49
-0.125
 49
0.125
 49
-0.125
 49
0.125
 49
-0.125
  0
LTYPE
  2
CENTER
 70
     0
  3
____ _ ____ _ ____ _ ____ _ ____ _ ____ _ ____
 72
    65
 73
     4
 40
2.0
 49
1.25
 49
-0.25
 49
0.25
 49
-0.25
  0
LTYPE
  2
HIDDEN
 70
     0
  3
_ _ _ _ _ _ _ _ _ _ _ _ _ _ _ _ _ _ _ _ _ _ _
 72
    65
 73
     2
 40
0.375
 49
0.25
 49
-0.125
  0
ENDTAB
  0
TABLE
  2
LAYER
 70
     4
  0
LAYER
  2
0
 70
     0
 62
     7
  6
CONTINUOUS
  0
LAYER
  2
1
 70
     0
 62
     1
  6
CENTER
  0
LAYER
  2
3
 70
     0
 62
     3
  6
CONTINUOUS
  0
LAYER
  2
2
 70
     0
 62
     2
  6
HIDDEN
  0
ENDTAB
  0
TABLE
  2
STYLE
 70
     3
  0
STYLE
  2
STANDARD
 70
     0
 40
0.0
 41
1.0
 50
0.0
 71
     0
 42
0.2
  3
TXT
  4
BIGFONT
  0
STYLE
  2
ANNOTATIVE
 70
     0
 40
0.0
 41
1.0
 50
0.0
 71
     0
 42
0.2
  3
txt
  4

  0
STYLE
  2
STANDARD1
 70
     0
 40
0.0
 41
1.0
 50
0.0
 71
     0
 42
3.0
  3
txt
  4

  0
ENDTAB
  0
TABLE
  2
VIEW
 70
     1
  0
VIEW
  2
ALL
 70
     0
 40
270.0
 10
220.99159700000001
 20
135.0
 41
0.0
 11
0.0
 21
0.0
 31
1.0
 12
0.0
 22
0.0
 32
0.0
 42
0.0
 43
0.0
 44
0.0
 50
0.0
 71
     0
  0
ENDTAB
  0
TABLE
  2
UCS
 70
     0
  0
ENDTAB
  0
TABLE
  2
APPID
 70
     5
  0
APPID
  2
ACAD
 70
     0
  0
APPID
  2
ACADANNOTATIVE
 70
     0
  0
APPID
  2
ACAD_MLEADERVER
 70
     0
  0
APPID
  2
ACAD_EXEMPT_FROM_CAD_STANDARDS
 70
     0
  0
APPID
  2
ACAD_NAV_VCDISPLAY
 70
     0
  0
ENDTAB
  0
TABLE
  2
DIMSTYLE
 70
     2
  0
DIMSTYLE
  2
STANDARD
 70
     0
  3

  4

  5

  6

  7

 40
1.0
 41
0.18
 42
0.0625
 43
0.38
 44
0.18
 45
0.0
 46
0.0
 47
0.0
 48
0.0
140
0.18
141
0.09
142
0.0
143
25.399999999999999
144
1.0
145
0.0
146
1.0
147
0.09
 71
     0
 72
     0
 73
     1
 74
     1
 75
     0
 76
     0
 77
     0
 78
     0
170
     0
171
     2
172
     0
173
     0
174
     0
175
     0
176
     0
177
     0
178
     0
  0
DIMSTYLE
  2
ANNOTATIVE
 70
     0
  3

  4

  5

  6

  7

 40
1.0
 41
0.18
 42
0.0625
 43
0.38
 44
0.18
 45
0.0
 46
0.0
 47
0.0
 48
0.0
140
0.18
141
0.09
142
0.0
143
25.399999999999999
144
1.0
145
0.0
146
1.0
147
0.09
 71
     0
 72
     0
 73
     1
 74
     1
 75
     0
 76
     0
 77
     0
 78
     0
170
     0
171
     2
172
     0
173
     0
174
     0
175
     0
176
     0
177
     0
178
     0
  0
ENDTAB
  0
ENDSEC
  0
SECTION
  2
BLOCKS
  0
BLOCK
  8
0
  2
$MODEL_SPACE
 70
     0
 10
0.0
 20
0.0
 30
0.0
  3
$MODEL_SPACE
  1

  0
ENDBLK
  5
557
  8
0
  0
BLOCK
 67
     1
  8
0
  2
$PAPER_SPACE
 70
     0
 10
0.0
 20
0.0
 30
0.0
  3
$PAPER_SPACE
  1

  0
ENDBLK
  5
553
 67
     1
  8
0
  0
BLOCK
  8
0
  2
STDGX5
 70
     0
 10
0.0
 20
0.0
 30
0.0
  3
STDGX5
  1

  0
ENDBLK
  5
3D
  8
0
  0
ENDSEC
  0
SECTION
  2
ENTITIES
  0
INSERT
  5
152
  8
0
  2
STDGX5
 10
0.0
 20
0.0
 30
0.0
  0
INSERT
  5
159
  8
0
  2
STDGX5
 10
0.0
 20
0.0
 30
0.0
  0
INSERT
  5
15A
  8
0
  2
STDGX5
 10
0.0
 20
0.0
 30
0.0
  0
INSERT
  5
15B
  8
0
  2
STDGX5
 10
0.0
 20
0.0
 30
0.0
  0
LINE
  5
2BC
  8
1
 10
252.08763471102611
 20
277.69698985029481
 30
0.0
 11
252.08763471102611
 21
347.69698985029481
 31
0.0
  0
LINE
  5
2BD
  8
1
 10
322.08763471102611
 20
312.69698985029481
 30
0.0
 11
217.08763471102611
 21
312.69698985029481
 31
0.0
  0
ARC
  5
2C1
  8
0
 10
252.08763471102611
 20
312.69698985029481
 30
0.0
 40
20.0
 50
52.410497035143273
 51
307.58950296485682
  0
LINE
  5
2C3
  8
0
 10
136.08763471102611
 20
192.69698985029481
 30
0.0
 11
98.087634711026155
 21
192.69698985029481
 31
0.0
  0
LINE
  5
2C4
  8
0
 10
97.087634711026141
 20
191.69698985029481
 30
0.0
 11
97.087634711026141
 21
123.8516908502948
 31
0.0
  0
LINE
  5
2C5
  8
0
 10
99.087634711026155
 20
122.6969898502948
 30
0.0
 11
99.087634711026155
 21
102.6969898502948
 31
0.0
  0
LINE
  5
2C6
  8
0
 10
98.087634711026155
 20
92.696989850294798
 30
0.0
 11
136.08763471102611
 21
92.696989850294798
 31
0.0
  0
LINE
  5
2C7
  8
0
 10
112.387634711026
 20
92.296989850294793
 30
0.0
 11
112.387634711026
 21
89.596989850294804
 31
0.0
  0
LINE
  5
2C8
  8
0
 10
111.0876347110261
 20
89.196989850294827
 30
0.0
 11
111.0876347110261
 21
64.696989850294813
 31
0.0
  0
LINE
  5
2C9
  8
0
 10
98.087634711026155
 20
192.69698985029481
 30
0.0
 11
97.087634711026141
 21
191.69698985029481
 31
0.0
  0
LINE
  5
2CA
  8
0
 10
98.087634711026155
 20
92.696989850294798
 30
0.0
 11
97.087634711026141
 21
93.696989850294784
 31
0.0
  0
LINE
  5
2CB
  8
0
 10
111.0876347110261
 20
64.696989850294813
 30
0.0
 11
113.0876347110261
 21
62.696989850294813
 31
0.0
  0
ARC
  5
2CC
  8
0
 10
111.9876347110261
 20
89.596989850294804
 30
0.0
 40
0.4
 50
270.0
 51
0.0
  0
LINE
  5
2CD
  8
0
 10
99.087634711026155
 20
102.6969898502948
 30
0.0
 11
97.087634711026141
 21
101.5422888502948
 31
0.0
  0
LINE
  5
2CE
  8
0
 10
97.087634711026141
 20
101.5422888502948
 30
0.0
 11
97.087634711026141
 21
93.696989850294784
 31
0.0
  0
LINE
  5
2CF
  8
0
 10
99.087634711026155
 20
122.6969898502948
 30
0.0
 11
97.087634711026141
 21
123.8516908502948
 31
0.0
  0
LINE
  5
2D0
  8
0
 10
135.08763471102611
 20
122.6969898502948
 30
0.0
 11
137.08763471102611
 21
123.8516908502948
 31
0.0
  0
LINE
  5
2D1
  8
0
 10
137.08763471102611
 20
101.5422888502948
 30
0.0
 11
137.08763471102611
 21
93.696989850294784
 31
0.0
  0
LINE
  5
2D2
  8
0
 10
135.08763471102611
 20
102.6969898502948
 30
0.0
 11
137.08763471102611
 21
101.5422888502948
 31
0.0
  0
LINE
  5
2D3
  8
0
 10
136.08763471102611
 20
92.696989850294798
 30
0.0
 11
137.08763471102611
 21
93.696989850294784
 31
0.0
  0
LINE
  5
2D4
  8
0
 10
136.08763471102611
 20
192.69698985029481
 30
0.0
 11
137.08763471102611
 21
191.69698985029481
 31
0.0
  0
LINE
  5
2D5
  8
0
 10
135.08763471102611
 20
122.6969898502948
 30
0.0
 11
135.08763471102611
 21
102.6969898502948
 31
0.0
  0
LINE
  5
2D6
  8
0
 10
137.08763471102611
 20
191.69698985029481
 30
0.0
 11
137.08763471102611
 21
123.8516908502948
 31
0.0
  0
LINE
  5
2D7
  8
0
 10
118.53780071102609
 20
122.6969898502948
 30
0.0
 11
118.53780071102609
 21
102.6969898502948
 31
0.0
  0
LINE
  5
2D8
  8
0
 10
118.53780071102609
 20
102.6969898502948
 30
0.0
 11
133.63746871102609
 21
102.6969898502948
 31
0.0
  0
LINE
  5
2D9
  8
0
 10
133.63746871102609
 20
102.6969898502948
 30
0.0
 11
133.63746871102609
 21
122.6969898502948
 31
0.0
  0
LINE
  5
2DA
  8
0
 10
133.63746871102609
 20
122.6969898502948
 30
0.0
 11
118.53780071102609
 21
122.6969898502948
 31
0.0
  0
ARC
  5
2DB
  8
0
 10
126.0876347110261
 20
98.592615850294806
 30
0.0
 40
25.259073999999998
 50
72.608698000000075
 51
107.3913019999999
  0
ARC
  5
2DC
  8
0
 10
126.0876347110261
 20
126.80136385029481
 30
0.0
 40
25.259073999999998
 50
252.60869800000009
 51
287.39130199999971
  0
ARC
  5
2DD
  8
0
 10
108.0876347110261
 20
126.80136385029481
 30
0.0
 40
25.259073999999998
 50
252.60869800000009
 51
287.39130199999971
  0
ARC
  5
2DE
  8
0
 10
108.0876347110261
 20
98.592615850294806
 30
0.0
 40
25.259073999999998
 50
72.608698000000075
 51
107.3913019999999
  0
LINE
  5
2DF
  8
0
 10
100.53780071102599
 20
122.6969898502948
 30
0.0
 11
115.6374687110261
 21
122.6969898502948
 31
0.0
  0
LINE
  5
2E0
  8
0
 10
100.53780071102599
 20
102.6969898502948
 30
0.0
 11
100.53780071102599
 21
122.6969898502948
 31
0.0
  0
LINE
  5
2E1
  8
0
 10
115.6374687110261
 20
102.6969898502948
 30
0.0
 11
100.53780071102599
 21
102.6969898502948
 31
0.0
  0
LINE
  5
2E2
  8
0
 10
115.6374687110261
 20
122.6969898502948
 30
0.0
 11
115.6374687110261
 21
102.6969898502948
 31
0.0
  0
LINE
  5
2E3
  8
0
 10
111.0876347110261
 20
89.196989850294827
 30
0.0
 11
123.0876347110261
 21
89.196989850294827
 31
0.0
  0
LINE
  5
2E4
  8
0
 10
111.0876347110261
 20
64.696989850294813
 30
0.0
 11
123.0876347110261
 21
64.696989850294813
 31
0.0
  0
LINE
  5
2E5
  8
0
 10
113.0876347110261
 20
62.696989850294813
 30
0.0
 11
121.0876347110261
 21
62.696989850294813
 31
0.0
  0
LINE
  5
2E6
  8
0
 10
123.0876347110261
 20
89.196989850294827
 30
0.0
 11
122.7751347110261
 21
89.196989850294827
 31
0.0
  0
ARC
  5
2E7
  8
0
 10
122.18763471102611
 20
89.596989850294804
 30
0.0
 40
0.4
 50
180.0
 51
270.0
  0
ARC
  5
2E8
  8
0
 10
122.18763471102611
 20
92.296989850294793
 30
0.0
 40
0.4
 50
90.0
 51
180.0
  0
LINE
  5
2E9
  8
0
 10
123.0876347110261
 20
64.696989850294813
 30
0.0
 11
121.0876347110261
 21
62.696989850294813
 31
0.0
  0
LINE
  5
2EA
  8
0
 10
123.0876347110261
 20
89.196989850294827
 30
0.0
 11
123.0876347110261
 21
64.696989850294813
 31
0.0
  0
LINE
  5
2EB
  8
0
 10
121.7876347110261
 20
92.296989850294793
 30
0.0
 11
121.7876347110261
 21
89.596989850294804
 31
0.0
  0
LINE
  5
2EC
  8
3
 10
112.0346347110261
 20
89.19976085029478
 30
0.0
 11
112.0346347110261
 21
63.74998985029481
 31
0.0
  0
LINE
  5
2ED
  8
3
 10
122.1406347110261
 20
89.19976085029478
 30
0.0
 11
122.1406347110261
 21
63.74998985029481
 31
0.0
  0
ARC
  5
2EE
  8
0
 10
111.9876347110261
 20
92.296989850294793
 30
0.0
 40
0.4
 50
0.0
 51
90.0
  0
LINE
  5
2F0
  8
0
 10
411.087634711026
 20
192.69698985029481
 30
0.0
 11
406.01996876169892
 21
192.69698985029481
 31
0.0
  0
LINE
  5
2F1
  8
0
 10
372.08763471102611
 20
191.69698985029481
 30
0.0
 11
372.08763471102611
 21
123.8516908502948
 31
0.0
  0
LINE
  5
2F2
  8
0
 10
374.08763471102611
 20
122.6969898502948
 30
0.0
 11
374.08763471102611
 21
102.6969898502948
 31
0.0
  0
LINE
  5
2F3
  8
0
 10
373.08763471102611
 20
92.696989850294798
 30
0.0
 11
411.087634711026
 21
92.696989850294798
 31
0.0
  0
LINE
  5
2F4
  8
0
 10
387.38763471102612
 20
92.296989850294793
 30
0.0
 11
387.38763471102612
 21
89.596989850294804
 31
0.0
  0
LINE
  5
2F5
  8
0
 10
386.08763471102611
 20
89.196989850294827
 30
0.0
 11
386.08763471102611
 21
64.696989850294813
 31
0.0
  0
LINE
  5
2F6
  8
0
 10
373.08763471102611
 20
192.69698985029481
 30
0.0
 11
372.08763471102611
 21
191.69698985029481
 31
0.0
  0
LINE
  5
2F7
  8
0
 10
373.08763471102611
 20
92.696989850294798
 30
0.0
 11
372.08763471102611
 21
93.696989850294784
 31
0.0
  0
LINE
  5
2F8
  8
0
 10
386.08763471102611
 20
64.696989850294813
 30
0.0
 11
388.08763471102611
 21
62.696989850294813
 31
0.0
  0
ARC
  5
2F9
  8
0
 10
386.98763471102609
 20
89.596989850294804
 30
0.0
 40
0.4
 50
270.0
 51
0.0
  0
LINE
  5
2FA
  8
0
 10
374.08763471102611
 20
102.6969898502948
 30
0.0
 11
372.08763471102611
 21
101.5422888502948
 31
0.0
  0
LINE
  5
2FB
  8
0
 10
372.08763471102611
 20
101.5422888502948
 30
0.0
 11
372.08763471102611
 21
93.696989850294784
 31
0.0
  0
LINE
  5
2FC
  8
0
 10
374.08763471102611
 20
122.6969898502948
 30
0.0
 11
372.08763471102611
 21
123.8516908502948
 31
0.0
  0
LINE
  5
2FD
  8
0
 10
410.087634711026
 20
122.6969898502948
 30
0.0
 11
412.087634711026
 21
123.8516908502948
 31
0.0
  0
LINE
  5
2FE
  8
0
 10
412.087634711026
 20
101.5422888502948
 30
0.0
 11
412.087634711026
 21
93.696989850294784
 31
0.0
  0
LINE
  5
2FF
  8
0
 10
410.087634711026
 20
102.6969898502948
 30
0.0
 11
412.087634711026
 21
101.5422888502948
 31
0.0
  0
LINE
  5
300
  8
0
 10
411.087634711026
 20
92.696989850294798
 30
0.0
 11
412.087634711026
 21
93.696989850294784
 31
0.0
  0
LINE
  5
301
  8
0
 10
411.087634711026
 20
192.69698985029481
 30
0.0
 11
412.087634711026
 21
191.69698985029481
 31
0.0
  0
LINE
  5
302
  8
0
 10
410.087634711026
 20
122.6969898502948
 30
0.0
 11
410.087634711026
 21
102.6969898502948
 31
0.0
  0
LINE
  5
303
  8
0
 10
412.087634711026
 20
191.69698985029481
 30
0.0
 11
412.087634711026
 21
123.8516908502948
 31
0.0
  0
LINE
  5
304
  8
0
 10
393.53780071102608
 20
122.6969898502948
 30
0.0
 11
393.53780071102608
 21
102.6969898502948
 31
0.0
  0
LINE
  5
305
  8
0
 10
393.53780071102608
 20
102.6969898502948
 30
0.0
 11
408.63746871102609
 21
102.6969898502948
 31
0.0
  0
LINE
  5
306
  8
0
 10
408.63746871102609
 20
102.6969898502948
 30
0.0
 11
408.63746871102609
 21
122.6969898502948
 31
0.0
  0
LINE
  5
307
  8
0
 10
408.63746871102609
 20
122.6969898502948
 30
0.0
 11
393.53780071102608
 21
122.6969898502948
 31
0.0
  0
ARC
  5
308
  8
0
 10
401.087634711026
 20
98.592615850294806
 30
0.0
 40
25.259073999999998
 50
72.608698000000075
 51
107.3913019999999
  0
ARC
  5
309
  8
0
 10
401.087634711026
 20
126.80136385029481
 30
0.0
 40
25.259073999999998
 50
252.60869800000009
 51
287.39130199999971
  0
ARC
  5
30A
  8
0
 10
383.087634711026
 20
126.80136385029481
 30
0.0
 40
25.259073999999998
 50
252.60869800000009
 51
287.39130199999971
  0
ARC
  5
30B
  8
0
 10
383.087634711026
 20
98.592615850294806
 30
0.0
 40
25.259073999999998
 50
72.608698000000075
 51
107.3913019999999
  0
LINE
  5
30C
  8
0
 10
375.53780071102619
 20
122.6969898502948
 30
0.0
 11
390.63746871102609
 21
122.6969898502948
 31
0.0
  0
LINE
  5
30D
  8
0
 10
375.53780071102619
 20
102.6969898502948
 30
0.0
 11
375.53780071102619
 21
122.6969898502948
 31
0.0
  0
LINE
  5
30E
  8
0
 10
390.63746871102609
 20
102.6969898502948
 30
0.0
 11
375.53780071102619
 21
102.6969898502948
 31
0.0
  0
LINE
  5
30F
  8
0
 10
390.63746871102609
 20
122.6969898502948
 30
0.0
 11
390.63746871102609
 21
102.6969898502948
 31
0.0
  0
LINE
  5
310
  8
0
 10
386.08763471102611
 20
89.196989850294827
 30
0.0
 11
398.08763471102611
 21
89.196989850294827
 31
0.0
  0
LINE
  5
311
  8
0
 10
386.08763471102611
 20
64.696989850294813
 30
0.0
 11
398.08763471102611
 21
64.696989850294813
 31
0.0
  0
LINE
  5
312
  8
0
 10
388.08763471102611
 20
62.696989850294813
 30
0.0
 11
396.08763471102611
 21
62.696989850294813
 31
0.0
  0
LINE
  5
313
  8
0
 10
398.08763471102611
 20
89.196989850294827
 30
0.0
 11
397.77513471102611
 21
89.196989850294827
 31
0.0
  0
ARC
  5
314
  8
0
 10
397.18763471102608
 20
89.596989850294804
 30
0.0
 40
0.4
 50
180.0
 51
270.0
  0
ARC
  5
315
  8
0
 10
397.18763471102608
 20
92.296989850294793
 30
0.0
 40
0.4
 50
90.0
 51
180.0
  0
LINE
  5
316
  8
0
 10
398.08763471102611
 20
64.696989850294813
 30
0.0
 11
396.08763471102611
 21
62.696989850294813
 31
0.0
  0
LINE
  5
317
  8
0
 10
398.08763471102611
 20
89.196989850294827
 30
0.0
 11
398.08763471102611
 21
64.696989850294813
 31
0.0
  0
LINE
  5
318
  8
0
 10
396.78763471102621
 20
92.296989850294793
 30
0.0
 11
396.78763471102621
 21
89.596989850294804
 31
0.0
  0
LINE
  5
319
  8
3
 10
387.03463471102611
 20
89.19976085029478
 30
0.0
 11
387.03463471102611
 21
63.74998985029481
 31
0.0
  0
LINE
  5
31A
  8
3
 10
397.140634711026
 20
89.19976085029478
 30
0.0
 11
397.140634711026
 21
63.74998985029481
 31
0.0
  0
ARC
  5
31B
  8
0
 10
386.98763471102609
 20
92.296989850294793
 30
0.0
 40
0.4
 50
0.0
 51
90.0
  0
LINE
  5
31D
  8
0
 10
102.94781071102599
 20
193.99646185029479
 30
0.0
 11
103.15530066035321
 21
192.69698985029481
 31
0.0
  0
LINE
  5
31F
  8
0
 10
132.2876347110261
 20
193.99646185029479
 30
0.0
 11
131.22745871102609
 21
193.99646185029479
 31
0.0
  0
ARC
  5
320
  8
0
 10
132.2876347110261
 20
194.7964618502948
 30
0.0
 40
0.8
 50
270.0
 51
0.0
  0
LINE
  5
321
  8
2
 10
129.08763471102611
 20
191.99646185029479
 30
0.0
 11
129.08763471102611
 21
192.69698985029481
 31
0.0
  0
LINE
  5
323
  8
0
 10
131.22745871102609
 20
193.99646185029479
 30
0.0
 11
131.01996876169881
 21
192.69698985029481
 31
0.0
  0
LINE
  5
324
  8
0
 10
132.2876347110261
 20
193.99646185029479
 30
0.0
 11
101.887634711026
 21
193.99646185029479
 31
0.0
  0
LINE
  5
325
  8
0
 10
132.2876347110261
 20
210.99646185029491
 30
0.0
 11
101.887634711026
 21
210.99646185029491
 31
0.0
  0
ARC
  5
326
  8
0
 10
132.2876347110261
 20
194.7964618502948
 30
0.0
 40
0.8
 50
270.0
 51
0.0
  0
ARC
  5
327
  8
0
 10
132.2876347110261
 20
210.1964618502949
 30
0.0
 40
0.8
 50
0.0
 51
90.0
  0
LINE
  5
328
  8
0
 10
133.08763471102611
 20
210.1964618502949
 30
0.0
 11
133.08763471102611
 21
194.7964618502948
 31
0.0
  0
LINE
  5
32A
  8
2
 10
121.0876347110261
 20
129.99646185029479
 30
0.0
 11
123.0876347110261
 21
131.99646185029479
 31
0.0
  0
LINE
  5
32B
  8
2
 10
122.2656347110261
 20
153.99646185029479
 30
0.0
 11
122.2656347110261
 21
131.17446185029479
 31
0.0
  0
LINE
  5
32C
  8
2
 10
111.9096347110261
 20
153.99646185029479
 30
0.0
 11
111.9096347110261
 21
131.17446185029479
 31
0.0
  0
LINE
  5
32D
  8
2
 10
113.0876347110261
 20
129.99646185029479
 30
0.0
 11
111.0876347110261
 21
131.99646185029479
 31
0.0
  0
LINE
  5
32E
  8
2
 10
129.58763471102611
 20
191.99646185029479
 30
0.0
 11
104.5876347110261
 21
191.99646185029479
 31
0.0
  0
LINE
  5
32F
  8
2
 10
105.5876347110261
 20
153.99646185029479
 30
0.0
 11
104.5876347110261
 21
154.99646185029479
 31
0.0
  0
LINE
  5
330
  8
2
 10
129.58763471102611
 20
154.99646185029479
 30
0.0
 11
128.58763471102611
 21
153.99646185029479
 31
0.0
  0
ARC
  5
331
  8
0
 10
129.48763471102609
 20
193.59646185029479
 30
0.0
 40
0.4
 50
90.0
 51
180.0
  0
ARC
  5
332
  8
0
 10
104.68763471102611
 20
193.59646185029479
 30
0.0
 40
0.4
 50
0.0
 51
90.0
  0
ARC
  5
333
  8
0
 10
101.887634711026
 20
194.7964618502948
 30
0.0
 40
0.8
 50
180.0
 51
270.0
  0
ARC
  5
334
  8
0
 10
101.887634711026
 20
210.1964618502949
 30
0.0
 40
0.8
 50
90.0
 51
180.0
  0
LINE
  5
335
  8
0
 10
129.08763471102611
 20
192.69698985029481
 30
0.0
 11
129.08763471102611
 21
193.59646185029479
 31
0.0
  0
LINE
  5
337
  8
2
 10
129.58763471102611
 20
154.99646185029479
 30
0.0
 11
129.58763471102611
 21
191.99646185029479
 31
0.0
  0
LINE
  5
338
  8
2
 10
104.5876347110261
 20
191.99646185029479
 30
0.0
 11
104.5876347110261
 21
154.99646185029479
 31
0.0
  0
LINE
  5
33A
  8
0
 10
105.0876347110261
 20
193.59646185029479
 30
0.0
 11
105.0876347110261
 21
192.69698985029481
 31
0.0
  0
LINE
  5
33B
  8
0
 10
101.0876347110261
 20
210.1964618502949
 30
0.0
 11
101.0876347110261
 21
194.7964618502948
 31
0.0
  0
LINE
  5
33C
  8
0
 10
126.0876347110261
 20
210.99646185029491
 30
0.0
 11
126.0876347110261
 21
221.19646185029481
 31
0.0
  0
LINE
  5
33D
  8
0
 10
126.0876347110261
 20
221.19646185029481
 30
0.0
 11
124.70199371102611
 21
221.99646185029479
 31
0.0
  0
LINE
  5
33E
  8
0
 10
108.0876347110261
 20
221.19646185029481
 30
0.0
 11
109.47327571102601
 21
221.99646185029479
 31
0.0
  0
LINE
  5
33F
  8
0
 10
108.0876347110261
 20
210.99646185029491
 30
0.0
 11
108.0876347110261
 21
221.19646185029481
 31
0.0
  0
LINE
  5
341
  8
2
 10
123.0876347110261
 20
131.99646185029479
 30
0.0
 11
123.0876347110261
 21
153.99646185029479
 31
0.0
  0
LINE
  5
342
  8
2
 10
111.0876347110261
 20
131.99646185029479
 30
0.0
 11
111.0876347110261
 21
153.99646185029479
 31
0.0
  0
LINE
  5
343
  8
2
 10
121.0876347110261
 20
129.99646185029479
 30
0.0
 11
113.0876347110261
 21
129.99646185029479
 31
0.0
  0
LINE
  5
344
  8
2
 10
123.0876347110261
 20
131.99646185029479
 30
0.0
 11
111.0876347110261
 21
131.99646185029479
 31
0.0
  0
LINE
  5
345
  8
2
 10
129.58763471102611
 20
154.99646185029479
 30
0.0
 11
104.5876347110261
 21
154.99646185029479
 31
0.0
  0
LINE
  5
346
  8
2
 10
128.58763471102611
 20
153.99646185029479
 30
0.0
 11
105.5876347110261
 21
153.99646185029479
 31
0.0
  0
LINE
  5
347
  8
0
 10
126.0876347110261
 20
221.19646185029481
 30
0.0
 11
108.0876347110261
 21
221.19646185029481
 31
0.0
  0
LINE
  5
348
  8
0
 10
124.70199371102611
 20
221.99646185029479
 30
0.0
 11
109.47327571102601
 21
221.99646185029479
 31
0.0
  0
LINE
  5
349
  8
1
 10
117.0876347110261
 20
231.99646185029479
 30
0.0
 11
117.0876347110261
 21
52.696989850294848
 31
0.0
  0
LINE
  5
34A
  8
0
 10
401.229363711026
 20
204.29984685029481
 30
0.0
 11
407.2876347110261
 21
210.1964618502949
 31
0.0
  0
LINE
  5
34B
  8
0
 10
382.94590571102623
 20
204.29984685029481
 30
0.0
 11
376.88763471102612
 21
210.1964618502949
 31
0.0
  0
ARC
  5
34C
  8
0
 10
383.74590571102613
 20
203.4998468502948
 30
0.0
 40
0.8
 50
90.0
 51
180.0
  0
ARC
  5
34D
  8
0
 10
400.4293637110261
 20
203.4998468502948
 30
0.0
 40
0.8
 50
0.0
 51
90.0
  0
ARC
  5
34E
  8
0
 10
400.4293637110261
 20
193.1886208502948
 30
0.0
 40
0.8
 50
270.0
 51
0.0
  0
ARC
  5
34F
  8
0
 10
383.74590571102613
 20
193.1886208502948
 30
0.0
 40
0.8
 50
180.0
 51
270.0
  0
LINE
  5
350
  8
0
 10
400.4293637110261
 20
204.29984685029481
 30
0.0
 11
383.74590571102613
 21
204.29984685029481
 31
0.0
  0
LINE
  5
351
  8
0
 10
401.229363711026
 20
193.1886208502948
 30
0.0
 11
401.229363711026
 21
203.4998468502948
 31
0.0
  0
LINE
  5
352
  8
0
 10
382.94590571102623
 20
203.4998468502948
 30
0.0
 11
382.94590571102623
 21
193.1886208502948
 31
0.0
  0
LINE
  5
353
  8
2
 10
404.087634711026
 20
192.38862085029481
 30
0.0
 11
404.087634711026
 21
191.99646185029479
 31
0.0
  0
LINE
  5
354
  8
0
 10
406.22745871102609
 20
193.99646185029479
 30
0.0
 11
407.2876347110261
 21
193.99646185029479
 31
0.0
  0
LINE
  5
355
  8
0
 10
378.20453871102609
 20
192.38862085029481
 30
0.0
 11
405.97073071102608
 21
192.38862085029481
 31
0.0
  0
LINE
  5
356
  8
0
 10
377.94781071102608
 20
193.99646185029479
 30
0.0
 11
378.20453871102609
 21
192.38862085029481
 31
0.0
  0
LINE
  5
357
  8
0
 10
406.22745871102609
 20
193.99646185029479
 30
0.0
 11
405.97073071102608
 21
192.38862085029481
 31
0.0
  0
LINE
  5
358
  8
1
 10
392.08763471102611
 20
231.99646185029479
 30
0.0
 11
392.08763471102611
 21
52.696989850294848
 31
0.0
  0
LINE
  5
359
  8
0
 10
384.47327571102608
 20
221.99646185029479
 30
0.0
 11
399.7019937110262
 21
221.99646185029479
 31
0.0
  0
LINE
  5
35A
  8
0
 10
383.087634711026
 20
221.19646185029481
 30
0.0
 11
401.087634711026
 21
221.19646185029481
 31
0.0
  0
LINE
  5
35B
  8
2
 10
380.58763471102611
 20
153.99646185029479
 30
0.0
 11
403.587634711026
 21
153.99646185029479
 31
0.0
  0
LINE
  5
35C
  8
2
 10
379.58763471102611
 20
154.99646185029479
 30
0.0
 11
404.587634711026
 21
154.99646185029479
 31
0.0
  0
LINE
  5
35D
  8
2
 10
386.08763471102611
 20
131.99646185029479
 30
0.0
 11
398.08763471102611
 21
131.99646185029479
 31
0.0
  0
LINE
  5
35E
  8
2
 10
388.08763471102611
 20
129.99646185029479
 30
0.0
 11
396.08763471102611
 21
129.99646185029479
 31
0.0
  0
LINE
  5
35F
  8
2
 10
398.08763471102611
 20
131.99646185029479
 30
0.0
 11
398.08763471102611
 21
153.99646185029479
 31
0.0
  0
LINE
  5
360
  8
2
 10
386.08763471102611
 20
131.99646185029479
 30
0.0
 11
386.08763471102611
 21
153.99646185029479
 31
0.0
  0
LINE
  5
362
  8
0
 10
401.087634711026
 20
210.99646185029491
 30
0.0
 11
401.087634711026
 21
221.19646185029481
 31
0.0
  0
LINE
  5
363
  8
0
 10
401.087634711026
 20
221.19646185029481
 30
0.0
 11
399.7019937110262
 21
221.99646185029479
 31
0.0
  0
LINE
  5
364
  8
0
 10
383.087634711026
 20
221.19646185029481
 30
0.0
 11
384.47327571102608
 21
221.99646185029479
 31
0.0
  0
LINE
  5
365
  8
0
 10
383.087634711026
 20
210.99646185029491
 30
0.0
 11
383.087634711026
 21
221.19646185029481
 31
0.0
  0
LINE
  5
366
  8
0
 10
408.087634711026
 20
210.1964618502949
 30
0.0
 11
408.087634711026
 21
194.7964618502948
 31
0.0
  0
LINE
  5
368
  8
2
 10
404.587634711026
 20
191.99646185029479
 30
0.0
 11
404.587634711026
 21
154.99646185029479
 31
0.0
  0
LINE
  5
369
  8
2
 10
379.58763471102611
 20
154.99646185029479
 30
0.0
 11
379.58763471102611
 21
191.99646185029479
 31
0.0
  0
LINE
  5
36B
  8
2
 10
380.08763471102611
 20
191.99646185029479
 30
0.0
 11
380.08763471102611
 21
192.38862085029481
 31
0.0
  0
ARC
  5
36C
  8
0
 10
407.2876347110261
 20
210.1964618502949
 30
0.0
 40
0.8
 50
0.0
 51
90.0
  0
ARC
  5
36D
  8
0
 10
407.2876347110261
 20
194.7964618502948
 30
0.0
 40
0.8
 50
270.0
 51
0.0
  0
LINE
  5
36E
  8
2
 10
379.58763471102611
 20
154.99646185029479
 30
0.0
 11
380.58763471102611
 21
153.99646185029479
 31
0.0
  0
LINE
  5
36F
  8
2
 10
403.587634711026
 20
153.99646185029479
 30
0.0
 11
404.587634711026
 21
154.99646185029479
 31
0.0
  0
LINE
  5
370
  8
2
 10
379.58763471102611
 20
191.99646185029479
 30
0.0
 11
404.587634711026
 21
191.99646185029479
 31
0.0
  0
LINE
  5
371
  8
2
 10
396.08763471102611
 20
129.99646185029479
 30
0.0
 11
398.08763471102611
 21
131.99646185029479
 31
0.0
  0
LINE
  5
372
  8
2
 10
397.26563471102611
 20
153.99646185029479
 30
0.0
 11
397.26563471102611
 21
131.17446185029479
 31
0.0
  0
LINE
  5
373
  8
2
 10
386.90963471102611
 20
153.99646185029479
 30
0.0
 11
386.90963471102611
 21
131.17446185029479
 31
0.0
  0
LINE
  5
374
  8
2
 10
388.08763471102611
 20
129.99646185029479
 30
0.0
 11
386.08763471102611
 21
131.99646185029479
 31
0.0
  0
LINE
  5
376
  8
0
 10
376.08763471102611
 20
210.1964618502949
 30
0.0
 11
376.08763471102611
 21
194.7964618502948
 31
0.0
  0
ARC
  5
377
  8
0
 10
376.88763471102612
 20
210.1964618502949
 30
0.0
 40
0.8
 50
90.0
 51
180.0
  0
ARC
  5
378
  8
0
 10
376.88763471102612
 20
194.7964618502948
 30
0.0
 40
0.8
 50
180.0
 51
270.0
  0
LINE
  5
379
  8
0
 10
376.88763471102612
 20
210.99646185029491
 30
0.0
 11
407.2876347110261
 21
210.99646185029491
 31
0.0
  0
LINE
  5
37A
  8
0
 10
376.88763471102612
 20
193.99646185029479
 30
0.0
 11
377.94781071102608
 21
193.99646185029479
 31
0.0
  0
CIRCLE
  5
37B
  8
0
 10
252.08763471102611
 20
312.69698985029481
 30
0.0
 40
9.0
  0
LINE
  5
37D
  8
0
 10
254.97438571102609
 20
317.69698985029481
 30
0.0
 11
249.20088371102611
 21
317.69698985029481
 31
0.0
  0
LINE
  5
37E
  8
0
 10
249.20088371102611
 20
317.69698985029481
 30
0.0
 11
246.31413171102611
 21
312.69698985029481
 31
0.0
  0
LINE
  5
37F
  8
0
 10
246.31413171102611
 20
312.69698985029481
 30
0.0
 11
249.20088371102611
 21
307.69698985029481
 31
0.0
  0
LINE
  5
380
  8
0
 10
249.20088371102611
 20
307.69698985029481
 30
0.0
 11
254.97438571102609
 21
307.69698985029481
 31
0.0
  0
LINE
  5
381
  8
0
 10
254.97438571102609
 20
307.69698985029481
 30
0.0
 11
257.86113771102612
 21
312.69698985029481
 31
0.0
  0
LINE
  5
382
  8
0
 10
257.86113771102612
 20
312.69698985029481
 30
0.0
 11
254.97438571102609
 21
317.69698985029481
 31
0.0
  0
LINE
  5
384
  8
0
 10
310.29743871102607
 20
303.53547085029481
 30
0.0
 11
264.38881971102609
 21
296.86333785029478
 31
0.0
  0
ARC
  5
385
  8
0
 10
310.08170271102608
 20
305.0198758502948
 30
0.0
 40
1.5
 50
278.26918999999941
 51
352.45916799999918
  0
ARC
  5
386
  8
0
 10
252.08763471102611
 20
312.69698985029481
 30
0.0
 40
60.0
 50
352.46985800000022
 51
7.5408320000003091
  0
LINE
  5
387
  8
0
 10
310.29743871102607
 20
321.85850885029481
 30
0.0
 11
264.38881971102609
 21
328.53064185029478
 31
0.0
  0
ARC
  5
388
  8
0
 10
310.08170271102608
 20
320.37410385029477
 30
0.0
 40
1.5
 50
7.5408320000007212
 51
81.730810000000531
  0
ARC
  5
389
  8
0
 10
262.087634711026
 20
312.69698985029481
 30
0.0
 40
16.0
 50
270.0
 51
90.0
  0
LINE
  5
38A
  8
0
 10
252.08763471102611
 20
296.69698985029481
 30
0.0
 11
262.087634711026
 21
296.69698985029481
 31
0.0
  0
LINE
  5
38B
  8
0
 10
252.08763471102611
 20
328.69698985029481
 30
0.0
 11
262.087634711026
 21
328.69698985029481
 31
0.0
  0
ARC
  5
38C
  8
0
 10
252.08763471102611
 20
312.69698985029481
 30
0.0
 40
16.0
 50
90.0
 51
270.0
  0
CIRCLE
  5
38D
  8
0
 10
252.08763471102611
 20
312.69698985029481
 30
0.0
 40
10.0
  0
CIRCLE
  5
38F
  8
0
 10
298.087634711026
 20
312.69698985029481
 30
0.0
 40
5.0
  0
CIRCLE
  5
390
  8
3
 10
298.087634711026
 20
312.69698985029481
 30
0.0
 40
6.0
  0
LINE
  5
391
  8
1
 10
298.087634711026
 20
302.69698985029481
 30
0.0
 11
298.087634711026
 21
322.69698985029481
 31
0.0
  0
LINE
  5
392
  8
1
 10
298.087634711026
 20
187.99646185029479
 30
0.0
 11
298.087634711026
 21
212.45982485029481
 31
0.0
  0
ARC
  5
393
  8
0
 10
277.1148377110261
 20
200.99646185029479
 30
0.0
 40
10.0
 50
80.020700999997047
 51
90.0
  0
ARC
  5
394
  8
0
 10
310.58763471102611
 20
203.7373508502948
 30
0.0
 40
1.5
 50
0.0
 51
80.020700999997047
  0
ARC
  5
395
  8
0
 10
310.58763471102611
 20
194.49646185029479
 30
0.0
 40
1.5
 50
270.0
 51
0.0
  0
LINE
  5
396
  8
0
 10
272.61520671102608
 20
193.99646185029479
 30
0.0
 11
273.66533271102611
 21
192.99646185029479
 31
0.0
  0
LINE
  5
397
  8
0
 10
310.8475737110262
 20
205.2146558502948
 30
0.0
 11
278.84776171102601
 21
210.8451658502949
 31
0.0
  0
LINE
  5
398
  8
0
 10
312.087634711026
 20
194.49646185029479
 30
0.0
 11
312.087634711026
 21
203.7373508502948
 31
0.0
  0
LINE
  5
399
  8
1
 10
252.08763471102611
 20
231.99646185029479
 30
0.0
 11
252.08763471102611
 21
52.696989850294848
 31
0.0
  0
LINE
  5
39A
  8
0
 10
259.70199371102609
 20
221.99646185029479
 30
0.0
 11
244.4732757110261
 21
221.99646185029479
 31
0.0
  0
LINE
  5
39B
  8
0
 10
261.08763471102611
 20
221.19646185029481
 30
0.0
 11
243.08763471102611
 21
221.19646185029481
 31
0.0
  0
LINE
  5
39C
  8
0
 10
277.1148377110261
 20
210.99646185029491
 30
0.0
 11
236.8876347110261
 21
210.99646185029491
 31
0.0
  0
LINE
  5
39D
  8
0
 10
272.61520671102608
 20
193.99646185029479
 30
0.0
 11
236.8876347110261
 21
193.99646185029479
 31
0.0
  0
LINE
  5
39E
  8
2
 10
263.58763471102611
 20
153.99646185029479
 30
0.0
 11
240.58763471102611
 21
153.99646185029479
 31
0.0
  0
LINE
  5
39F
  8
2
 10
264.587634711026
 20
154.99646185029479
 30
0.0
 11
239.58763471102611
 21
154.99646185029479
 31
0.0
  0
LINE
  5
3A0
  8
2
 10
258.087634711026
 20
131.99646185029479
 30
0.0
 11
246.08763471102611
 21
131.99646185029479
 31
0.0
  0
LINE
  5
3A1
  8
2
 10
256.087634711026
 20
129.99646185029479
 30
0.0
 11
248.08763471102611
 21
129.99646185029479
 31
0.0
  0
LINE
  5
3A2
  8
2
 10
246.08763471102611
 20
131.99646185029479
 30
0.0
 11
246.08763471102611
 21
153.99646185029479
 31
0.0
  0
LINE
  5
3A3
  8
2
 10
258.087634711026
 20
131.99646185029479
 30
0.0
 11
258.087634711026
 21
153.99646185029479
 31
0.0
  0
LINE
  5
3A5
  8
0
 10
273.66533271102611
 20
192.99646185029479
 30
0.0
 11
310.58763471102611
 21
192.99646185029479
 31
0.0
  0
LINE
  5
3A6
  8
0
 10
243.08763471102611
 20
210.99646185029491
 30
0.0
 11
243.08763471102611
 21
221.19646185029481
 31
0.0
  0
LINE
  5
3A7
  8
0
 10
243.08763471102611
 20
221.19646185029481
 30
0.0
 11
244.4732757110261
 21
221.99646185029479
 31
0.0
  0
LINE
  5
3A8
  8
0
 10
261.08763471102611
 20
221.19646185029481
 30
0.0
 11
259.70199371102609
 21
221.99646185029479
 31
0.0
  0
LINE
  5
3A9
  8
0
 10
261.08763471102611
 20
210.99646185029491
 30
0.0
 11
261.08763471102611
 21
221.19646185029481
 31
0.0
  0
LINE
  5
3AA
  8
0
 10
236.08763471102611
 20
210.1964618502949
 30
0.0
 11
236.08763471102611
 21
194.7964618502948
 31
0.0
  0
LINE
  5
3AB
  8
0
 10
240.08763471102611
 20
193.59646185029479
 30
0.0
 11
240.08763471102611
 21
192.69698985029481
 31
0.0
  0
LINE
  5
3AD
  8
2
 10
239.58763471102611
 20
191.99646185029479
 30
0.0
 11
239.58763471102611
 21
154.99646185029479
 31
0.0
  0
LINE
  5
3AE
  8
2
 10
264.587634711026
 20
154.99646185029479
 30
0.0
 11
264.587634711026
 21
191.99646185029479
 31
0.0
  0
LINE
  5
3B0
  8
0
 10
264.087634711026
 20
192.69698985029481
 30
0.0
 11
264.087634711026
 21
193.59646185029479
 31
0.0
  0
ARC
  5
3B1
  8
0
 10
236.8876347110261
 20
210.1964618502949
 30
0.0
 40
0.8
 50
90.0
 51
180.0
  0
ARC
  5
3B2
  8
0
 10
236.8876347110261
 20
194.7964618502948
 30
0.0
 40
0.8
 50
180.0
 51
270.0
  0
ARC
  5
3B3
  8
0
 10
239.68763471102611
 20
193.59646185029479
 30
0.0
 40
0.4
 50
0.0
 51
90.0
  0
ARC
  5
3B4
  8
0
 10
264.48763471102609
 20
193.59646185029479
 30
0.0
 40
0.4
 50
90.0
 51
180.0
  0
LINE
  5
3B5
  8
2
 10
264.587634711026
 20
154.99646185029479
 30
0.0
 11
263.58763471102611
 21
153.99646185029479
 31
0.0
  0
LINE
  5
3B6
  8
2
 10
240.58763471102611
 20
153.99646185029479
 30
0.0
 11
239.58763471102611
 21
154.99646185029479
 31
0.0
  0
LINE
  5
3B7
  8
2
 10
264.587634711026
 20
191.99646185029479
 30
0.0
 11
239.58763471102611
 21
191.99646185029479
 31
0.0
  0
LINE
  5
3B8
  8
2
 10
248.08763471102611
 20
129.99646185029479
 30
0.0
 11
246.08763471102611
 21
131.99646185029479
 31
0.0
  0
LINE
  5
3B9
  8
2
 10
246.90963471102609
 20
153.99646185029479
 30
0.0
 11
246.90963471102609
 21
131.17446185029479
 31
0.0
  0
LINE
  5
3BA
  8
2
 10
257.265634711026
 20
153.99646185029479
 30
0.0
 11
257.265634711026
 21
131.17446185029479
 31
0.0
  0
LINE
  5
3BB
  8
2
 10
256.087634711026
 20
129.99646185029479
 30
0.0
 11
258.087634711026
 21
131.99646185029479
 31
0.0
  0
ARC
  5
3BC
  8
0
 10
257.18763471102608
 20
92.296989850294793
 30
0.0
 40
0.4
 50
90.0
 51
180.0
  0
LINE
  5
3BD
  8
0
 10
271.08763471102611
 20
92.696989850294798
 30
0.0
 11
272.08763471102611
 21
93.696989850294784
 31
0.0
  0
ARC
  5
3BE
  8
0
 10
246.98763471102609
 20
92.296989850294793
 30
0.0
 40
0.4
 50
0.0
 51
90.0
  0
LINE
  5
3BF
  8
0
 10
233.08763471102611
 20
92.696989850294798
 30
0.0
 11
232.08763471102611
 21
93.696989850294784
 31
0.0
  0
LINE
  5
3C0
  8
0
 10
233.08763471102611
 20
92.696989850294798
 30
0.0
 11
271.08763471102611
 21
92.696989850294798
 31
0.0
  0
LINE
  5
3C1
  8
0
 10
232.1402787110261
 20
122.6969898502948
 30
0.0
 11
232.1402787110261
 21
102.6969898502948
 31
0.0
  0
LINE
  5
3C2
  8
0
 10
240.85807671102609
 20
122.6969898502948
 30
0.0
 11
240.85807671102609
 21
102.6969898502948
 31
0.0
  0
LINE
  5
3C3
  8
0
 10
243.36983671102601
 20
122.6969898502948
 30
0.0
 11
243.36983671102601
 21
102.6969898502948
 31
0.0
  0
LINE
  5
3C4
  8
0
 10
260.80543271102613
 20
122.6969898502948
 30
0.0
 11
260.80543271102613
 21
102.6969898502948
 31
0.0
  0
LINE
  5
3C5
  8
0
 10
260.80543271102613
 20
122.6969898502948
 30
0.0
 11
243.36983671102601
 21
122.6969898502948
 31
0.0
  0
LINE
  5
3C6
  8
0
 10
260.80543271102613
 20
102.6969898502948
 30
0.0
 11
243.36983671102601
 21
102.6969898502948
 31
0.0
  0
ARC
  5
3C7
  8
0
 10
252.08763471102611
 20
90.365374850294799
 30
0.0
 40
33.486316000000002
 50
74.909815000002268
 51
105.0901849999977
  0
ARC
  5
3C8
  8
0
 10
252.08763471102611
 20
135.02860485029481
 30
0.0
 40
33.486316000000002
 50
254.9098150000022
 51
285.09018499999769
  0
ARC
  5
3C9
  8
0
 10
236.49917771102611
 20
110.3468808502948
 30
0.0
 40
8.8045919999999978
 50
240.32555999999789
 51
299.67444000000211
  0
ARC
  5
3CA
  8
0
 10
236.49917771102611
 20
115.0470988502948
 30
0.0
 40
8.8045919999999978
 50
60.32555999999785
 51
119.67444000000199
  0
LINE
  5
3CB
  8
0
 10
240.85807671102609
 20
102.6969898502948
 30
0.0
 11
232.1402787110261
 21
102.6969898502948
 31
0.0
  0
LINE
  5
3CC
  8
0
 10
240.85807671102609
 20
122.6969898502948
 30
0.0
 11
232.1402787110261
 21
122.6969898502948
 31
0.0
  0
LINE
  5
3CD
  8
0
 10
263.317192711026
 20
122.6969898502948
 30
0.0
 11
272.03499071102613
 21
122.6969898502948
 31
0.0
  0
LINE
  5
3CE
  8
0
 10
263.317192711026
 20
102.6969898502948
 30
0.0
 11
272.03499071102613
 21
102.6969898502948
 31
0.0
  0
ARC
  5
3CF
  8
0
 10
267.67609171102612
 20
115.0470988502948
 30
0.0
 40
8.8045919999999978
 50
60.32555999999785
 51
119.67444000000199
  0
ARC
  5
3D0
  8
0
 10
267.67609171102612
 20
110.3468808502948
 30
0.0
 40
8.8045919999999978
 50
240.32555999999789
 51
299.67444000000211
  0
LINE
  5
3D1
  8
0
 10
263.317192711026
 20
122.6969898502948
 30
0.0
 11
263.317192711026
 21
102.6969898502948
 31
0.0
  0
LINE
  5
3D2
  8
0
 10
272.03499071102613
 20
122.6969898502948
 30
0.0
 11
272.03499071102613
 21
102.6969898502948
 31
0.0
  0
LINE
  5
3D3
  8
3
 10
257.14063471102611
 20
89.19976085029478
 30
0.0
 11
257.14063471102611
 21
63.74998985029481
 31
0.0
  0
LINE
  5
3D4
  8
3
 10
247.03463471102609
 20
89.19976085029478
 30
0.0
 11
247.03463471102609
 21
63.74998985029481
 31
0.0
  0
LINE
  5
3D5
  8
0
 10
256.7876347110261
 20
92.296989850294793
 30
0.0
 11
256.7876347110261
 21
89.596989850294804
 31
0.0
  0
LINE
  5
3D6
  8
0
 10
258.087634711026
 20
89.196989850294827
 30
0.0
 11
258.087634711026
 21
64.696989850294813
 31
0.0
  0
LINE
  5
3D7
  8
0
 10
258.087634711026
 20
64.696989850294813
 30
0.0
 11
256.087634711026
 21
62.696989850294813
 31
0.0
  0
ARC
  5
3D8
  8
0
 10
257.18763471102608
 20
89.596989850294804
 30
0.0
 40
0.4
 50
180.0
 51
270.0
  0
LINE
  5
3D9
  8
0
 10
258.087634711026
 20
89.196989850294827
 30
0.0
 11
257.77513471102611
 21
89.196989850294827
 31
0.0
  0
LINE
  5
3DA
  8
0
 10
248.08763471102611
 20
62.696989850294813
 30
0.0
 11
256.087634711026
 21
62.696989850294813
 31
0.0
  0
LINE
  5
3DB
  8
0
 10
246.08763471102611
 20
64.696989850294813
 30
0.0
 11
258.087634711026
 21
64.696989850294813
 31
0.0
  0
LINE
  5
3DC
  8
0
 10
246.08763471102611
 20
89.196989850294827
 30
0.0
 11
258.087634711026
 21
89.196989850294827
 31
0.0
  0
LINE
  5
3DD
  8
0
 10
272.08763471102611
 20
191.69698985029481
 30
0.0
 11
272.08763471102611
 21
93.696989850294784
 31
0.0
  0
LINE
  5
3DE
  8
0
 10
271.08763471102611
 20
192.69698985029481
 30
0.0
 11
272.08763471102611
 21
191.69698985029481
 31
0.0
  0
ARC
  5
3DF
  8
0
 10
246.98763471102609
 20
89.596989850294804
 30
0.0
 40
0.4
 50
270.0
 51
0.0
  0
LINE
  5
3E0
  8
0
 10
246.08763471102611
 20
64.696989850294813
 30
0.0
 11
248.08763471102611
 21
62.696989850294813
 31
0.0
  0
LINE
  5
3E1
  8
0
 10
233.08763471102611
 20
192.69698985029481
 30
0.0
 11
232.08763471102611
 21
191.69698985029481
 31
0.0
  0
LINE
  5
3E2
  8
0
 10
246.08763471102611
 20
89.196989850294827
 30
0.0
 11
246.08763471102611
 21
64.696989850294813
 31
0.0
  0
LINE
  5
3E3
  8
0
 10
247.3876347110261
 20
92.296989850294793
 30
0.0
 11
247.3876347110261
 21
89.596989850294804
 31
0.0
  0
LINE
  5
3E4
  8
0
 10
232.08763471102611
 20
191.69698985029481
 30
0.0
 11
232.08763471102611
 21
93.696989850294784
 31
0.0
  0
LINE
  5
3E5
  8
0
 10
271.08763471102611
 20
192.69698985029481
 30
0.0
 11
233.08763471102611
 21
192.69698985029481
 31
0.0
  0
LINE
  5
41D
  8
0
 10
378.15530066035308
 20
192.69698985029481
 30
0.0
 11
373.08763471102611
 21
192.69698985029481
 31
0.0
  0
LINE
  5
426
  8
2
 10
264.087634711026
 20
192.69698985029481
 30
0.0
 11
264.087634711026
 21
191.99646185029479
 31
0.0
  0
LINE
  5
427
  8
2
 10
240.08763471102611
 20
192.69698985029481
 30
0.0
 11
240.08763471102611
 21
191.99646185029479
 31
0.0
  0
LINE
  5
428
  8
2
 10
105.0876347110261
 20
192.69698985029481
 30
0.0
 11
105.0876347110261
 21
191.99646185029479
 31
0.0
  0
TEXT
  5
5C6
  8
0
 62
     3
 10
0.0
 20
0.0
 30
0.0
 40
10.0
  1
BJ130-12160A2
  7
STANDARD1
  0
ENDSEC
  0
EOF
