  0
SECTION
  2
HEADER
  9
$ACADVER
  1
AC1009
  9
$INSBASE
 10
0.0
 20
0.0
 30
0.0
  9
$EXTMIN
 10
0.0
 20
-2.960436562073669
 30
0.0
  9
$EXTMAX
 10
391.36099844848218
 20
382.59783129968008
 30
0.0
  9
$LIMMIN
 10
0.0
 20
0.0
  9
$LIMMAX
 10
780.0
 20
540.0
  9
$ORTHOMODE
 70
     1
  9
$REGENMODE
 70
     1
  9
$FILLMODE
 70
     1
  9
$QTEXTMODE
 70
     0
  9
$MIRRTEXT
 70
     0
  9
$DRAGMODE
 70
     2
  9
$LTSCALE
 40
20.0
  9
$OSMODE
 70
  3071
  9
$ATTMODE
 70
     1
  9
$TEXTSIZE
 40
0.2
  9
$TRACEWID
 40
0.05
  9
$TEXTSTYLE
  7
STANDARD
  9
$CLAYER
  8
0
  9
$CELTYPE
  6
BYLAYER
  9
$CECOLOR
 62
   256
  9
$DIMSCALE
 40
2.0
  9
$DIMASZ
 40
3.0
  9
$DIMEXO
 40
2.0
  9
$DIMDLI
 40
0.38
  9
$DIMRND
 40
0.0
  9
$DIMDLE
 40
0.0
  9
$DIMEXE
 40
2.0
  9
$DIMTP
 40
0.0
  9
$DIMTM
 40
0.0
  9
$DIMTXT
 40
3.0
  9
$DIMCEN
 40
0.0
  9
$DIMTSZ
 40
0.0
  9
$DIMTOL
 70
     0
  9
$DIMLIM
 70
     0
  9
$DIMTIH
 70
     0
  9
$DIMTOH
 70
     0
  9
$DIMSE1
 70
     0
  9
$DIMSE2
 70
     0
  9
$DIMTAD
 70
     1
  9
$DIMZIN
 70
     0
  9
$DIMBLK
  1

  9
$DIMASO
 70
     0
  9
$DIMSHO
 70
     0
  9
$DIMPOST
  1

  9
$DIMAPOST
  1

  9
$DIMALT
 70
     0
  9
$DIMALTD
 70
     2
  9
$DIMALTF
 40
25.399999999999999
  9
$DIMLFAC
 40
1.0
  9
$DIMTOFL
 70
     1
  9
$DIMTVP
 40
1.6000000000000001
  9
$DIMTIX
 70
     1
  9
$DIMSOXD
 70
     0
  9
$DIMSAH
 70
     0
  9
$DIMBLK1
  1

  9
$DIMBLK2
  1

  9
$DIMSTYLE
  2
STANDARD
  9
$DIMCLRD
 70
     0
  9
$DIMCLRE
 70
     0
  9
$DIMCLRT
 70
     0
  9
$DIMTFAC
 40
1.0
  9
$DIMGAP
 40
0.09
  9
$LUNITS
 70
     2
  9
$LUPREC
 70
     4
  9
$SKETCHINC
 40
0.1
  9
$FILLETRAD
 40
0.0
  9
$AUNITS
 70
     0
  9
$AUPREC
 70
     4
  9
$MENU
  1
E:\r13\win\SUPPORT\ACAD
  9
$ELEVATION
 40
0.0
  9
$PELEVATION
 40
0.0
  9
$THICKNESS
 40
0.0
  9
$LIMCHECK
 70
     0
  9
$BLIPMODE
 70
     0
  9
$CHAMFERA
 40
0.0
  9
$CHAMFERB
 40
0.0
  9
$SKPOLY
 70
     0
  9
$TDCREATE
 40
2449840.3505902779
  9
$TDUPDATE
 40
2456597.6209030212
  9
$TDINDWG
 40
0.0420872801
  9
$TDUSRTIMER
 40
2456517.1224196642
  9
$USRTIMER
 70
     1
  9
$ANGBASE
 50
0.0
  9
$ANGDIR
 70
     0
  9
$PDMODE
 70
     0
  9
$PDSIZE
 40
0.0
  9
$PLINEWID
 40
0.0
  9
$COORDS
 70
     1
  9
$SPLFRAME
 70
     0
  9
$SPLINETYPE
 70
     6
  9
$SPLINESEGS
 70
     8
  9
$ATTDIA
 70
     0
  9
$ATTREQ
 70
     1
  9
$HANDLING
 70
     1
  9
$HANDSEED
  5
62E
  9
$SURFTAB1
 70
     6
  9
$SURFTAB2
 70
     6
  9
$SURFTYPE
 70
     6
  9
$SURFU
 70
     6
  9
$SURFV
 70
     6
  9
$UCSNAME
  2

  9
$UCSORG
 10
0.0
 20
0.0
 30
0.0
  9
$UCSXDIR
 10
1.0
 20
0.0
 30
0.0
  9
$UCSYDIR
 10
0.0
 20
1.0
 30
0.0
  9
$PUCSNAME
  2

  9
$PUCSORG
 10
0.0
 20
0.0
 30
0.0
  9
$PUCSXDIR
 10
1.0
 20
0.0
 30
0.0
  9
$PUCSYDIR
 10
0.0
 20
1.0
 30
0.0
  9
$USERI1
 70
     3
  9
$USERI2
 70
     1
  9
$USERI3
 70
     0
  9
$USERI4
 70
     0
  9
$USERI5
 70
     0
  9
$USERR1
 40
2.0
  9
$USERR2
 40
3.0
  9
$USERR3
 40
3.0
  9
$USERR4
 40
3.0
  9
$USERR5
 40
10.0
  9
$WORLDVIEW
 70
     1
  9
$SHADEDGE
 70
     3
  9
$SHADEDIF
 70
    70
  9
$TILEMODE
 70
     1
  9
$MAXACTVP
 70
    16
  9
$PLIMCHECK
 70
     0
  9
$PEXTMIN
 10
1.0000000000000000E+020
 20
1.0000000000000000E+020
 30
1.0000000000000000E+020
  9
$PEXTMAX
 10
-1.0000000000000000E+020
 20
-1.0000000000000000E+020
 30
-1.0000000000000000E+020
  9
$PLIMMIN
 10
0.0
 20
0.0
  9
$PLIMMAX
 10
12.0
 20
9.0
  9
$UNITMODE
 70
     0
  9
$VISRETAIN
 70
     0
  9
$PLINEGEN
 70
     0
  9
$PSLTSCALE
 70
     0
  0
ENDSEC
  0
SECTION
  2
TABLES
  0
TABLE
  2
VPORT
 70
     1
  0
VPORT
  2
*ACTIVE
 70
     0
 10
0.0
 20
0.0
 11
1.0
 21
1.0
 12
389.988099052557
 22
383.6881458164155
 13
0.0
 23
0.0
 14
5.0
 24
5.0
 15
10.0
 25
10.0
 16
0.0
 26
0.0
 36
1.0
 17
0.0
 27
0.0
 37
0.0
 40
780.34809480459126
 41
1.831871345029239
 42
50.0
 43
0.0
 44
0.0
 50
0.0
 51
0.0
 71
    16
 72
   100
 73
     1
 74
     0
 75
     0
 76
     0
 77
     0
 78
     2
  0
ENDTAB
  0
TABLE
  2
LTYPE
 70
     4
  0
LTYPE
  2
CONTINUOUS
 70
     0
  3
Solid Line
 72
    65
 73
     0
 40
0.0
  0
LTYPE
  2
PHANTOM2
 70
     0
  3
___ _ _ ___ _ _ ___ _ _ ___ _ _
 72
    65
 73
     6
 40
1.25
 49
0.625
 49
-0.125
 49
0.125
 49
-0.125
 49
0.125
 49
-0.125
  0
LTYPE
  2
CENTER
 70
     0
  3
____ _ ____ _ ____ _ ____ _ ____ _ ____ _ ____
 72
    65
 73
     4
 40
2.0
 49
1.25
 49
-0.25
 49
0.25
 49
-0.25
  0
LTYPE
  2
HIDDEN
 70
     0
  3
_ _ _ _ _ _ _ _ _ _ _ _ _ _ _ _ _ _ _ _ _ _ _
 72
    65
 73
     2
 40
0.375
 49
0.25
 49
-0.125
  0
ENDTAB
  0
TABLE
  2
LAYER
 70
     4
  0
LAYER
  2
0
 70
     0
 62
     7
  6
CONTINUOUS
  0
LAYER
  2
1
 70
     0
 62
     1
  6
CENTER
  0
LAYER
  2
3
 70
     0
 62
     3
  6
CONTINUOUS
  0
LAYER
  2
2
 70
     0
 62
     2
  6
HIDDEN
  0
ENDTAB
  0
TABLE
  2
STYLE
 70
     3
  0
STYLE
  2
STANDARD
 70
     0
 40
0.0
 41
1.0
 50
0.0
 71
     0
 42
0.2
  3
TXT
  4
BIGFONT
  0
STYLE
  2
ANNOTATIVE
 70
     0
 40
0.0
 41
1.0
 50
0.0
 71
     0
 42
0.2
  3
txt
  4

  0
STYLE
  2
STANDARD1
 70
     0
 40
0.0
 41
1.0
 50
0.0
 71
     0
 42
3.0
  3
txt
  4

  0
ENDTAB
  0
TABLE
  2
VIEW
 70
     1
  0
VIEW
  2
ALL
 70
     0
 40
270.0
 10
220.99159700000001
 20
135.0
 41
0.0
 11
0.0
 21
0.0
 31
1.0
 12
0.0
 22
0.0
 32
0.0
 42
0.0
 43
0.0
 44
0.0
 50
0.0
 71
     0
  0
ENDTAB
  0
TABLE
  2
UCS
 70
     0
  0
ENDTAB
  0
TABLE
  2
APPID
 70
     5
  0
APPID
  2
ACAD
 70
     0
  0
APPID
  2
ACADANNOTATIVE
 70
     0
  0
APPID
  2
ACAD_MLEADERVER
 70
     0
  0
APPID
  2
ACAD_EXEMPT_FROM_CAD_STANDARDS
 70
     0
  0
APPID
  2
ACAD_NAV_VCDISPLAY
 70
     0
  0
ENDTAB
  0
TABLE
  2
DIMSTYLE
 70
     2
  0
DIMSTYLE
  2
STANDARD
 70
     0
  3

  4

  5

  6

  7

 40
1.0
 41
0.18
 42
0.0625
 43
0.38
 44
0.18
 45
0.0
 46
0.0
 47
0.0
 48
0.0
140
0.18
141
0.09
142
0.0
143
25.399999999999999
144
1.0
145
0.0
146
1.0
147
0.09
 71
     0
 72
     0
 73
     1
 74
     1
 75
     0
 76
     0
 77
     0
 78
     0
170
     0
171
     2
172
     0
173
     0
174
     0
175
     0
176
     0
177
     0
178
     0
  0
DIMSTYLE
  2
ANNOTATIVE
 70
     0
  3

  4

  5

  6

  7

 40
1.0
 41
0.18
 42
0.0625
 43
0.38
 44
0.18
 45
0.0
 46
0.0
 47
0.0
 48
0.0
140
0.18
141
0.09
142
0.0
143
25.399999999999999
144
1.0
145
0.0
146
1.0
147
0.09
 71
     0
 72
     0
 73
     1
 74
     1
 75
     0
 76
     0
 77
     0
 78
     0
170
     0
171
     2
172
     0
173
     0
174
     0
175
     0
176
     0
177
     0
178
     0
  0
ENDTAB
  0
ENDSEC
  0
SECTION
  2
BLOCKS
  0
BLOCK
  8
0
  2
$MODEL_SPACE
 70
     0
 10
0.0
 20
0.0
 30
0.0
  3
$MODEL_SPACE
  1

  0
ENDBLK
  5
560
  8
0
  0
BLOCK
 67
     1
  8
0
  2
$PAPER_SPACE
 70
     0
 10
0.0
 20
0.0
 30
0.0
  3
$PAPER_SPACE
  1

  0
ENDBLK
  5
55C
 67
     1
  8
0
  0
BLOCK
  8
0
  2
STDGX5
 70
     0
 10
0.0
 20
0.0
 30
0.0
  3
STDGX5
  1

  0
ENDBLK
  5
3D
  8
0
  0
ENDSEC
  0
SECTION
  2
ENTITIES
  0
INSERT
  5
14D
  8
0
  2
STDGX5
 10
0.0
 20
0.0
 30
0.0
  0
INSERT
  5
154
  8
0
  2
STDGX5
 10
0.0
 20
0.0
 30
0.0
  0
INSERT
  5
155
  8
0
  2
STDGX5
 10
0.0
 20
0.0
 30
0.0
  0
INSERT
  5
156
  8
0
  2
STDGX5
 10
0.0
 20
0.0
 30
0.0
  0
LINE
  5
28D
  8
1
 10
231.36099844848221
 20
312.59783129968008
 30
0.0
 11
231.36099844848221
 21
382.59783129968008
 31
0.0
  0
LINE
  5
28E
  8
1
 10
281.36099844848218
 20
347.59783129968008
 30
0.0
 11
196.36099844848221
 21
347.59783129968008
 31
0.0
  0
ARC
  5
292
  8
0
 10
231.36099844848221
 20
347.59783129968008
 30
0.0
 40
20.0
 50
42.47082235065529
 51
317.52917764934477
  0
ARC
  5
293
  8
0
 10
83.960998448482215
 20
228.4973032996802
 30
0.0
 40
0.4
 50
0.0
 51
90.0
  0
LINE
  5
294
  8
0
 10
84.360998448482206
 20
227.59783129968019
 30
0.0
 11
84.360998448482206
 21
228.4973032996802
 31
0.0
  0
LINE
  5
297
  8
0
 10
84.205457448482193
 20
228.8139102996802
 30
0.0
 11
84.360998448482206
 21
227.9632202996801
 31
0.0
  0
LINE
  5
298
  8
0
 10
108.51653944848211
 20
228.8139102996802
 30
0.0
 11
108.36099844848211
 21
227.9632202996801
 31
0.0
  0
LINE
  5
29B
  8
0
 10
111.5609984484821
 20
228.8973032996802
 30
0.0
 11
81.160998448482118
 21
228.8973032996802
 31
0.0
  0
ARC
  5
29C
  8
0
 10
111.5609984484821
 20
229.6973032996801
 30
0.0
 40
0.8
 50
270.0
 51
0.0
  0
ARC
  5
29D
  8
0
 10
111.5609984484821
 20
243.09730329968019
 30
0.0
 40
0.8
 50
0.0
 51
90.0
  0
LINE
  5
29E
  8
0
 10
112.36099844848211
 20
243.09730329968019
 30
0.0
 11
112.36099844848211
 21
229.6973032996801
 31
0.0
  0
LINE
  5
29F
  8
0
 10
87.36099844848215
 20
243.8973032996802
 30
0.0
 11
87.36099844848215
 21
254.09730329968011
 31
0.0
  0
LINE
  5
2A0
  8
0
 10
87.36099844848215
 20
254.09730329968011
 30
0.0
 11
88.746639448482114
 21
254.8973032996802
 31
0.0
  0
LINE
  5
2A1
  8
0
 10
105.36099844848221
 20
254.09730329968011
 30
0.0
 11
103.9753574484822
 21
254.8973032996802
 31
0.0
  0
LINE
  5
2A2
  8
0
 10
105.36099844848221
 20
243.8973032996802
 30
0.0
 11
105.36099844848221
 21
254.09730329968011
 31
0.0
  0
LINE
  5
2A4
  8
0
 10
80.360998448482192
 20
243.09730329968019
 30
0.0
 11
80.360998448482192
 21
229.6973032996801
 31
0.0
  0
LINE
  5
2A5
  8
2
 10
83.860998448482164
 20
226.8973032996802
 30
0.0
 11
83.860998448482164
 21
189.89730329968009
 31
0.0
  0
LINE
  5
2A6
  8
2
 10
108.86099844848221
 20
189.89730329968009
 30
0.0
 11
108.86099844848221
 21
226.8973032996802
 31
0.0
  0
LINE
  5
2A7
  8
0
 10
108.36099844848211
 20
227.59783129968019
 30
0.0
 11
108.36099844848211
 21
228.4973032996802
 31
0.0
  0
ARC
  5
2A8
  8
0
 10
81.160998448482118
 20
243.09730329968019
 30
0.0
 40
0.8
 50
90.0
 51
180.0
  0
ARC
  5
2A9
  8
0
 10
81.160998448482118
 20
229.6973032996801
 30
0.0
 40
0.8
 50
180.0
 51
270.0
  0
LINE
  5
2AA
  8
2
 10
108.86099844848221
 20
189.89730329968009
 30
0.0
 11
107.86099844848221
 21
188.89730329968009
 31
0.0
  0
LINE
  5
2AB
  8
2
 10
84.860998448482164
 20
188.89730329968009
 30
0.0
 11
83.860998448482164
 21
189.89730329968009
 31
0.0
  0
LINE
  5
2AC
  8
2
 10
90.360998448482192
 20
164.89730329968009
 30
0.0
 11
90.360998448482192
 21
188.89730329968009
 31
0.0
  0
LINE
  5
2AD
  8
2
 10
92.36099844848215
 20
162.89730329968009
 30
0.0
 11
90.360998448482192
 21
164.89730329968009
 31
0.0
  0
LINE
  5
2AE
  8
2
 10
91.182998448482195
 20
188.89730329968009
 30
0.0
 11
91.182998448482195
 21
164.07530329968009
 31
0.0
  0
LINE
  5
2AF
  8
2
 10
102.36099844848221
 20
164.89730329968009
 30
0.0
 11
102.36099844848221
 21
188.89730329968009
 31
0.0
  0
LINE
  5
2B0
  8
2
 10
101.5389984484821
 20
188.89730329968009
 30
0.0
 11
101.5389984484821
 21
164.07530329968009
 31
0.0
  0
LINE
  5
2B1
  8
2
 10
100.36099844848221
 20
162.89730329968009
 30
0.0
 11
102.36099844848221
 21
164.89730329968009
 31
0.0
  0
LINE
  5
2B2
  8
2
 10
100.36099844848221
 20
162.89730329968009
 30
0.0
 11
92.36099844848215
 21
162.89730329968009
 31
0.0
  0
LINE
  5
2B3
  8
2
 10
102.36099844848221
 20
164.89730329968009
 30
0.0
 11
90.360998448482192
 21
164.89730329968009
 31
0.0
  0
LINE
  5
2B4
  8
2
 10
108.86099844848221
 20
189.89730329968009
 30
0.0
 11
83.860998448482164
 21
189.89730329968009
 31
0.0
  0
LINE
  5
2B5
  8
2
 10
108.86099844848221
 20
226.8973032996802
 30
0.0
 11
83.860998448482164
 21
226.8973032996802
 31
0.0
  0
LINE
  5
2B6
  8
0
 10
111.5609984484821
 20
243.8973032996802
 30
0.0
 11
81.160998448482118
 21
243.8973032996802
 31
0.0
  0
LINE
  5
2B7
  8
0
 10
105.36099844848221
 20
254.09730329968011
 30
0.0
 11
87.36099844848215
 21
254.09730329968011
 31
0.0
  0
LINE
  5
2B8
  8
0
 10
103.9753574484822
 20
254.8973032996802
 30
0.0
 11
88.746639448482114
 21
254.8973032996802
 31
0.0
  0
LINE
  5
2B9
  8
2
 10
107.86099844848221
 20
188.89730329968009
 30
0.0
 11
84.860998448482164
 21
188.89730329968009
 31
0.0
  0
ARC
  5
2BA
  8
0
 10
108.7609984484821
 20
228.4973032996802
 30
0.0
 40
0.4
 50
90.0
 51
180.0
  0
LINE
  5
2BB
  8
1
 10
96.360998448482164
 20
264.89730329968012
 30
0.0
 11
96.360998448482164
 21
87.597831299680124
 31
0.0
  0
LINE
  5
2BC
  8
1
 10
371.36099844848218
 20
264.89730329968012
 30
0.0
 11
371.36099844848218
 21
87.597831299680124
 31
0.0
  0
LINE
  5
2BD
  8
0
 10
380.30386444848227
 20
237.46652229968021
 30
0.0
 11
386.56099844848228
 21
243.09730329968019
 31
0.0
  0
LINE
  5
2BE
  8
0
 10
362.4181324484822
 20
237.46652229968021
 30
0.0
 11
356.16099844848219
 21
243.09730329968019
 31
0.0
  0
ARC
  5
2BF
  8
0
 10
363.21813244848232
 20
236.66652229968011
 30
0.0
 40
0.8
 50
90.0
 51
180.0
  0
ARC
  5
2C0
  8
0
 10
379.5038644484822
 20
236.66652229968011
 30
0.0
 40
0.8
 50
0.0
 51
90.0
  0
ARC
  5
2C1
  8
0
 10
379.5038644484822
 20
228.39783129968021
 30
0.0
 40
0.8
 50
270.0
 51
0.0
  0
ARC
  5
2C2
  8
0
 10
363.21813244848232
 20
228.39783129968021
 30
0.0
 40
0.8
 50
180.0
 51
270.0
  0
LINE
  5
2C3
  8
0
 10
379.5038644484822
 20
237.46652229968021
 30
0.0
 11
363.21813244848232
 21
237.46652229968021
 31
0.0
  0
LINE
  5
2C4
  8
0
 10
380.30386444848227
 20
228.39783129968021
 30
0.0
 11
380.30386444848227
 21
236.66652229968011
 31
0.0
  0
LINE
  5
2C5
  8
0
 10
362.4181324484822
 20
236.66652229968011
 30
0.0
 11
362.4181324484822
 21
228.39783129968021
 31
0.0
  0
LINE
  5
2C6
  8
0
 10
383.53178744848219
 20
228.8973032996802
 30
0.0
 11
386.56099844848228
 21
228.8973032996802
 31
0.0
  0
ARC
  5
2C8
  8
0
 10
358.9609984484822
 20
228.4973032996802
 30
0.0
 40
0.4
 50
52.32749600000335
 51
90.0
  0
LINE
  5
2C9
  8
0
 10
359.36099844848218
 20
227.9632202996801
 30
0.0
 11
359.36099844848218
 21
227.59783129968019
 31
0.0
  0
LINE
  5
2CA
  8
0
 10
359.19020944848228
 20
228.8973032996802
 30
0.0
 11
359.42780644848227
 21
227.59783129968019
 31
0.0
  0
LINE
  5
2CB
  8
0
 10
383.53178744848219
 20
228.8973032996802
 30
0.0
 11
383.2941904484822
 21
227.59783129968019
 31
0.0
  0
LINE
  5
2CC
  8
0
 10
356.16099844848219
 20
228.8973032996802
 30
0.0
 11
359.19020944848228
 21
228.8973032996802
 31
0.0
  0
ARC
  5
2CD
  8
0
 10
356.16099844848219
 20
229.6973032996801
 30
0.0
 40
0.8
 50
180.0
 51
270.0
  0
ARC
  5
2CE
  8
0
 10
356.16099844848219
 20
243.09730329968019
 30
0.0
 40
0.8
 50
90.0
 51
180.0
  0
LINE
  5
2CF
  8
0
 10
355.36099844848218
 20
243.09730329968019
 30
0.0
 11
355.36099844848218
 21
229.6973032996801
 31
0.0
  0
LINE
  5
2D0
  8
0
 10
380.36099844848218
 20
243.8973032996802
 30
0.0
 11
380.36099844848218
 21
254.09730329968011
 31
0.0
  0
LINE
  5
2D1
  8
0
 10
380.36099844848218
 20
254.09730329968011
 30
0.0
 11
378.97535744848233
 21
254.8973032996802
 31
0.0
  0
LINE
  5
2D2
  8
0
 10
362.36099844848229
 20
254.09730329968011
 30
0.0
 11
363.7466394484822
 21
254.8973032996802
 31
0.0
  0
LINE
  5
2D3
  8
0
 10
362.36099844848229
 20
243.8973032996802
 30
0.0
 11
362.36099844848229
 21
254.09730329968011
 31
0.0
  0
LINE
  5
2D5
  8
0
 10
387.36099844848218
 20
243.09730329968019
 30
0.0
 11
387.36099844848218
 21
229.6973032996801
 31
0.0
  0
LINE
  5
2D6
  8
0
 10
383.36099844848229
 20
227.9632202996801
 30
0.0
 11
383.36099844848229
 21
227.59783129968019
 31
0.0
  0
LINE
  5
2D7
  8
2
 10
383.86099844848218
 20
226.8973032996802
 30
0.0
 11
383.86099844848218
 21
189.89730329968009
 31
0.0
  0
LINE
  5
2D8
  8
2
 10
358.86099844848218
 20
189.89730329968009
 30
0.0
 11
358.86099844848218
 21
226.8973032996802
 31
0.0
  0
ARC
  5
2D9
  8
0
 10
386.56099844848228
 20
243.09730329968019
 30
0.0
 40
0.8
 50
0.0
 51
90.0
  0
ARC
  5
2DA
  8
0
 10
386.56099844848228
 20
229.6973032996801
 30
0.0
 40
0.8
 50
270.0
 51
0.0
  0
LINE
  5
2DB
  8
2
 10
358.86099844848218
 20
189.89730329968009
 30
0.0
 11
359.86099844848218
 21
188.89730329968009
 31
0.0
  0
LINE
  5
2DC
  8
2
 10
382.86099844848218
 20
188.89730329968009
 30
0.0
 11
383.86099844848218
 21
189.89730329968009
 31
0.0
  0
LINE
  5
2DD
  8
2
 10
377.36099844848218
 20
164.89730329968009
 30
0.0
 11
377.36099844848218
 21
188.89730329968009
 31
0.0
  0
LINE
  5
2DE
  8
2
 10
375.36099844848218
 20
162.89730329968009
 30
0.0
 11
377.36099844848218
 21
164.89730329968009
 31
0.0
  0
LINE
  5
2DF
  8
2
 10
376.53899844848218
 20
188.89730329968009
 30
0.0
 11
376.53899844848218
 21
164.07530329968009
 31
0.0
  0
LINE
  5
2E0
  8
2
 10
365.36099844848218
 20
164.89730329968009
 30
0.0
 11
365.36099844848218
 21
188.89730329968009
 31
0.0
  0
LINE
  5
2E1
  8
2
 10
366.18299844848218
 20
188.89730329968009
 30
0.0
 11
366.18299844848218
 21
164.07530329968009
 31
0.0
  0
LINE
  5
2E2
  8
2
 10
367.36099844848218
 20
162.89730329968009
 30
0.0
 11
365.36099844848218
 21
164.89730329968009
 31
0.0
  0
LINE
  5
2E3
  8
2
 10
367.36099844848218
 20
162.89730329968009
 30
0.0
 11
375.36099844848218
 21
162.89730329968009
 31
0.0
  0
LINE
  5
2E4
  8
2
 10
365.36099844848218
 20
164.89730329968009
 30
0.0
 11
377.36099844848218
 21
164.89730329968009
 31
0.0
  0
LINE
  5
2E5
  8
2
 10
358.86099844848218
 20
189.89730329968009
 30
0.0
 11
383.86099844848218
 21
189.89730329968009
 31
0.0
  0
LINE
  5
2E6
  8
2
 10
358.86099844848218
 20
226.8973032996802
 30
0.0
 11
383.86099844848218
 21
226.8973032996802
 31
0.0
  0
LINE
  5
2E7
  8
0
 10
356.16099844848219
 20
243.8973032996802
 30
0.0
 11
386.56099844848228
 21
243.8973032996802
 31
0.0
  0
LINE
  5
2E8
  8
0
 10
362.36099844848229
 20
254.09730329968011
 30
0.0
 11
380.36099844848218
 21
254.09730329968011
 31
0.0
  0
LINE
  5
2E9
  8
0
 10
363.7466394484822
 20
254.8973032996802
 30
0.0
 11
378.97535744848233
 21
254.8973032996802
 31
0.0
  0
LINE
  5
2EA
  8
2
 10
359.86099844848218
 20
188.89730329968009
 30
0.0
 11
382.86099844848218
 21
188.89730329968009
 31
0.0
  0
ARC
  5
2EB
  8
0
 10
383.76099844848233
 20
228.4973032996802
 30
0.0
 40
0.4
 50
90.0
 51
127.6725040000015
  0
LINE
  5
2ED
  8
0
 10
115.36099844848211
 20
227.59783129968019
 30
0.0
 11
77.360998448482192
 21
227.59783129968019
 31
0.0
  0
LINE
  5
2EE
  8
0
 10
76.360998448482164
 20
226.59783129968011
 30
0.0
 11
76.360998448482164
 21
158.7525322996801
 31
0.0
  0
LINE
  5
2EF
  8
0
 10
78.360998448482164
 20
157.59783129968011
 30
0.0
 11
78.360998448482164
 21
137.59783129968011
 31
0.0
  0
LINE
  5
2F0
  8
0
 10
77.360998448482192
 20
127.5978312996801
 30
0.0
 11
115.36099844848211
 21
127.5978312996801
 31
0.0
  0
LINE
  5
2F1
  8
0
 10
91.660998448482133
 20
127.1978312996801
 30
0.0
 11
91.660998448482133
 21
124.4978312996801
 31
0.0
  0
LINE
  5
2F2
  8
0
 10
90.360998448482192
 20
124.0978312996801
 30
0.0
 11
90.360998448482192
 21
99.597831299680124
 31
0.0
  0
LINE
  5
2F3
  8
0
 10
77.360998448482192
 20
227.59783129968019
 30
0.0
 11
76.360998448482164
 21
226.59783129968011
 31
0.0
  0
LINE
  5
2F4
  8
0
 10
77.360998448482192
 20
127.5978312996801
 30
0.0
 11
76.360998448482164
 21
128.59783129968011
 31
0.0
  0
LINE
  5
2F5
  8
0
 10
90.360998448482192
 20
99.597831299680124
 30
0.0
 11
92.36099844848215
 21
97.597831299680124
 31
0.0
  0
ARC
  5
2F6
  8
0
 10
91.260998448482155
 20
124.4978312996801
 30
0.0
 40
0.4
 50
270.0
 51
0.0
  0
LINE
  5
2F7
  8
0
 10
78.360998448482164
 20
137.59783129968011
 30
0.0
 11
76.360998448482164
 21
136.44313029968009
 31
0.0
  0
LINE
  5
2F8
  8
0
 10
76.360998448482164
 20
136.44313029968009
 30
0.0
 11
76.360998448482164
 21
128.59783129968011
 31
0.0
  0
LINE
  5
2F9
  8
0
 10
78.360998448482164
 20
157.59783129968011
 30
0.0
 11
76.360998448482164
 21
158.7525322996801
 31
0.0
  0
LINE
  5
2FA
  8
0
 10
114.36099844848211
 20
157.59783129968011
 30
0.0
 11
116.36099844848221
 21
158.7525322996801
 31
0.0
  0
LINE
  5
2FB
  8
0
 10
116.36099844848221
 20
136.44313029968009
 30
0.0
 11
116.36099844848221
 21
128.59783129968011
 31
0.0
  0
LINE
  5
2FC
  8
0
 10
114.36099844848211
 20
137.59783129968011
 30
0.0
 11
116.36099844848221
 21
136.44313029968009
 31
0.0
  0
LINE
  5
2FD
  8
0
 10
115.36099844848211
 20
127.5978312996801
 30
0.0
 11
116.36099844848221
 21
128.59783129968011
 31
0.0
  0
LINE
  5
2FE
  8
0
 10
115.36099844848211
 20
227.59783129968019
 30
0.0
 11
116.36099844848221
 21
226.59783129968011
 31
0.0
  0
LINE
  5
2FF
  8
0
 10
114.36099844848211
 20
157.59783129968011
 30
0.0
 11
114.36099844848211
 21
137.59783129968011
 31
0.0
  0
LINE
  5
300
  8
0
 10
116.36099844848221
 20
226.59783129968011
 30
0.0
 11
116.36099844848221
 21
158.7525322996801
 31
0.0
  0
LINE
  5
301
  8
0
 10
97.811164448482145
 20
157.59783129968011
 30
0.0
 11
97.811164448482145
 21
137.59783129968011
 31
0.0
  0
LINE
  5
302
  8
0
 10
97.811164448482145
 20
137.59783129968011
 30
0.0
 11
112.9108324484821
 21
137.59783129968011
 31
0.0
  0
LINE
  5
303
  8
0
 10
112.9108324484821
 20
137.59783129968011
 30
0.0
 11
112.9108324484821
 21
157.59783129968011
 31
0.0
  0
LINE
  5
304
  8
0
 10
112.9108324484821
 20
157.59783129968011
 30
0.0
 11
97.811164448482145
 21
157.59783129968011
 31
0.0
  0
ARC
  5
305
  8
0
 10
105.36099844848221
 20
133.4934572996801
 30
0.0
 40
25.259073999999998
 50
72.608698000000189
 51
107.3913019999997
  0
ARC
  5
306
  8
0
 10
105.36099844848221
 20
161.70220529968009
 30
0.0
 40
25.259073999999998
 50
252.6086980000002
 51
287.39130199999983
  0
ARC
  5
307
  8
0
 10
87.36099844848215
 20
161.70220529968009
 30
0.0
 40
25.259073999999998
 50
252.6086980000002
 51
287.39130199999983
  0
ARC
  5
308
  8
0
 10
87.36099844848215
 20
133.4934572996801
 30
0.0
 40
25.259073999999998
 50
72.608698000000189
 51
107.3913019999997
  0
LINE
  5
309
  8
0
 10
79.811164448482145
 20
157.59783129968011
 30
0.0
 11
94.910832448482211
 21
157.59783129968011
 31
0.0
  0
LINE
  5
30A
  8
0
 10
79.811164448482145
 20
137.59783129968011
 30
0.0
 11
79.811164448482145
 21
157.59783129968011
 31
0.0
  0
LINE
  5
30B
  8
0
 10
94.910832448482211
 20
137.59783129968011
 30
0.0
 11
79.811164448482145
 21
137.59783129968011
 31
0.0
  0
LINE
  5
30C
  8
0
 10
94.910832448482211
 20
157.59783129968011
 30
0.0
 11
94.910832448482211
 21
137.59783129968011
 31
0.0
  0
LINE
  5
30D
  8
0
 10
90.360998448482192
 20
124.0978312996801
 30
0.0
 11
102.36099844848221
 21
124.0978312996801
 31
0.0
  0
LINE
  5
30E
  8
0
 10
90.360998448482192
 20
99.597831299680124
 30
0.0
 11
102.36099844848221
 21
99.597831299680124
 31
0.0
  0
LINE
  5
30F
  8
0
 10
92.36099844848215
 20
97.597831299680124
 30
0.0
 11
100.36099844848221
 21
97.597831299680124
 31
0.0
  0
LINE
  5
310
  8
0
 10
102.36099844848221
 20
124.0978312996801
 30
0.0
 11
102.04849844848221
 21
124.0978312996801
 31
0.0
  0
ARC
  5
311
  8
0
 10
101.4609984484822
 20
124.4978312996801
 30
0.0
 40
0.4
 50
180.0
 51
270.0
  0
ARC
  5
312
  8
0
 10
101.4609984484822
 20
127.1978312996801
 30
0.0
 40
0.4
 50
90.0
 51
180.0
  0
LINE
  5
313
  8
0
 10
102.36099844848221
 20
99.597831299680124
 30
0.0
 11
100.36099844848221
 21
97.597831299680124
 31
0.0
  0
LINE
  5
314
  8
0
 10
102.36099844848221
 20
124.0978312996801
 30
0.0
 11
102.36099844848221
 21
99.597831299680124
 31
0.0
  0
LINE
  5
315
  8
0
 10
101.0609984484822
 20
127.1978312996801
 30
0.0
 11
101.0609984484822
 21
124.4978312996801
 31
0.0
  0
LINE
  5
316
  8
3
 10
91.307998448482152
 20
124.10060229968011
 30
0.0
 11
91.307998448482152
 21
98.650831299680135
 31
0.0
  0
LINE
  5
317
  8
3
 10
101.4139984484822
 20
124.10060229968011
 30
0.0
 11
101.4139984484822
 21
98.650831299680135
 31
0.0
  0
ARC
  5
318
  8
0
 10
91.260998448482155
 20
127.1978312996801
 30
0.0
 40
0.4
 50
0.0
 51
90.0
  0
LINE
  5
31A
  8
0
 10
390.36099844848218
 20
227.59783129968019
 30
0.0
 11
352.36099844848218
 21
227.59783129968019
 31
0.0
  0
LINE
  5
31B
  8
0
 10
351.36099844848218
 20
226.59783129968011
 30
0.0
 11
351.36099844848218
 21
158.7525322996801
 31
0.0
  0
LINE
  5
31C
  8
0
 10
353.36099844848218
 20
157.59783129968011
 30
0.0
 11
353.36099844848218
 21
137.59783129968011
 31
0.0
  0
LINE
  5
31D
  8
0
 10
352.36099844848218
 20
127.5978312996801
 30
0.0
 11
390.36099844848218
 21
127.5978312996801
 31
0.0
  0
LINE
  5
31E
  8
0
 10
366.66099844848219
 20
127.1978312996801
 30
0.0
 11
366.66099844848219
 21
124.4978312996801
 31
0.0
  0
LINE
  5
31F
  8
0
 10
365.36099844848218
 20
124.0978312996801
 30
0.0
 11
365.36099844848218
 21
99.597831299680124
 31
0.0
  0
LINE
  5
320
  8
0
 10
352.36099844848218
 20
227.59783129968019
 30
0.0
 11
351.36099844848218
 21
226.59783129968011
 31
0.0
  0
LINE
  5
321
  8
0
 10
352.36099844848218
 20
127.5978312996801
 30
0.0
 11
351.36099844848218
 21
128.59783129968011
 31
0.0
  0
LINE
  5
322
  8
0
 10
365.36099844848218
 20
99.597831299680124
 30
0.0
 11
367.36099844848218
 21
97.597831299680124
 31
0.0
  0
ARC
  5
323
  8
0
 10
366.2609984484821
 20
124.4978312996801
 30
0.0
 40
0.4
 50
270.0
 51
0.0
  0
LINE
  5
324
  8
0
 10
353.36099844848218
 20
137.59783129968011
 30
0.0
 11
351.36099844848218
 21
136.44313029968009
 31
0.0
  0
LINE
  5
325
  8
0
 10
351.36099844848218
 20
136.44313029968009
 30
0.0
 11
351.36099844848218
 21
128.59783129968011
 31
0.0
  0
LINE
  5
326
  8
0
 10
353.36099844848218
 20
157.59783129968011
 30
0.0
 11
351.36099844848218
 21
158.7525322996801
 31
0.0
  0
LINE
  5
327
  8
0
 10
389.36099844848229
 20
157.59783129968011
 30
0.0
 11
391.36099844848218
 21
158.7525322996801
 31
0.0
  0
LINE
  5
328
  8
0
 10
391.36099844848218
 20
136.44313029968009
 30
0.0
 11
391.36099844848218
 21
128.59783129968011
 31
0.0
  0
LINE
  5
329
  8
0
 10
389.36099844848229
 20
137.59783129968011
 30
0.0
 11
391.36099844848218
 21
136.44313029968009
 31
0.0
  0
LINE
  5
32A
  8
0
 10
390.36099844848218
 20
127.5978312996801
 30
0.0
 11
391.36099844848218
 21
128.59783129968011
 31
0.0
  0
LINE
  5
32B
  8
0
 10
390.36099844848218
 20
227.59783129968019
 30
0.0
 11
391.36099844848218
 21
226.59783129968011
 31
0.0
  0
LINE
  5
32C
  8
0
 10
389.36099844848229
 20
157.59783129968011
 30
0.0
 11
389.36099844848229
 21
137.59783129968011
 31
0.0
  0
LINE
  5
32D
  8
0
 10
391.36099844848218
 20
226.59783129968011
 30
0.0
 11
391.36099844848218
 21
158.7525322996801
 31
0.0
  0
LINE
  5
32E
  8
0
 10
372.8111644484822
 20
157.59783129968011
 30
0.0
 11
372.8111644484822
 21
137.59783129968011
 31
0.0
  0
LINE
  5
32F
  8
0
 10
372.8111644484822
 20
137.59783129968011
 30
0.0
 11
387.91083244848232
 21
137.59783129968011
 31
0.0
  0
LINE
  5
330
  8
0
 10
387.91083244848232
 20
137.59783129968011
 30
0.0
 11
387.91083244848232
 21
157.59783129968011
 31
0.0
  0
LINE
  5
331
  8
0
 10
387.91083244848232
 20
157.59783129968011
 30
0.0
 11
372.8111644484822
 21
157.59783129968011
 31
0.0
  0
ARC
  5
332
  8
0
 10
380.36099844848218
 20
133.4934572996801
 30
0.0
 40
25.259073999999998
 50
72.608698000000189
 51
107.3913019999997
  0
ARC
  5
333
  8
0
 10
380.36099844848218
 20
161.70220529968009
 30
0.0
 40
25.259073999999998
 50
252.6086980000002
 51
287.39130199999983
  0
ARC
  5
334
  8
0
 10
362.36099844848229
 20
161.70220529968009
 30
0.0
 40
25.259073999999998
 50
252.6086980000002
 51
287.39130199999983
  0
ARC
  5
335
  8
0
 10
362.36099844848229
 20
133.4934572996801
 30
0.0
 40
25.259073999999998
 50
72.608698000000189
 51
107.3913019999997
  0
LINE
  5
336
  8
0
 10
354.8111644484822
 20
157.59783129968011
 30
0.0
 11
369.91083244848232
 21
157.59783129968011
 31
0.0
  0
LINE
  5
337
  8
0
 10
354.8111644484822
 20
137.59783129968011
 30
0.0
 11
354.8111644484822
 21
157.59783129968011
 31
0.0
  0
LINE
  5
338
  8
0
 10
369.91083244848232
 20
137.59783129968011
 30
0.0
 11
354.8111644484822
 21
137.59783129968011
 31
0.0
  0
LINE
  5
339
  8
0
 10
369.91083244848232
 20
157.59783129968011
 30
0.0
 11
369.91083244848232
 21
137.59783129968011
 31
0.0
  0
LINE
  5
33A
  8
0
 10
365.36099844848218
 20
124.0978312996801
 30
0.0
 11
377.36099844848218
 21
124.0978312996801
 31
0.0
  0
LINE
  5
33B
  8
0
 10
365.36099844848218
 20
99.597831299680124
 30
0.0
 11
377.36099844848218
 21
99.597831299680124
 31
0.0
  0
LINE
  5
33C
  8
0
 10
367.36099844848218
 20
97.597831299680124
 30
0.0
 11
375.36099844848218
 21
97.597831299680124
 31
0.0
  0
LINE
  5
33D
  8
0
 10
377.36099844848218
 20
124.0978312996801
 30
0.0
 11
377.04849844848218
 21
124.0978312996801
 31
0.0
  0
ARC
  5
33E
  8
0
 10
376.4609984484822
 20
124.4978312996801
 30
0.0
 40
0.4
 50
180.0
 51
270.0
  0
ARC
  5
33F
  8
0
 10
376.4609984484822
 20
127.1978312996801
 30
0.0
 40
0.4
 50
90.0
 51
180.0
  0
LINE
  5
340
  8
0
 10
377.36099844848218
 20
99.597831299680124
 30
0.0
 11
375.36099844848218
 21
97.597831299680124
 31
0.0
  0
LINE
  5
341
  8
0
 10
377.36099844848218
 20
124.0978312996801
 30
0.0
 11
377.36099844848218
 21
99.597831299680124
 31
0.0
  0
LINE
  5
342
  8
0
 10
376.06099844848228
 20
127.1978312996801
 30
0.0
 11
376.06099844848228
 21
124.4978312996801
 31
0.0
  0
LINE
  5
343
  8
3
 10
366.30799844848218
 20
124.10060229968011
 30
0.0
 11
366.30799844848218
 21
98.650831299680135
 31
0.0
  0
LINE
  5
344
  8
3
 10
376.41399844848218
 20
124.10060229968011
 30
0.0
 11
376.41399844848218
 21
98.650831299680135
 31
0.0
  0
ARC
  5
345
  8
0
 10
366.2609984484821
 20
127.1978312996801
 30
0.0
 40
0.4
 50
0.0
 51
90.0
  0
CIRCLE
  5
347
  8
0
 10
231.36099844848221
 20
347.59783129968008
 30
0.0
 40
10.0
  0
CIRCLE
  5
348
  8
0
 10
231.36099844848221
 20
347.59783129968008
 30
0.0
 40
9.0
  0
LINE
  5
349
  8
0
 10
268.95248044848222
 20
356.8034492996801
 30
0.0
 11
234.32048944848219
 21
363.32174329968012
 31
0.0
  0
LINE
  5
34A
  8
0
 10
268.95248044848222
 20
356.8034492996801
 30
0.0
 11
269.37110544848218
 21
356.72394329968012
 31
0.0
  0
ARC
  5
34B
  8
0
 10
269.09122444848219
 20
355.25028529968012
 30
0.0
 40
1.5
 50
11.541405000000131
 51
79.246299999998271
  0
ARC
  5
34C
  8
0
 10
231.36100646920261
 20
347.59783246585607
 30
0.0
 40
39.999991904329661
 50
348.96989550691421
 51
11.030101558531889
  0
LINE
  5
34D
  8
0
 10
268.95248044848222
 20
338.39221329968012
 30
0.0
 11
234.32048944848219
 21
331.8739192996801
 31
0.0
  0
ARC
  5
34E
  8
0
 10
269.09122444848219
 20
339.9453772996801
 30
0.0
 40
1.5
 50
280.75370000000169
 51
348.45859499999978
  0
LINE
  5
350
  8
0
 10
269.37110544848218
 20
338.47171929968027
 30
0.0
 11
268.95248044848222
 21
338.39221329968012
 31
0.0
  0
ARC
  5
351
  8
0
 10
231.40055344848221
 20
347.79803629968012
 30
0.0
 40
40.0
 50
348.23960700000009
 51
348.67758299999991
  0
ARC
  5
352
  8
0
 10
231.40055344848221
 20
347.39762629968021
 30
0.0
 40
40.0
 50
11.32241699999993
 51
11.76039299999983
  0
ARC
  5
353
  8
0
 10
231.36099844848221
 20
347.59783129968008
 30
0.0
 40
16.0
 50
79.340721000001253
 51
280.65927900000202
  0
ARC
  5
354
  8
0
 10
231.36099844848221
 20
347.59783129968008
 30
0.0
 40
16.0
 50
308.33655599999918
 51
51.670804999999703
  0
LINE
  5
355
  8
0
 10
234.24774944848221
 20
352.59783129968019
 30
0.0
 11
228.4742474484822
 21
352.59783129968019
 31
0.0
  0
LINE
  5
356
  8
0
 10
228.4742474484822
 20
352.59783129968019
 30
0.0
 11
225.5874954484822
 21
347.59783129968008
 31
0.0
  0
LINE
  5
357
  8
0
 10
225.5874954484822
 20
347.59783129968008
 30
0.0
 11
228.4742474484822
 21
342.59783129968008
 31
0.0
  0
LINE
  5
358
  8
0
 10
228.4742474484822
 20
342.59783129968008
 30
0.0
 11
234.24774944848221
 21
342.59783129968008
 31
0.0
  0
LINE
  5
359
  8
0
 10
234.24774944848221
 20
342.59783129968008
 30
0.0
 11
237.13450144848221
 21
347.59783129968008
 31
0.0
  0
LINE
  5
35A
  8
0
 10
237.13450144848221
 20
347.59783129968008
 30
0.0
 11
234.24774944848221
 21
352.59783129968019
 31
0.0
  0
CIRCLE
  5
35D
  8
0
 10
262.36099844848218
 20
347.59783129968008
 30
0.0
 40
5.0
  0
CIRCLE
  5
35E
  8
3
 10
262.36099844848218
 20
347.59783129968008
 30
0.0
 40
6.0
  0
LINE
  5
35F
  8
1
 10
262.36099844848218
 20
337.59783129968008
 30
0.0
 11
262.36099844848218
 21
357.59783129968008
 31
0.0
  0
LINE
  5
360
  8
0
 10
222.36099844848221
 20
243.8973032996802
 30
0.0
 11
222.36099844848221
 21
254.09730329968011
 31
0.0
  0
LINE
  5
361
  8
0
 10
222.36099844848221
 20
254.09730329968011
 30
0.0
 11
223.7466394484822
 21
254.8973032996802
 31
0.0
  0
LINE
  5
362
  8
0
 10
240.36099844848221
 20
254.09730329968011
 30
0.0
 11
238.97535744848221
 21
254.8973032996802
 31
0.0
  0
LINE
  5
363
  8
0
 10
240.36099844848221
 20
243.8973032996802
 30
0.0
 11
240.36099844848221
 21
254.09730329968011
 31
0.0
  0
LINE
  5
365
  8
0
 10
215.36099844848221
 20
243.09730329968019
 30
0.0
 11
215.36099844848221
 21
229.6973032996801
 31
0.0
  0
LINE
  5
366
  8
0
 10
219.36099844848221
 20
228.4973032996802
 30
0.0
 11
219.36099844848221
 21
227.59783129968019
 31
0.0
  0
LINE
  5
367
  8
2
 10
218.86099844848221
 20
226.8973032996802
 30
0.0
 11
218.86099844848221
 21
189.89730329968009
 31
0.0
  0
LINE
  5
368
  8
2
 10
243.86099844848221
 20
189.89730329968009
 30
0.0
 11
243.86099844848221
 21
226.8973032996802
 31
0.0
  0
LINE
  5
369
  8
0
 10
243.36099844848221
 20
227.59783129968019
 30
0.0
 11
243.36099844848221
 21
228.4973032996802
 31
0.0
  0
LINE
  5
36A
  8
0
 10
254.46075844848221
 20
227.59783129968019
 30
0.0
 11
269.86099844848218
 21
227.59783129968019
 31
0.0
  0
LINE
  5
36B
  8
0
 10
253.1612864484822
 20
228.8973032996802
 30
0.0
 11
254.46075844848221
 21
227.59783129968019
 31
0.0
  0
LINE
  5
36C
  8
0
 10
248.63266344848219
 20
243.55656129968011
 30
0.0
 11
270.24922744848209
 21
237.76442129968009
 31
0.0
  0
ARC
  5
36D
  8
0
 10
216.16099844848219
 20
243.09730329968019
 30
0.0
 40
0.8
 50
90.0
 51
180.0
  0
ARC
  5
36E
  8
0
 10
216.16099844848219
 20
229.6973032996801
 30
0.0
 40
0.8
 50
180.0
 51
270.0
  0
LINE
  5
36F
  8
0
 10
271.36099844848218
 20
236.3155322996802
 30
0.0
 11
271.36099844848218
 21
229.09783129968011
 31
0.0
  0
ARC
  5
370
  8
0
 10
269.86099844848218
 20
236.3155322996802
 30
0.0
 40
1.5
 50
0.0
 51
75.000000000002046
  0
ARC
  5
371
  8
0
 10
269.86099844848218
 20
229.09783129968011
 30
0.0
 40
1.5
 50
270.0
 51
0.0
  0
LINE
  5
372
  8
2
 10
243.86099844848221
 20
189.89730329968009
 30
0.0
 11
242.86099844848221
 21
188.89730329968009
 31
0.0
  0
LINE
  5
373
  8
2
 10
219.86099844848221
 20
188.89730329968009
 30
0.0
 11
218.86099844848221
 21
189.89730329968009
 31
0.0
  0
LINE
  5
374
  8
2
 10
225.36099844848221
 20
164.89730329968009
 30
0.0
 11
225.36099844848221
 21
188.89730329968009
 31
0.0
  0
LINE
  5
375
  8
2
 10
227.36099844848221
 20
162.89730329968009
 30
0.0
 11
225.36099844848221
 21
164.89730329968009
 31
0.0
  0
LINE
  5
376
  8
2
 10
226.18299844848221
 20
188.89730329968009
 30
0.0
 11
226.18299844848221
 21
164.07530329968009
 31
0.0
  0
LINE
  5
377
  8
2
 10
237.36099844848221
 20
164.89730329968009
 30
0.0
 11
237.36099844848221
 21
188.89730329968009
 31
0.0
  0
LINE
  5
378
  8
2
 10
236.5389984484822
 20
188.89730329968009
 30
0.0
 11
236.5389984484822
 21
164.07530329968009
 31
0.0
  0
LINE
  5
379
  8
2
 10
235.36099844848221
 20
162.89730329968009
 30
0.0
 11
237.36099844848221
 21
164.89730329968009
 31
0.0
  0
ARC
  5
37A
  8
0
 10
246.04447344848219
 20
233.8973032996802
 30
0.0
 40
10.0
 50
74.999999999998849
 51
90.0
  0
LINE
  5
37B
  8
2
 10
235.36099844848221
 20
162.89730329968009
 30
0.0
 11
227.36099844848221
 21
162.89730329968009
 31
0.0
  0
LINE
  5
37C
  8
2
 10
237.36099844848221
 20
164.89730329968009
 30
0.0
 11
225.36099844848221
 21
164.89730329968009
 31
0.0
  0
LINE
  5
37D
  8
2
 10
243.86099844848221
 20
189.89730329968009
 30
0.0
 11
218.86099844848221
 21
189.89730329968009
 31
0.0
  0
LINE
  5
37E
  8
2
 10
243.86099844848221
 20
226.8973032996802
 30
0.0
 11
218.86099844848221
 21
226.8973032996802
 31
0.0
  0
LINE
  5
37F
  8
0
 10
246.04447344848219
 20
243.8973032996802
 30
0.0
 11
216.16099844848219
 21
243.8973032996802
 31
0.0
  0
LINE
  5
380
  8
0
 10
240.36099844848221
 20
254.09730329968011
 30
0.0
 11
222.36099844848221
 21
254.09730329968011
 31
0.0
  0
LINE
  5
381
  8
0
 10
238.97535744848221
 20
254.8973032996802
 30
0.0
 11
223.7466394484822
 21
254.8973032996802
 31
0.0
  0
LINE
  5
382
  8
2
 10
242.86099844848221
 20
188.89730329968009
 30
0.0
 11
219.86099844848221
 21
188.89730329968009
 31
0.0
  0
ARC
  5
383
  8
0
 10
243.76099844848221
 20
228.4973032996802
 30
0.0
 40
0.4
 50
90.0
 51
180.0
  0
ARC
  5
384
  8
0
 10
218.9609984484822
 20
228.4973032996802
 30
0.0
 40
0.4
 50
0.0
 51
90.0
  0
LINE
  5
385
  8
1
 10
231.36099844848221
 20
264.89730329968012
 30
0.0
 11
231.36099844848221
 21
87.597831299680124
 31
0.0
  0
LINE
  5
386
  8
0
 10
253.1612864484822
 20
228.8973032996802
 30
0.0
 11
216.16099844848219
 21
228.8973032996802
 31
0.0
  0
LINE
  5
387
  8
1
 10
262.36099844848218
 20
222.59783129968011
 30
0.0
 11
262.36099844848218
 21
244.8780652996802
 31
0.0
  0
ARC
  5
388
  8
0
 10
236.4609984484822
 20
127.1978312996801
 30
0.0
 40
0.4
 50
90.0
 51
180.0
  0
LINE
  5
389
  8
0
 10
250.36099844848221
 20
127.5978312996801
 30
0.0
 11
251.36099844848221
 21
128.59783129968011
 31
0.0
  0
ARC
  5
38A
  8
0
 10
226.2609984484821
 20
127.1978312996801
 30
0.0
 40
0.4
 50
0.0
 51
90.0
  0
LINE
  5
38B
  8
0
 10
212.36099844848221
 20
127.5978312996801
 30
0.0
 11
211.36099844848221
 21
128.59783129968011
 31
0.0
  0
LINE
  5
38C
  8
0
 10
212.36099844848221
 20
127.5978312996801
 30
0.0
 11
250.36099844848221
 21
127.5978312996801
 31
0.0
  0
LINE
  5
38D
  8
0
 10
211.41364244848219
 20
157.59783129968011
 30
0.0
 11
211.41364244848219
 21
137.59783129968011
 31
0.0
  0
LINE
  5
38E
  8
0
 10
220.13144044848221
 20
157.59783129968011
 30
0.0
 11
220.13144044848221
 21
137.59783129968011
 31
0.0
  0
LINE
  5
38F
  8
0
 10
222.64320044848219
 20
157.59783129968011
 30
0.0
 11
222.64320044848219
 21
137.59783129968011
 31
0.0
  0
LINE
  5
390
  8
0
 10
240.07879644848219
 20
157.59783129968011
 30
0.0
 11
240.07879644848219
 21
137.59783129968011
 31
0.0
  0
LINE
  5
391
  8
0
 10
240.07879644848219
 20
157.59783129968011
 30
0.0
 11
222.64320044848219
 21
157.59783129968011
 31
0.0
  0
LINE
  5
392
  8
0
 10
240.07879644848219
 20
137.59783129968011
 30
0.0
 11
222.64320044848219
 21
137.59783129968011
 31
0.0
  0
ARC
  5
393
  8
0
 10
231.36099844848221
 20
125.2662162996801
 30
0.0
 40
33.486316000000002
 50
74.909815000002141
 51
105.0901849999978
  0
ARC
  5
394
  8
0
 10
231.36099844848221
 20
169.92944629968011
 30
0.0
 40
33.486316000000002
 50
254.9098150000022
 51
285.0901849999978
  0
ARC
  5
395
  8
0
 10
215.7725414484822
 20
145.24772229968011
 30
0.0
 40
8.8045919999999978
 50
240.32556000000099
 51
299.67443999999892
  0
ARC
  5
396
  8
0
 10
215.7725414484822
 20
149.94794029968011
 30
0.0
 40
8.8045919999999978
 50
60.325560000001033
 51
119.6744399999989
  0
LINE
  5
397
  8
0
 10
220.13144044848221
 20
137.59783129968011
 30
0.0
 11
211.41364244848219
 21
137.59783129968011
 31
0.0
  0
LINE
  5
398
  8
0
 10
220.13144044848221
 20
157.59783129968011
 30
0.0
 11
211.41364244848219
 21
157.59783129968011
 31
0.0
  0
LINE
  5
399
  8
0
 10
242.5905564484822
 20
157.59783129968011
 30
0.0
 11
251.30835444848219
 21
157.59783129968011
 31
0.0
  0
LINE
  5
39A
  8
0
 10
242.5905564484822
 20
137.59783129968011
 30
0.0
 11
251.30835444848219
 21
137.59783129968011
 31
0.0
  0
ARC
  5
39B
  8
0
 10
246.94945544848221
 20
149.94794029968011
 30
0.0
 40
8.8045919999999978
 50
60.325560000001033
 51
119.6744399999989
  0
ARC
  5
39C
  8
0
 10
246.94945544848221
 20
145.24772229968011
 30
0.0
 40
8.8045919999999978
 50
240.32556000000099
 51
299.67443999999892
  0
LINE
  5
39D
  8
0
 10
242.5905564484822
 20
157.59783129968011
 30
0.0
 11
242.5905564484822
 21
137.59783129968011
 31
0.0
  0
LINE
  5
39E
  8
0
 10
251.30835444848219
 20
157.59783129968011
 30
0.0
 11
251.30835444848219
 21
137.59783129968011
 31
0.0
  0
LINE
  5
39F
  8
3
 10
236.4139984484822
 20
124.10060229968011
 30
0.0
 11
236.4139984484822
 21
98.650831299680135
 31
0.0
  0
LINE
  5
3A0
  8
3
 10
226.30799844848221
 20
124.10060229968011
 30
0.0
 11
226.30799844848221
 21
98.650831299680135
 31
0.0
  0
LINE
  5
3A1
  8
0
 10
236.0609984484822
 20
127.1978312996801
 30
0.0
 11
236.0609984484822
 21
124.4978312996801
 31
0.0
  0
LINE
  5
3A2
  8
0
 10
237.36099844848221
 20
124.0978312996801
 30
0.0
 11
237.36099844848221
 21
99.597831299680124
 31
0.0
  0
LINE
  5
3A3
  8
0
 10
237.36099844848221
 20
99.597831299680124
 30
0.0
 11
235.36099844848221
 21
97.597831299680124
 31
0.0
  0
ARC
  5
3A4
  8
0
 10
236.4609984484822
 20
124.4978312996801
 30
0.0
 40
0.4
 50
180.0
 51
270.0
  0
LINE
  5
3A5
  8
0
 10
237.36099844848221
 20
124.0978312996801
 30
0.0
 11
237.04849844848221
 21
124.0978312996801
 31
0.0
  0
LINE
  5
3A6
  8
0
 10
227.36099844848221
 20
97.597831299680124
 30
0.0
 11
235.36099844848221
 21
97.597831299680124
 31
0.0
  0
LINE
  5
3A7
  8
0
 10
225.36099844848221
 20
99.597831299680124
 30
0.0
 11
237.36099844848221
 21
99.597831299680124
 31
0.0
  0
LINE
  5
3A8
  8
0
 10
225.36099844848221
 20
124.0978312996801
 30
0.0
 11
237.36099844848221
 21
124.0978312996801
 31
0.0
  0
LINE
  5
3A9
  8
0
 10
251.36099844848221
 20
226.59783129968011
 30
0.0
 11
251.36099844848221
 21
128.59783129968011
 31
0.0
  0
LINE
  5
3AA
  8
0
 10
250.36099844848221
 20
227.59783129968019
 30
0.0
 11
251.36099844848221
 21
226.59783129968011
 31
0.0
  0
ARC
  5
3AB
  8
0
 10
226.2609984484821
 20
124.4978312996801
 30
0.0
 40
0.4
 50
270.0
 51
0.0
  0
LINE
  5
3AC
  8
0
 10
225.36099844848221
 20
99.597831299680124
 30
0.0
 11
227.36099844848221
 21
97.597831299680124
 31
0.0
  0
LINE
  5
3AD
  8
0
 10
212.36099844848221
 20
227.59783129968019
 30
0.0
 11
211.36099844848221
 21
226.59783129968011
 31
0.0
  0
LINE
  5
3AE
  8
0
 10
225.36099844848221
 20
124.0978312996801
 30
0.0
 11
225.36099844848221
 21
99.597831299680124
 31
0.0
  0
LINE
  5
3AF
  8
0
 10
226.6609984484821
 20
127.1978312996801
 30
0.0
 11
226.6609984484821
 21
124.4978312996801
 31
0.0
  0
LINE
  5
3B0
  8
0
 10
211.36099844848221
 20
226.59783129968011
 30
0.0
 11
211.36099844848221
 21
128.59783129968011
 31
0.0
  0
LINE
  5
3B1
  8
0
 10
250.36099844848221
 20
227.59783129968019
 30
0.0
 11
212.36099844848221
 21
227.59783129968019
 31
0.0
  0
LINE
  5
41E
  8
2
 10
383.36099844848229
 20
227.59783129968019
 30
0.0
 11
383.36099844848229
 21
226.8973032996802
 31
0.0
  0
LINE
  5
41F
  8
2
 10
359.36099844848218
 20
227.59783129968019
 30
0.0
 11
359.36099844848218
 21
226.8973032996802
 31
0.0
  0
LINE
  5
420
  8
2
 10
243.36099844848221
 20
227.59783129968019
 30
0.0
 11
243.36099844848221
 21
226.8973032996802
 31
0.0
  0
LINE
  5
421
  8
2
 10
219.36099844848221
 20
227.59783129968019
 30
0.0
 11
219.36099844848221
 21
226.8973032996802
 31
0.0
  0
LINE
  5
422
  8
2
 10
108.36099844848211
 20
227.59783129968019
 30
0.0
 11
108.36099844848211
 21
226.8973032996802
 31
0.0
  0
LINE
  5
423
  8
2
 10
84.360998448482206
 20
227.59783129968019
 30
0.0
 11
84.360998448482206
 21
226.8973032996802
 31
0.0
  0
TEXT
  5
5CF
  8
0
 62
     3
 10
0.0
 20
0.0
 30
0.0
 40
10.0
  1
BJ130-12140A2
  7
STANDARD1
  0
ENDSEC
  0
EOF
