  0
SECTION
  2
HEADER
  9
$ACADVER
  1
AC1009
  9
$INSBASE
 10
0.0
 20
0.0
 30
0.0
  9
$EXTMIN
 10
0.0
 20
-2.960436562073669
 30
0.0
  9
$EXTMAX
 10
413.72945452927001
 20
361.89749554907678
 30
0.0
  9
$LIMMIN
 10
0.0
 20
0.0
  9
$LIMMAX
 10
780.0
 20
540.0
  9
$ORTHOMODE
 70
     0
  9
$REGENMODE
 70
     1
  9
$FILLMODE
 70
     1
  9
$QTEXTMODE
 70
     0
  9
$MIRRTEXT
 70
     0
  9
$DRAGMODE
 70
     2
  9
$LTSCALE
 40
20.0
  9
$OSMODE
 70
  3071
  9
$ATTMODE
 70
     1
  9
$TEXTSIZE
 40
0.2
  9
$TRACEWID
 40
0.05
  9
$TEXTSTYLE
  7
STANDARD
  9
$CLAYER
  8
0
  9
$CELTYPE
  6
BYLAYER
  9
$CECOLOR
 62
   256
  9
$DIMSCALE
 40
2.0
  9
$DIMASZ
 40
3.0
  9
$DIMEXO
 40
2.0
  9
$DIMDLI
 40
0.38
  9
$DIMRND
 40
0.0
  9
$DIMDLE
 40
0.0
  9
$DIMEXE
 40
2.0
  9
$DIMTP
 40
0.0
  9
$DIMTM
 40
0.0
  9
$DIMTXT
 40
3.0
  9
$DIMCEN
 40
0.0
  9
$DIMTSZ
 40
0.0
  9
$DIMTOL
 70
     0
  9
$DIMLIM
 70
     0
  9
$DIMTIH
 70
     0
  9
$DIMTOH
 70
     0
  9
$DIMSE1
 70
     0
  9
$DIMSE2
 70
     0
  9
$DIMTAD
 70
     1
  9
$DIMZIN
 70
     0
  9
$DIMBLK
  1

  9
$DIMASO
 70
     0
  9
$DIMSHO
 70
     0
  9
$DIMPOST
  1

  9
$DIMAPOST
  1

  9
$DIMALT
 70
     0
  9
$DIMALTD
 70
     2
  9
$DIMALTF
 40
25.399999999999999
  9
$DIMLFAC
 40
1.0
  9
$DIMTOFL
 70
     1
  9
$DIMTVP
 40
1.6000000000000001
  9
$DIMTIX
 70
     1
  9
$DIMSOXD
 70
     0
  9
$DIMSAH
 70
     0
  9
$DIMBLK1
  1

  9
$DIMBLK2
  1

  9
$DIMSTYLE
  2
STANDARD
  9
$DIMCLRD
 70
     0
  9
$DIMCLRE
 70
     0
  9
$DIMCLRT
 70
     0
  9
$DIMTFAC
 40
1.0
  9
$DIMGAP
 40
0.09
  9
$LUNITS
 70
     2
  9
$LUPREC
 70
     4
  9
$SKETCHINC
 40
0.1
  9
$FILLETRAD
 40
0.0
  9
$AUNITS
 70
     0
  9
$AUPREC
 70
     4
  9
$MENU
  1
E:\r13\win\SUPPORT\ACAD
  9
$ELEVATION
 40
0.0
  9
$PELEVATION
 40
0.0
  9
$THICKNESS
 40
0.0
  9
$LIMCHECK
 70
     0
  9
$BLIPMODE
 70
     0
  9
$CHAMFERA
 40
0.0
  9
$CHAMFERB
 40
0.0
  9
$SKPOLY
 70
     0
  9
$TDCREATE
 40
2449840.3505787039
  9
$TDUPDATE
 40
2456597.6208512038
  9
$TDINDWG
 40
0.0210644213
  9
$TDUSRTIMER
 40
2456517.1221778472
  9
$USRTIMER
 70
     1
  9
$ANGBASE
 50
0.0
  9
$ANGDIR
 70
     0
  9
$PDMODE
 70
     0
  9
$PDSIZE
 40
0.0
  9
$PLINEWID
 40
0.0
  9
$COORDS
 70
     1
  9
$SPLFRAME
 70
     0
  9
$SPLINETYPE
 70
     6
  9
$SPLINESEGS
 70
     8
  9
$ATTDIA
 70
     0
  9
$ATTREQ
 70
     1
  9
$HANDLING
 70
     1
  9
$HANDSEED
  5
642
  9
$SURFTAB1
 70
     6
  9
$SURFTAB2
 70
     6
  9
$SURFTYPE
 70
     6
  9
$SURFU
 70
     6
  9
$SURFV
 70
     6
  9
$UCSNAME
  2

  9
$UCSORG
 10
0.0
 20
0.0
 30
0.0
  9
$UCSXDIR
 10
1.0
 20
0.0
 30
0.0
  9
$UCSYDIR
 10
0.0
 20
1.0
 30
0.0
  9
$PUCSNAME
  2

  9
$PUCSORG
 10
0.0
 20
0.0
 30
0.0
  9
$PUCSXDIR
 10
1.0
 20
0.0
 30
0.0
  9
$PUCSYDIR
 10
0.0
 20
1.0
 30
0.0
  9
$USERI1
 70
     3
  9
$USERI2
 70
     1
  9
$USERI3
 70
     0
  9
$USERI4
 70
     0
  9
$USERI5
 70
     0
  9
$USERR1
 40
2.0
  9
$USERR2
 40
3.0
  9
$USERR3
 40
3.0
  9
$USERR4
 40
3.0
  9
$USERR5
 40
10.0
  9
$WORLDVIEW
 70
     1
  9
$SHADEDGE
 70
     3
  9
$SHADEDIF
 70
    70
  9
$TILEMODE
 70
     1
  9
$MAXACTVP
 70
    16
  9
$PLIMCHECK
 70
     0
  9
$PEXTMIN
 10
1.0000000000000000E+020
 20
1.0000000000000000E+020
 30
1.0000000000000000E+020
  9
$PEXTMAX
 10
-1.0000000000000000E+020
 20
-1.0000000000000000E+020
 30
-1.0000000000000000E+020
  9
$PLIMMIN
 10
0.0
 20
0.0
  9
$PLIMMAX
 10
12.0
 20
9.0
  9
$UNITMODE
 70
     0
  9
$VISRETAIN
 70
     0
  9
$PLINEGEN
 70
     0
  9
$PSLTSCALE
 70
     0
  0
ENDSEC
  0
SECTION
  2
TABLES
  0
TABLE
  2
VPORT
 70
     1
  0
VPORT
  2
*ACTIVE
 70
     0
 10
0.0
 20
0.0
 11
1.0
 21
1.0
 12
389.988099052557
 22
383.6881458164155
 13
0.0
 23
0.0
 14
5.0
 24
5.0
 15
10.0
 25
10.0
 16
0.0
 26
0.0
 36
1.0
 17
0.0
 27
0.0
 37
0.0
 40
780.34809480459126
 41
1.831871345029239
 42
50.0
 43
0.0
 44
0.0
 50
0.0
 51
0.0
 71
    16
 72
   100
 73
     1
 74
     0
 75
     0
 76
     0
 77
     0
 78
     2
  0
ENDTAB
  0
TABLE
  2
LTYPE
 70
     4
  0
LTYPE
  2
CONTINUOUS
 70
     0
  3
Solid Line
 72
    65
 73
     0
 40
0.0
  0
LTYPE
  2
PHANTOM2
 70
     0
  3
___ _ _ ___ _ _ ___ _ _ ___ _ _
 72
    65
 73
     6
 40
1.25
 49
0.625
 49
-0.125
 49
0.125
 49
-0.125
 49
0.125
 49
-0.125
  0
LTYPE
  2
CENTER
 70
     0
  3
____ _ ____ _ ____ _ ____ _ ____ _ ____ _ ____
 72
    65
 73
     4
 40
2.0
 49
1.25
 49
-0.25
 49
0.25
 49
-0.25
  0
LTYPE
  2
HIDDEN
 70
     0
  3
_ _ _ _ _ _ _ _ _ _ _ _ _ _ _ _ _ _ _ _ _ _ _
 72
    65
 73
     2
 40
0.375
 49
0.25
 49
-0.125
  0
ENDTAB
  0
TABLE
  2
LAYER
 70
     4
  0
LAYER
  2
0
 70
     0
 62
     7
  6
CONTINUOUS
  0
LAYER
  2
1
 70
     0
 62
     1
  6
CENTER
  0
LAYER
  2
3
 70
     0
 62
     3
  6
CONTINUOUS
  0
LAYER
  2
2
 70
     0
 62
     2
  6
HIDDEN
  0
ENDTAB
  0
TABLE
  2
STYLE
 70
     3
  0
STYLE
  2
STANDARD
 70
     0
 40
0.0
 41
1.0
 50
0.0
 71
     0
 42
0.2
  3
TXT
  4
BIGFONT
  0
STYLE
  2
ANNOTATIVE
 70
     0
 40
0.0
 41
1.0
 50
0.0
 71
     0
 42
0.2
  3
txt
  4

  0
STYLE
  2
STANDARD1
 70
     0
 40
0.0
 41
1.0
 50
0.0
 71
     0
 42
3.0
  3
txt
  4

  0
ENDTAB
  0
TABLE
  2
VIEW
 70
     1
  0
VIEW
  2
ALL
 70
     0
 40
270.0
 10
220.99159700000001
 20
135.0
 41
0.0
 11
0.0
 21
0.0
 31
1.0
 12
0.0
 22
0.0
 32
0.0
 42
0.0
 43
0.0
 44
0.0
 50
0.0
 71
     0
  0
ENDTAB
  0
TABLE
  2
UCS
 70
     0
  0
ENDTAB
  0
TABLE
  2
APPID
 70
     5
  0
APPID
  2
ACAD
 70
     0
  0
APPID
  2
ACADANNOTATIVE
 70
     0
  0
APPID
  2
ACAD_MLEADERVER
 70
     0
  0
APPID
  2
ACAD_EXEMPT_FROM_CAD_STANDARDS
 70
     0
  0
APPID
  2
ACAD_NAV_VCDISPLAY
 70
     0
  0
ENDTAB
  0
TABLE
  2
DIMSTYLE
 70
     2
  0
DIMSTYLE
  2
STANDARD
 70
     0
  3

  4

  5

  6

  7

 40
1.0
 41
0.18
 42
0.0625
 43
0.38
 44
0.18
 45
0.0
 46
0.0
 47
0.0
 48
0.0
140
0.18
141
0.09
142
0.0
143
25.399999999999999
144
1.0
145
0.0
146
1.0
147
0.09
 71
     0
 72
     0
 73
     1
 74
     1
 75
     0
 76
     0
 77
     0
 78
     0
170
     0
171
     2
172
     0
173
     0
174
     0
175
     0
176
     0
177
     0
178
     0
  0
DIMSTYLE
  2
ANNOTATIVE
 70
     0
  3

  4

  5

  6

  7

 40
1.0
 41
0.18
 42
0.0625
 43
0.38
 44
0.18
 45
0.0
 46
0.0
 47
0.0
 48
0.0
140
0.18
141
0.09
142
0.0
143
25.399999999999999
144
1.0
145
0.0
146
1.0
147
0.09
 71
     0
 72
     0
 73
     1
 74
     1
 75
     0
 76
     0
 77
     0
 78
     0
170
     0
171
     2
172
     0
173
     0
174
     0
175
     0
176
     0
177
     0
178
     0
  0
ENDTAB
  0
ENDSEC
  0
SECTION
  2
BLOCKS
  0
BLOCK
  8
0
  2
$MODEL_SPACE
 70
     0
 10
0.0
 20
0.0
 30
0.0
  3
$MODEL_SPACE
  1

  0
ENDBLK
  5
574
  8
0
  0
BLOCK
 67
     1
  8
0
  2
$PAPER_SPACE
 70
     0
 10
0.0
 20
0.0
 30
0.0
  3
$PAPER_SPACE
  1

  0
ENDBLK
  5
570
 67
     1
  8
0
  0
BLOCK
  8
0
  2
STDGX5
 70
     0
 10
0.0
 20
0.0
 30
0.0
  3
STDGX5
  1

  0
ENDBLK
  5
3D
  8
0
  0
ENDSEC
  0
SECTION
  2
ENTITIES
  0
INSERT
  5
14B
  8
0
  2
STDGX5
 10
0.0
 20
0.0
 30
0.0
  0
INSERT
  5
152
  8
0
  2
STDGX5
 10
0.0
 20
0.0
 30
0.0
  0
INSERT
  5
153
  8
0
  2
STDGX5
 10
0.0
 20
0.0
 30
0.0
  0
INSERT
  5
154
  8
0
  2
STDGX5
 10
0.0
 20
0.0
 30
0.0
  0
LINE
  5
2C0
  8
1
 10
253.72945452926999
 20
291.89749554907678
 30
0.0
 11
253.72945452926999
 21
361.89749554907678
 31
0.0
  0
LINE
  5
2C1
  8
1
 10
303.72945452927001
 20
326.89749554907661
 30
0.0
 11
218.72945452926999
 21
326.89749554907661
 31
0.0
  0
ARC
  5
2C5
  8
0
 10
253.72945452926999
 20
326.89749554907661
 30
0.0
 40
20.0
 50
42.470822350655247
 51
317.52917764934477
  0
LINE
  5
2C7
  8
0
 10
123.42945452927
 20
126.4974955490766
 30
0.0
 11
123.42945452927
 21
123.7974955490766
 31
0.0
  0
LINE
  5
2C8
  8
0
 10
124.72945452927
 20
123.3974955490766
 30
0.0
 11
124.72945452927
 21
98.897495549076666
 31
0.0
  0
LINE
  5
2C9
  8
0
 10
124.72945452927
 20
98.897495549076666
 30
0.0
 11
122.72945452927
 21
96.897495549076652
 31
0.0
  0
ARC
  5
2CA
  8
0
 10
123.82945452927
 20
126.4974955490766
 30
0.0
 40
0.4
 50
90.0
 51
180.0
  0
ARC
  5
2CB
  8
0
 10
123.82945452927
 20
123.7974955490766
 30
0.0
 40
0.4
 50
180.0
 51
270.0
  0
LINE
  5
2CC
  8
3
 10
123.7794545292699
 20
123.3974955490766
 30
0.0
 11
123.7794545292699
 21
97.947495549076649
 31
0.0
  0
LINE
  5
2CD
  8
0
 10
124.72945452927
 20
123.3974955490766
 30
0.0
 11
112.72945452927
 21
123.3974955490766
 31
0.0
  0
LINE
  5
2CE
  8
0
 10
124.72945452927
 20
98.897495549076666
 30
0.0
 11
112.72945452927
 21
98.897495549076666
 31
0.0
  0
LINE
  5
2CF
  8
0
 10
122.72945452927
 20
96.897495549076652
 30
0.0
 11
114.72945452927
 21
96.897495549076652
 31
0.0
  0
LINE
  5
2D0
  8
0
 10
117.27928852927
 20
156.89749554907661
 30
0.0
 11
117.27928852927
 21
136.89749554907661
 31
0.0
  0
LINE
  5
2D1
  8
0
 10
117.27928852927
 20
136.89749554907661
 30
0.0
 11
102.17962052927
 21
136.89749554907661
 31
0.0
  0
LINE
  5
2D2
  8
0
 10
102.17962052927
 20
136.89749554907661
 30
0.0
 11
102.17962052927
 21
156.89749554907661
 31
0.0
  0
LINE
  5
2D3
  8
0
 10
102.17962052927
 20
156.89749554907661
 30
0.0
 11
117.27928852927
 21
156.89749554907661
 31
0.0
  0
ARC
  5
2D4
  8
0
 10
109.72945452927
 20
132.7931215490766
 30
0.0
 40
25.259073999999998
 50
72.608698000000189
 51
107.3913019999998
  0
ARC
  5
2D5
  8
0
 10
109.72945452927
 20
161.00186954907659
 30
0.0
 40
25.259073999999998
 50
252.6086980000002
 51
287.39130199999983
  0
ARC
  5
2D6
  8
0
 10
127.72945452927
 20
161.00186954907659
 30
0.0
 40
25.259073999999998
 50
252.6086980000002
 51
287.39130199999983
  0
ARC
  5
2D7
  8
0
 10
127.72945452927
 20
132.7931215490766
 30
0.0
 40
25.259073999999998
 50
72.608698000000189
 51
107.3913019999998
  0
LINE
  5
2D8
  8
0
 10
135.27928852926999
 20
156.89749554907661
 30
0.0
 11
120.17962052927
 21
156.89749554907661
 31
0.0
  0
LINE
  5
2D9
  8
0
 10
135.27928852926999
 20
136.89749554907661
 30
0.0
 11
135.27928852926999
 21
156.89749554907661
 31
0.0
  0
LINE
  5
2DA
  8
0
 10
120.17962052927
 20
136.89749554907661
 30
0.0
 11
135.27928852926999
 21
136.89749554907661
 31
0.0
  0
LINE
  5
2DB
  8
0
 10
120.17962052927
 20
156.89749554907661
 30
0.0
 11
120.17962052927
 21
136.89749554907661
 31
0.0
  0
LINE
  5
2DC
  8
0
 10
138.72945452926999
 20
205.89749554907669
 30
0.0
 11
138.72945452926999
 21
158.0521965490766
 31
0.0
  0
LINE
  5
2DD
  8
0
 10
136.72945452926999
 20
156.89749554907661
 30
0.0
 11
136.72945452926999
 21
136.89749554907661
 31
0.0
  0
LINE
  5
2DE
  8
0
 10
137.72945452926999
 20
206.89749554907669
 30
0.0
 11
138.72945452926999
 21
205.89749554907669
 31
0.0
  0
LINE
  5
2DF
  8
0
 10
137.72945452926999
 20
126.8974955490766
 30
0.0
 11
138.72945452926999
 21
127.89749554907669
 31
0.0
  0
LINE
  5
2E0
  8
0
 10
136.72945452926999
 20
136.89749554907661
 30
0.0
 11
138.72945452926999
 21
135.74279454907659
 31
0.0
  0
LINE
  5
2E1
  8
0
 10
138.72945452926999
 20
135.74279454907659
 30
0.0
 11
138.72945452926999
 21
127.89749554907669
 31
0.0
  0
LINE
  5
2E2
  8
0
 10
136.72945452926999
 20
156.89749554907661
 30
0.0
 11
138.72945452926999
 21
158.0521965490766
 31
0.0
  0
LINE
  5
2E3
  8
3
 10
113.67945452927
 20
123.3974955490766
 30
0.0
 11
113.67945452927
 21
97.947495549076649
 31
0.0
  0
LINE
  5
2E4
  8
0
 10
100.72945452927
 20
156.89749554907661
 30
0.0
 11
98.729454529270001
 21
158.0521965490766
 31
0.0
  0
LINE
  5
2E5
  8
0
 10
98.729454529270001
 20
135.74279454907659
 30
0.0
 11
98.729454529270001
 21
127.89749554907669
 31
0.0
  0
LINE
  5
2E6
  8
0
 10
100.72945452927
 20
136.89749554907661
 30
0.0
 11
98.729454529270001
 21
135.74279454907659
 31
0.0
  0
ARC
  5
2E7
  8
0
 10
113.62945452927001
 20
123.7974955490766
 30
0.0
 40
0.4
 50
270.0
 51
0.000000000000007
  0
ARC
  5
2E8
  8
0
 10
113.62945452927001
 20
126.4974955490766
 30
0.0
 40
0.4
 50
0.000000000000007
 51
90.0
  0
LINE
  5
2E9
  8
0
 10
112.72945452927
 20
98.897495549076666
 30
0.0
 11
114.72945452927
 21
96.897495549076652
 31
0.0
  0
LINE
  5
2EA
  8
0
 10
99.729454529270001
 20
126.8974955490766
 30
0.0
 11
98.729454529270001
 21
127.89749554907669
 31
0.0
  0
LINE
  5
2EB
  8
0
 10
99.729454529270001
 20
206.89749554907669
 30
0.0
 11
98.729454529270001
 21
205.89749554907669
 31
0.0
  0
LINE
  5
2EC
  8
0
 10
112.72945452927
 20
123.3974955490766
 30
0.0
 11
112.72945452927
 21
98.897495549076666
 31
0.0
  0
LINE
  5
2ED
  8
0
 10
114.02945452927
 20
126.4974955490766
 30
0.0
 11
114.02945452927
 21
123.7974955490766
 31
0.0
  0
LINE
  5
2EE
  8
0
 10
99.729454529270001
 20
126.8974955490766
 30
0.0
 11
137.72945452926999
 21
126.8974955490766
 31
0.0
  0
LINE
  5
2EF
  8
0
 10
100.72945452927
 20
156.89749554907661
 30
0.0
 11
100.72945452927
 21
136.89749554907661
 31
0.0
  0
LINE
  5
2F0
  8
0
 10
98.729454529270001
 20
205.89749554907669
 30
0.0
 11
98.729454529270001
 21
158.0521965490766
 31
0.0
  0
LINE
  5
2F1
  8
0
 10
137.72945452926999
 20
206.89749554907669
 30
0.0
 11
99.729454529270001
 21
206.89749554907669
 31
0.0
  0
LINE
  5
2F3
  8
0
 10
398.42945452927
 20
126.4974955490766
 30
0.0
 11
398.42945452927
 21
123.7974955490766
 31
0.0
  0
LINE
  5
2F4
  8
0
 10
399.72945452927001
 20
123.3974955490766
 30
0.0
 11
399.72945452927001
 21
98.897495549076666
 31
0.0
  0
LINE
  5
2F5
  8
0
 10
399.72945452927001
 20
98.897495549076666
 30
0.0
 11
397.72945452927001
 21
96.897495549076652
 31
0.0
  0
ARC
  5
2F6
  8
0
 10
398.82945452927009
 20
126.4974955490766
 30
0.0
 40
0.4
 50
90.0
 51
180.0
  0
ARC
  5
2F7
  8
0
 10
398.82945452927009
 20
123.7974955490766
 30
0.0
 40
0.4
 50
180.0
 51
270.0
  0
LINE
  5
2F8
  8
3
 10
398.77945452927003
 20
123.3974955490766
 30
0.0
 11
398.77945452927003
 21
97.947495549076649
 31
0.0
  0
LINE
  5
2F9
  8
0
 10
399.72945452927001
 20
123.3974955490766
 30
0.0
 11
387.72945452927001
 21
123.3974955490766
 31
0.0
  0
LINE
  5
2FA
  8
0
 10
399.72945452927001
 20
98.897495549076666
 30
0.0
 11
387.72945452927001
 21
98.897495549076666
 31
0.0
  0
LINE
  5
2FB
  8
0
 10
397.72945452927001
 20
96.897495549076652
 30
0.0
 11
389.72945452927001
 21
96.897495549076652
 31
0.0
  0
LINE
  5
2FC
  8
0
 10
392.2792885292701
 20
156.89749554907661
 30
0.0
 11
392.2792885292701
 21
136.89749554907661
 31
0.0
  0
LINE
  5
2FD
  8
0
 10
392.2792885292701
 20
136.89749554907661
 30
0.0
 11
377.17962052926998
 21
136.89749554907661
 31
0.0
  0
LINE
  5
2FE
  8
0
 10
377.17962052926998
 20
136.89749554907661
 30
0.0
 11
377.17962052926998
 21
156.89749554907661
 31
0.0
  0
LINE
  5
2FF
  8
0
 10
377.17962052926998
 20
156.89749554907661
 30
0.0
 11
392.2792885292701
 21
156.89749554907661
 31
0.0
  0
ARC
  5
300
  8
0
 10
384.72945452927001
 20
132.7931215490766
 30
0.0
 40
25.259073999999998
 50
72.608698000000189
 51
107.3913019999998
  0
ARC
  5
301
  8
0
 10
384.72945452927001
 20
161.00186954907659
 30
0.0
 40
25.259073999999998
 50
252.6086980000002
 51
287.39130199999983
  0
ARC
  5
302
  8
0
 10
402.72945452927001
 20
161.00186954907659
 30
0.0
 40
25.259073999999998
 50
252.6086980000002
 51
287.39130199999983
  0
ARC
  5
303
  8
0
 10
402.72945452927001
 20
132.7931215490766
 30
0.0
 40
25.259073999999998
 50
72.608698000000189
 51
107.3913019999998
  0
LINE
  5
304
  8
0
 10
410.27928852926999
 20
156.89749554907661
 30
0.0
 11
395.17962052926998
 21
156.89749554907661
 31
0.0
  0
LINE
  5
305
  8
0
 10
410.27928852926999
 20
136.89749554907661
 30
0.0
 11
410.27928852926999
 21
156.89749554907661
 31
0.0
  0
LINE
  5
306
  8
0
 10
395.17962052926998
 20
136.89749554907661
 30
0.0
 11
410.27928852926999
 21
136.89749554907661
 31
0.0
  0
LINE
  5
307
  8
0
 10
395.17962052926998
 20
156.89749554907661
 30
0.0
 11
395.17962052926998
 21
136.89749554907661
 31
0.0
  0
LINE
  5
308
  8
0
 10
413.72945452927001
 20
205.89749554907669
 30
0.0
 11
413.72945452927001
 21
158.0521965490766
 31
0.0
  0
LINE
  5
309
  8
0
 10
411.72945452927001
 20
156.89749554907661
 30
0.0
 11
411.72945452927001
 21
136.89749554907661
 31
0.0
  0
LINE
  5
30A
  8
0
 10
412.72945452926979
 20
206.89749554907669
 30
0.0
 11
413.72945452927001
 21
205.89749554907669
 31
0.0
  0
LINE
  5
30B
  8
0
 10
412.72945452926979
 20
126.8974955490766
 30
0.0
 11
413.72945452927001
 21
127.89749554907669
 31
0.0
  0
LINE
  5
30C
  8
0
 10
411.72945452927001
 20
136.89749554907661
 30
0.0
 11
413.72945452927001
 21
135.74279454907659
 31
0.0
  0
LINE
  5
30D
  8
0
 10
413.72945452927001
 20
135.74279454907659
 30
0.0
 11
413.72945452927001
 21
127.89749554907669
 31
0.0
  0
LINE
  5
30E
  8
0
 10
411.72945452927001
 20
156.89749554907661
 30
0.0
 11
413.72945452927001
 21
158.0521965490766
 31
0.0
  0
LINE
  5
30F
  8
3
 10
388.67945452927
 20
123.3974955490766
 30
0.0
 11
388.67945452927
 21
97.947495549076649
 31
0.0
  0
LINE
  5
310
  8
0
 10
375.72945452927001
 20
156.89749554907661
 30
0.0
 11
373.72945452927001
 21
158.0521965490766
 31
0.0
  0
LINE
  5
311
  8
0
 10
373.72945452927001
 20
135.74279454907659
 30
0.0
 11
373.72945452927001
 21
127.89749554907669
 31
0.0
  0
LINE
  5
312
  8
0
 10
375.72945452927001
 20
136.89749554907661
 30
0.0
 11
373.72945452927001
 21
135.74279454907659
 31
0.0
  0
ARC
  5
313
  8
0
 10
388.62945452926999
 20
123.7974955490766
 30
0.0
 40
0.4
 50
270.0
 51
0.000000000000007
  0
ARC
  5
314
  8
0
 10
388.62945452926999
 20
126.4974955490766
 30
0.0
 40
0.4
 50
0.000000000000007
 51
90.0
  0
LINE
  5
315
  8
0
 10
387.72945452927001
 20
98.897495549076666
 30
0.0
 11
389.72945452927001
 21
96.897495549076652
 31
0.0
  0
LINE
  5
316
  8
0
 10
374.72945452927001
 20
126.8974955490766
 30
0.0
 11
373.72945452927001
 21
127.89749554907669
 31
0.0
  0
LINE
  5
317
  8
0
 10
374.72945452927001
 20
206.89749554907669
 30
0.0
 11
373.72945452927001
 21
205.89749554907669
 31
0.0
  0
LINE
  5
318
  8
0
 10
387.72945452927001
 20
123.3974955490766
 30
0.0
 11
387.72945452927001
 21
98.897495549076666
 31
0.0
  0
LINE
  5
319
  8
0
 10
389.02945452927003
 20
126.4974955490766
 30
0.0
 11
389.02945452927003
 21
123.7974955490766
 31
0.0
  0
LINE
  5
31A
  8
0
 10
374.72945452927001
 20
126.8974955490766
 30
0.0
 11
412.72945452926979
 21
126.8974955490766
 31
0.0
  0
LINE
  5
31B
  8
0
 10
375.72945452927001
 20
156.89749554907661
 30
0.0
 11
375.72945452927001
 21
136.89749554907661
 31
0.0
  0
LINE
  5
31C
  8
0
 10
373.72945452927001
 20
205.89749554907669
 30
0.0
 11
373.72945452927001
 21
158.0521965490766
 31
0.0
  0
LINE
  5
31D
  8
0
 10
412.72945452926979
 20
206.89749554907669
 30
0.0
 11
374.72945452927001
 21
206.89749554907669
 31
0.0
  0
ARC
  5
31E
  8
0
 10
106.32945452927
 20
207.7969675490767
 30
0.0
 40
0.4
 50
0.000000000000007
 51
90.0
  0
LINE
  5
31F
  8
0
 10
106.72945452927
 20
206.89749554907669
 30
0.0
 11
106.72945452927
 21
207.7969675490767
 31
0.0
  0
LINE
  5
322
  8
0
 10
106.57391352927
 20
208.1135745490767
 30
0.0
 11
106.72945452927
 21
207.26288454907669
 31
0.0
  0
LINE
  5
323
  8
0
 10
130.88499552926999
 20
208.1135745490767
 30
0.0
 11
130.72945452926999
 21
207.26288454907669
 31
0.0
  0
LINE
  5
326
  8
0
 10
133.92945452927
 20
208.1969675490767
 30
0.0
 11
103.52945452927
 21
208.1969675490767
 31
0.0
  0
ARC
  5
327
  8
0
 10
133.92945452927
 20
208.9969675490766
 30
0.0
 40
0.8
 50
270.0
 51
0.000000000000007
  0
ARC
  5
328
  8
0
 10
133.92945452927
 20
222.39696754907669
 30
0.0
 40
0.8
 50
0.000000000000007
 51
90.0
  0
LINE
  5
329
  8
0
 10
134.72945452926999
 20
222.39696754907669
 30
0.0
 11
134.72945452926999
 21
208.9969675490766
 31
0.0
  0
LINE
  5
32A
  8
0
 10
109.72945452927
 20
223.1969675490767
 30
0.0
 11
109.72945452927
 21
233.39696754907669
 31
0.0
  0
LINE
  5
32B
  8
0
 10
109.72945452927
 20
233.39696754907669
 30
0.0
 11
111.11509552926999
 21
234.1969675490767
 31
0.0
  0
LINE
  5
32C
  8
0
 10
127.72945452927
 20
233.39696754907669
 30
0.0
 11
126.34381352926999
 21
234.1969675490767
 31
0.0
  0
LINE
  5
32D
  8
0
 10
127.72945452927
 20
223.1969675490767
 30
0.0
 11
127.72945452927
 21
233.39696754907669
 31
0.0
  0
LINE
  5
32F
  8
0
 10
102.72945452927
 20
222.39696754907669
 30
0.0
 11
102.72945452927
 21
208.9969675490766
 31
0.0
  0
LINE
  5
330
  8
2
 10
106.22945452927
 20
206.1969675490767
 30
0.0
 11
106.22945452927
 21
169.19696754907659
 31
0.0
  0
LINE
  5
331
  8
2
 10
131.22945452926999
 20
169.19696754907659
 30
0.0
 11
131.22945452926999
 21
206.1969675490767
 31
0.0
  0
LINE
  5
332
  8
0
 10
130.72945452926999
 20
206.89749554907669
 30
0.0
 11
130.72945452926999
 21
207.7969675490767
 31
0.0
  0
ARC
  5
333
  8
0
 10
103.52945452927
 20
222.39696754907669
 30
0.0
 40
0.8
 50
90.0
 51
180.0
  0
ARC
  5
334
  8
0
 10
103.52945452927
 20
208.9969675490766
 30
0.0
 40
0.8
 50
180.0
 51
270.0
  0
LINE
  5
335
  8
2
 10
131.22945452926999
 20
169.19696754907659
 30
0.0
 11
130.22945452926999
 21
168.19696754907659
 31
0.0
  0
LINE
  5
336
  8
2
 10
107.22945452927
 20
168.19696754907659
 30
0.0
 11
106.22945452927
 21
169.19696754907659
 31
0.0
  0
LINE
  5
337
  8
2
 10
112.72945452927
 20
144.19696754907659
 30
0.0
 11
112.72945452927
 21
168.19696754907659
 31
0.0
  0
LINE
  5
338
  8
2
 10
114.72945452927
 20
142.19696754907659
 30
0.0
 11
112.72945452927
 21
144.19696754907659
 31
0.0
  0
LINE
  5
339
  8
2
 10
113.55145452927
 20
168.19696754907659
 30
0.0
 11
113.55145452927
 21
143.3749675490767
 31
0.0
  0
LINE
  5
33A
  8
2
 10
124.72945452927
 20
144.19696754907659
 30
0.0
 11
124.72945452927
 21
168.19696754907659
 31
0.0
  0
LINE
  5
33B
  8
2
 10
123.90745452927
 20
168.19696754907659
 30
0.0
 11
123.90745452927
 21
143.3749675490767
 31
0.0
  0
LINE
  5
33C
  8
2
 10
122.72945452927
 20
142.19696754907659
 30
0.0
 11
124.72945452927
 21
144.19696754907659
 31
0.0
  0
LINE
  5
33D
  8
2
 10
122.72945452927
 20
142.19696754907659
 30
0.0
 11
114.72945452927
 21
142.19696754907659
 31
0.0
  0
LINE
  5
33E
  8
2
 10
124.72945452927
 20
144.19696754907659
 30
0.0
 11
112.72945452927
 21
144.19696754907659
 31
0.0
  0
LINE
  5
33F
  8
2
 10
131.22945452926999
 20
169.19696754907659
 30
0.0
 11
106.22945452927
 21
169.19696754907659
 31
0.0
  0
LINE
  5
340
  8
2
 10
131.22945452926999
 20
206.1969675490767
 30
0.0
 11
106.22945452927
 21
206.1969675490767
 31
0.0
  0
LINE
  5
341
  8
0
 10
133.92945452927
 20
223.1969675490767
 30
0.0
 11
103.52945452927
 21
223.1969675490767
 31
0.0
  0
LINE
  5
342
  8
0
 10
127.72945452927
 20
233.39696754907669
 30
0.0
 11
109.72945452927
 21
233.39696754907669
 31
0.0
  0
LINE
  5
343
  8
0
 10
126.34381352926999
 20
234.1969675490767
 30
0.0
 11
111.11509552926999
 21
234.1969675490767
 31
0.0
  0
LINE
  5
344
  8
2
 10
130.22945452926999
 20
168.19696754907659
 30
0.0
 11
107.22945452927
 21
168.19696754907659
 31
0.0
  0
ARC
  5
345
  8
0
 10
131.12945452926999
 20
207.7969675490767
 30
0.0
 40
0.4
 50
90.0
 51
180.0
  0
LINE
  5
346
  8
1
 10
118.72945452927
 20
244.1969675490767
 30
0.0
 11
118.72945452927
 21
86.897495549076652
 31
0.0
  0
LINE
  5
347
  8
1
 10
393.72945452927001
 20
244.1969675490767
 30
0.0
 11
393.72945452927001
 21
86.897495549076652
 31
0.0
  0
LINE
  5
348
  8
0
 10
402.67232052926983
 20
216.76618654907671
 30
0.0
 11
408.92945452927
 21
222.39696754907669
 31
0.0
  0
LINE
  5
349
  8
0
 10
384.78658852927009
 20
216.76618654907671
 30
0.0
 11
378.52945452927003
 21
222.39696754907669
 31
0.0
  0
ARC
  5
34A
  8
0
 10
385.5865885292701
 20
215.9661865490767
 30
0.0
 40
0.8
 50
90.0
 51
180.0
  0
ARC
  5
34B
  8
0
 10
401.87232052926998
 20
215.9661865490767
 30
0.0
 40
0.8
 50
0.000000000000007
 51
90.0
  0
ARC
  5
34C
  8
0
 10
401.87232052926998
 20
207.69749554907671
 30
0.0
 40
0.8
 50
270.0
 51
0.000000000000007
  0
ARC
  5
34D
  8
0
 10
385.5865885292701
 20
207.69749554907671
 30
0.0
 40
0.8
 50
180.0
 51
270.0
  0
LINE
  5
34E
  8
0
 10
401.87232052926998
 20
216.76618654907671
 30
0.0
 11
385.5865885292701
 21
216.76618654907671
 31
0.0
  0
LINE
  5
34F
  8
0
 10
402.67232052926983
 20
207.69749554907671
 30
0.0
 11
402.67232052926983
 21
215.9661865490767
 31
0.0
  0
LINE
  5
350
  8
0
 10
384.78658852927009
 20
215.9661865490767
 30
0.0
 11
384.78658852927009
 21
207.69749554907671
 31
0.0
  0
LINE
  5
351
  8
0
 10
405.90024352927003
 20
208.1969675490767
 30
0.0
 11
408.92945452927
 21
208.1969675490767
 31
0.0
  0
ARC
  5
353
  8
0
 10
381.32945452926998
 20
207.7969675490767
 30
0.0
 40
0.4
 50
52.327496000003421
 51
90.0
  0
LINE
  5
354
  8
0
 10
381.72945452927001
 20
207.26288454907669
 30
0.0
 11
381.72945452927001
 21
206.89749554907669
 31
0.0
  0
LINE
  5
355
  8
0
 10
381.55866552927
 20
208.1969675490767
 30
0.0
 11
381.79626252927
 21
206.89749554907669
 31
0.0
  0
LINE
  5
356
  8
0
 10
405.90024352927003
 20
208.1969675490767
 30
0.0
 11
405.66264652926992
 21
206.89749554907669
 31
0.0
  0
LINE
  5
357
  8
0
 10
378.52945452927003
 20
208.1969675490767
 30
0.0
 11
381.55866552927
 21
208.1969675490767
 31
0.0
  0
ARC
  5
358
  8
0
 10
378.52945452927003
 20
208.9969675490766
 30
0.0
 40
0.8
 50
180.0
 51
270.0
  0
ARC
  5
359
  8
0
 10
378.52945452927003
 20
222.39696754907669
 30
0.0
 40
0.8
 50
90.0
 51
180.0
  0
LINE
  5
35A
  8
0
 10
377.72945452927001
 20
222.39696754907669
 30
0.0
 11
377.72945452927001
 21
208.9969675490766
 31
0.0
  0
LINE
  5
35B
  8
0
 10
402.72945452927001
 20
223.1969675490767
 30
0.0
 11
402.72945452927001
 21
233.39696754907669
 31
0.0
  0
LINE
  5
35C
  8
0
 10
402.72945452927001
 20
233.39696754907669
 30
0.0
 11
401.34381352926999
 21
234.1969675490767
 31
0.0
  0
LINE
  5
35D
  8
0
 10
384.72945452927001
 20
233.39696754907669
 30
0.0
 11
386.11509552926998
 21
234.1969675490767
 31
0.0
  0
LINE
  5
35E
  8
0
 10
384.72945452927001
 20
223.1969675490767
 30
0.0
 11
384.72945452927001
 21
233.39696754907669
 31
0.0
  0
LINE
  5
360
  8
0
 10
409.72945452927001
 20
222.39696754907669
 30
0.0
 11
409.72945452927001
 21
208.9969675490766
 31
0.0
  0
LINE
  5
361
  8
0
 10
405.72945452927001
 20
207.26288454907669
 30
0.0
 11
405.72945452927001
 21
206.89749554907669
 31
0.0
  0
LINE
  5
362
  8
2
 10
406.22945452927001
 20
206.1969675490767
 30
0.0
 11
406.22945452927001
 21
169.19696754907659
 31
0.0
  0
LINE
  5
363
  8
2
 10
381.22945452927001
 20
169.19696754907659
 30
0.0
 11
381.22945452927001
 21
206.1969675490767
 31
0.0
  0
ARC
  5
364
  8
0
 10
408.92945452927
 20
222.39696754907669
 30
0.0
 40
0.8
 50
0.000000000000007
 51
90.0
  0
ARC
  5
365
  8
0
 10
408.92945452927
 20
208.9969675490766
 30
0.0
 40
0.8
 50
270.0
 51
0.000000000000007
  0
LINE
  5
366
  8
2
 10
381.22945452927001
 20
169.19696754907659
 30
0.0
 11
382.22945452927001
 21
168.19696754907659
 31
0.0
  0
LINE
  5
367
  8
2
 10
405.22945452927001
 20
168.19696754907659
 30
0.0
 11
406.22945452927001
 21
169.19696754907659
 31
0.0
  0
LINE
  5
368
  8
2
 10
399.72945452927001
 20
144.19696754907659
 30
0.0
 11
399.72945452927001
 21
168.19696754907659
 31
0.0
  0
LINE
  5
369
  8
2
 10
397.72945452927001
 20
142.19696754907659
 30
0.0
 11
399.72945452927001
 21
144.19696754907659
 31
0.0
  0
LINE
  5
36A
  8
2
 10
398.90745452927001
 20
168.19696754907659
 30
0.0
 11
398.90745452927001
 21
143.3749675490767
 31
0.0
  0
LINE
  5
36B
  8
2
 10
387.72945452927001
 20
144.19696754907659
 30
0.0
 11
387.72945452927001
 21
168.19696754907659
 31
0.0
  0
LINE
  5
36C
  8
2
 10
388.55145452927002
 20
168.19696754907659
 30
0.0
 11
388.55145452927002
 21
143.3749675490767
 31
0.0
  0
LINE
  5
36D
  8
2
 10
389.72945452927001
 20
142.19696754907659
 30
0.0
 11
387.72945452927001
 21
144.19696754907659
 31
0.0
  0
LINE
  5
36E
  8
2
 10
389.72945452927001
 20
142.19696754907659
 30
0.0
 11
397.72945452927001
 21
142.19696754907659
 31
0.0
  0
LINE
  5
36F
  8
2
 10
387.72945452927001
 20
144.19696754907659
 30
0.0
 11
399.72945452927001
 21
144.19696754907659
 31
0.0
  0
LINE
  5
370
  8
2
 10
381.22945452927001
 20
169.19696754907659
 30
0.0
 11
406.22945452927001
 21
169.19696754907659
 31
0.0
  0
LINE
  5
371
  8
2
 10
381.22945452927001
 20
206.1969675490767
 30
0.0
 11
406.22945452927001
 21
206.1969675490767
 31
0.0
  0
LINE
  5
372
  8
0
 10
378.52945452927003
 20
223.1969675490767
 30
0.0
 11
408.92945452927
 21
223.1969675490767
 31
0.0
  0
LINE
  5
373
  8
0
 10
384.72945452927001
 20
233.39696754907669
 30
0.0
 11
402.72945452927001
 21
233.39696754907669
 31
0.0
  0
LINE
  5
374
  8
0
 10
386.11509552926998
 20
234.1969675490767
 30
0.0
 11
401.34381352926999
 21
234.1969675490767
 31
0.0
  0
LINE
  5
375
  8
2
 10
382.22945452927001
 20
168.19696754907659
 30
0.0
 11
405.22945452927001
 21
168.19696754907659
 31
0.0
  0
ARC
  5
376
  8
0
 10
406.12945452926999
 20
207.7969675490767
 30
0.0
 40
0.4
 50
90.0
 51
127.6725040000015
  0
CIRCLE
  5
378
  8
0
 10
253.72945452926999
 20
326.89749554907661
 30
0.0
 40
10.0
  0
CIRCLE
  5
379
  8
0
 10
253.72945452926999
 20
326.89749554907661
 30
0.0
 40
9.0
  0
LINE
  5
37A
  8
0
 10
291.32093652927
 20
336.10311354907668
 30
0.0
 11
256.68894552926997
 21
342.62140754907659
 31
0.0
  0
LINE
  5
37B
  8
0
 10
291.32093652927
 20
336.10311354907668
 30
0.0
 11
291.73956152927002
 21
336.02360754907659
 31
0.0
  0
ARC
  5
37C
  8
0
 10
291.45968052927009
 20
334.54994954907659
 30
0.0
 40
1.5
 50
11.541405000000131
 51
79.246299999998215
  0
ARC
  5
37D
  8
0
 10
253.72946254999039
 20
326.89749671525283
 30
0.0
 40
39.999991904329661
 50
348.96989550691472
 51
11.030101558531941
  0
LINE
  5
37E
  8
0
 10
291.32093652927
 20
317.69187754907659
 30
0.0
 11
256.68894552926997
 21
311.17358354907668
 31
0.0
  0
ARC
  5
37F
  8
0
 10
291.45968052927009
 20
319.24504154907669
 30
0.0
 40
1.5
 50
280.75370000000169
 51
348.45859499999978
  0
LINE
  5
381
  8
0
 10
291.73956152927002
 20
317.77138354907669
 30
0.0
 11
291.32093652927
 21
317.69187754907659
 31
0.0
  0
ARC
  5
382
  8
0
 10
253.76900952926999
 20
327.09770054907682
 30
0.0
 40
40.0
 50
348.2396070000006
 51
348.67758300000008
  0
ARC
  5
383
  8
0
 10
253.76900952926999
 20
326.69729054907668
 30
0.0
 40
40.0
 50
11.322417000000019
 51
11.760392999999381
  0
ARC
  5
384
  8
0
 10
253.72945452926999
 20
326.89749554907661
 30
0.0
 40
16.0
 50
79.340721000001253
 51
280.65927899999878
  0
ARC
  5
385
  8
0
 10
253.72945452926999
 20
326.89749554907661
 30
0.0
 40
16.0
 50
308.33655599999912
 51
51.670804999999639
  0
LINE
  5
386
  8
0
 10
256.61620552927002
 20
331.89749554907678
 30
0.0
 11
250.84270352927001
 21
331.89749554907678
 31
0.0
  0
LINE
  5
387
  8
0
 10
250.84270352927001
 20
331.89749554907678
 30
0.0
 11
247.95595152927001
 21
326.89749554907661
 31
0.0
  0
LINE
  5
388
  8
0
 10
247.95595152927001
 20
326.89749554907661
 30
0.0
 11
250.84270352927001
 21
321.89749554907678
 31
0.0
  0
LINE
  5
389
  8
0
 10
250.84270352927001
 20
321.89749554907678
 30
0.0
 11
256.61620552927002
 21
321.89749554907678
 31
0.0
  0
LINE
  5
38A
  8
0
 10
256.61620552927002
 20
321.89749554907678
 30
0.0
 11
259.50295752926991
 21
326.89749554907661
 31
0.0
  0
LINE
  5
38B
  8
0
 10
259.50295752926991
 20
326.89749554907661
 30
0.0
 11
256.61620552927002
 21
331.89749554907678
 31
0.0
  0
CIRCLE
  5
38E
  8
0
 10
284.72945452927001
 20
326.89749554907661
 30
0.0
 40
5.0
  0
CIRCLE
  5
38F
  8
3
 10
284.72945452927001
 20
326.89749554907661
 30
0.0
 40
6.0
  0
LINE
  5
390
  8
1
 10
284.72945452927001
 20
316.89749554907678
 30
0.0
 11
284.72945452927001
 21
336.89749554907678
 31
0.0
  0
LINE
  5
391
  8
0
 10
244.72945452926999
 20
223.1969675490767
 30
0.0
 11
244.72945452926999
 21
233.39696754907669
 31
0.0
  0
LINE
  5
392
  8
0
 10
244.72945452926999
 20
233.39696754907669
 30
0.0
 11
246.11509552927001
 21
234.1969675490767
 31
0.0
  0
LINE
  5
393
  8
0
 10
262.7294545292699
 20
233.39696754907669
 30
0.0
 11
261.34381352926999
 21
234.1969675490767
 31
0.0
  0
LINE
  5
394
  8
0
 10
262.7294545292699
 20
223.1969675490767
 30
0.0
 11
262.7294545292699
 21
233.39696754907669
 31
0.0
  0
LINE
  5
396
  8
0
 10
237.72945452926999
 20
222.39696754907669
 30
0.0
 11
237.72945452926999
 21
208.9969675490766
 31
0.0
  0
LINE
  5
397
  8
0
 10
241.72945452926999
 20
207.7969675490767
 30
0.0
 11
241.72945452926999
 21
206.89749554907669
 31
0.0
  0
LINE
  5
398
  8
2
 10
241.22945452926999
 20
206.1969675490767
 30
0.0
 11
241.22945452926999
 21
169.19696754907659
 31
0.0
  0
LINE
  5
399
  8
2
 10
266.22945452927001
 20
169.19696754907659
 30
0.0
 11
266.22945452927001
 21
206.1969675490767
 31
0.0
  0
LINE
  5
39A
  8
0
 10
265.72945452927001
 20
206.89749554907669
 30
0.0
 11
265.72945452927001
 21
207.7969675490767
 31
0.0
  0
LINE
  5
39B
  8
0
 10
276.82921452927002
 20
206.89749554907669
 30
0.0
 11
292.22945452927001
 21
206.89749554907669
 31
0.0
  0
LINE
  5
39C
  8
0
 10
275.52974252926998
 20
208.1969675490767
 30
0.0
 11
276.82921452927002
 21
206.89749554907669
 31
0.0
  0
LINE
  5
39D
  8
0
 10
271.00111952927
 20
222.8562255490767
 30
0.0
 11
292.61768352926998
 21
217.06408554907659
 31
0.0
  0
ARC
  5
39E
  8
0
 10
238.52945452927
 20
222.39696754907669
 30
0.0
 40
0.8
 50
90.0
 51
180.0
  0
ARC
  5
39F
  8
0
 10
238.52945452927
 20
208.9969675490766
 30
0.0
 40
0.8
 50
180.0
 51
270.0
  0
LINE
  5
3A0
  8
0
 10
293.7294545292699
 20
215.6151965490767
 30
0.0
 11
293.7294545292699
 21
208.39749554907661
 31
0.0
  0
ARC
  5
3A1
  8
0
 10
292.22945452927001
 20
215.6151965490767
 30
0.0
 40
1.5
 50
0.000000000000007
 51
74.999999999998906
  0
ARC
  5
3A2
  8
0
 10
292.22945452927001
 20
208.39749554907661
 30
0.0
 40
1.5
 50
270.0
 51
0.000000000000007
  0
LINE
  5
3A3
  8
2
 10
266.22945452927001
 20
169.19696754907659
 30
0.0
 11
265.22945452927001
 21
168.19696754907659
 31
0.0
  0
LINE
  5
3A4
  8
2
 10
242.22945452926999
 20
168.19696754907659
 30
0.0
 11
241.22945452926999
 21
169.19696754907659
 31
0.0
  0
LINE
  5
3A5
  8
2
 10
247.72945452926999
 20
144.19696754907659
 30
0.0
 11
247.72945452926999
 21
168.19696754907659
 31
0.0
  0
LINE
  5
3A6
  8
2
 10
249.72945452926999
 20
142.19696754907659
 30
0.0
 11
247.72945452926999
 21
144.19696754907659
 31
0.0
  0
LINE
  5
3A7
  8
2
 10
248.55145452926999
 20
168.19696754907659
 30
0.0
 11
248.55145452926999
 21
143.3749675490767
 31
0.0
  0
LINE
  5
3A8
  8
2
 10
259.72945452927001
 20
144.19696754907659
 30
0.0
 11
259.72945452927001
 21
168.19696754907659
 31
0.0
  0
LINE
  5
3A9
  8
2
 10
258.9074545292699
 20
168.19696754907659
 30
0.0
 11
258.9074545292699
 21
143.3749675490767
 31
0.0
  0
LINE
  5
3AA
  8
2
 10
257.72945452927001
 20
142.19696754907659
 30
0.0
 11
259.72945452927001
 21
144.19696754907659
 31
0.0
  0
ARC
  5
3AB
  8
0
 10
268.41292952927
 20
213.1969675490767
 30
0.0
 40
10.0
 50
74.999999999998906
 51
90.0
  0
LINE
  5
3AC
  8
2
 10
257.72945452927001
 20
142.19696754907659
 30
0.0
 11
249.72945452926999
 21
142.19696754907659
 31
0.0
  0
LINE
  5
3AD
  8
2
 10
259.72945452927001
 20
144.19696754907659
 30
0.0
 11
247.72945452926999
 21
144.19696754907659
 31
0.0
  0
LINE
  5
3AE
  8
2
 10
266.22945452927001
 20
169.19696754907659
 30
0.0
 11
241.22945452926999
 21
169.19696754907659
 31
0.0
  0
LINE
  5
3AF
  8
2
 10
266.22945452927001
 20
206.1969675490767
 30
0.0
 11
241.22945452926999
 21
206.1969675490767
 31
0.0
  0
LINE
  5
3B0
  8
0
 10
268.41292952927
 20
223.1969675490767
 30
0.0
 11
238.52945452927
 21
223.1969675490767
 31
0.0
  0
LINE
  5
3B1
  8
0
 10
262.7294545292699
 20
233.39696754907669
 30
0.0
 11
244.72945452926999
 21
233.39696754907669
 31
0.0
  0
LINE
  5
3B2
  8
0
 10
261.34381352926999
 20
234.1969675490767
 30
0.0
 11
246.11509552927001
 21
234.1969675490767
 31
0.0
  0
LINE
  5
3B3
  8
2
 10
265.22945452927001
 20
168.19696754907659
 30
0.0
 11
242.22945452926999
 21
168.19696754907659
 31
0.0
  0
ARC
  5
3B4
  8
0
 10
266.12945452926999
 20
207.7969675490767
 30
0.0
 40
0.4
 50
90.0
 51
180.0
  0
ARC
  5
3B5
  8
0
 10
241.32945452927001
 20
207.7969675490767
 30
0.0
 40
0.4
 50
0.000000000000007
 51
90.0
  0
LINE
  5
3B6
  8
1
 10
253.72945452926999
 20
244.1969675490767
 30
0.0
 11
253.72945452926999
 21
86.897495549076652
 31
0.0
  0
LINE
  5
3B7
  8
0
 10
275.52974252926998
 20
208.1969675490767
 30
0.0
 11
238.52945452927
 21
208.1969675490767
 31
0.0
  0
LINE
  5
3B8
  8
1
 10
284.72945452927001
 20
201.89749554907661
 30
0.0
 11
284.72945452927001
 21
224.1777295490767
 31
0.0
  0
LINE
  5
3B9
  8
0
 10
273.67681052927003
 20
156.89749554907661
 30
0.0
 11
273.67681052927003
 21
136.89749554907661
 31
0.0
  0
LINE
  5
3BA
  8
0
 10
264.95901252927001
 20
156.89749554907661
 30
0.0
 11
264.95901252927001
 21
136.89749554907661
 31
0.0
  0
ARC
  5
3BB
  8
0
 10
269.31791152927002
 20
144.54738654907661
 30
0.0
 40
8.8045919999999978
 50
240.32556000000099
 51
299.67443999999892
  0
ARC
  5
3BC
  8
0
 10
269.31791152927002
 20
149.24760454907661
 30
0.0
 40
8.8045919999999978
 50
60.325560000001062
 51
119.6744399999989
  0
LINE
  5
3BD
  8
0
 10
264.95901252927001
 20
136.89749554907661
 30
0.0
 11
273.67681052927003
 21
136.89749554907661
 31
0.0
  0
LINE
  5
3BE
  8
0
 10
264.95901252927001
 20
156.89749554907661
 30
0.0
 11
273.67681052927003
 21
156.89749554907661
 31
0.0
  0
LINE
  5
3BF
  8
0
 10
242.49989652926999
 20
156.89749554907661
 30
0.0
 11
233.78209852927
 21
156.89749554907661
 31
0.0
  0
LINE
  5
3C0
  8
0
 10
242.49989652926999
 20
136.89749554907661
 30
0.0
 11
233.78209852927
 21
136.89749554907661
 31
0.0
  0
ARC
  5
3C1
  8
0
 10
238.14099752927001
 20
149.24760454907661
 30
0.0
 40
8.8045919999999978
 50
60.325560000001062
 51
119.6744399999989
  0
ARC
  5
3C2
  8
0
 10
238.14099752927001
 20
144.54738654907661
 30
0.0
 40
8.8045919999999978
 50
240.32556000000099
 51
299.67443999999892
  0
ARC
  5
3C3
  8
0
 10
253.72945452926999
 20
169.22911054907669
 30
0.0
 40
33.486316000000002
 50
254.9098150000022
 51
285.09018499999792
  0
ARC
  5
3C4
  8
0
 10
253.72945452926999
 20
124.5658805490766
 30
0.0
 40
33.486316000000002
 50
74.909815000002141
 51
105.0901849999978
  0
LINE
  5
3C5
  8
0
 10
262.44725252926997
 20
136.89749554907661
 30
0.0
 11
245.01165652927
 21
136.89749554907661
 31
0.0
  0
LINE
  5
3C6
  8
0
 10
262.44725252926997
 20
156.89749554907661
 30
0.0
 11
245.01165652927
 21
156.89749554907661
 31
0.0
  0
LINE
  5
3C7
  8
0
 10
262.44725252926997
 20
156.89749554907661
 30
0.0
 11
262.44725252926997
 21
136.89749554907661
 31
0.0
  0
LINE
  5
3C8
  8
0
 10
245.01165652927
 20
156.89749554907661
 30
0.0
 11
245.01165652927
 21
136.89749554907661
 31
0.0
  0
LINE
  5
3C9
  8
0
 10
242.49989652926999
 20
156.89749554907661
 30
0.0
 11
242.49989652926999
 21
136.89749554907661
 31
0.0
  0
LINE
  5
3CA
  8
0
 10
233.78209852927
 20
156.89749554907661
 30
0.0
 11
233.78209852927
 21
136.89749554907661
 31
0.0
  0
LINE
  5
3CB
  8
0
 10
272.7294545292699
 20
206.89749554907669
 30
0.0
 11
234.72945452926999
 21
206.89749554907669
 31
0.0
  0
LINE
  5
3CC
  8
0
 10
233.72945452926999
 20
205.89749554907669
 30
0.0
 11
233.72945452926999
 21
127.89749554907669
 31
0.0
  0
LINE
  5
3CD
  8
0
 10
234.72945452926999
 20
126.8974955490766
 30
0.0
 11
272.7294545292699
 21
126.8974955490766
 31
0.0
  0
LINE
  5
3CE
  8
0
 10
249.02945452927
 20
126.4974955490766
 30
0.0
 11
249.02945452927
 21
123.7974955490766
 31
0.0
  0
LINE
  5
3CF
  8
0
 10
247.72945452926999
 20
123.3974955490766
 30
0.0
 11
247.72945452926999
 21
98.897495549076666
 31
0.0
  0
LINE
  5
3D0
  8
0
 10
234.72945452926999
 20
206.89749554907669
 30
0.0
 11
233.72945452926999
 21
205.89749554907669
 31
0.0
  0
LINE
  5
3D1
  8
0
 10
234.72945452926999
 20
126.8974955490766
 30
0.0
 11
233.72945452926999
 21
127.89749554907669
 31
0.0
  0
LINE
  5
3D2
  8
0
 10
247.72945452926999
 20
98.897495549076666
 30
0.0
 11
249.72945452926999
 21
96.897495549076652
 31
0.0
  0
ARC
  5
3D3
  8
0
 10
248.62945452926999
 20
126.4974955490766
 30
0.0
 40
0.4
 50
0.000000000000007
 51
90.0
  0
ARC
  5
3D4
  8
0
 10
248.62945452926999
 20
123.7974955490766
 30
0.0
 40
0.4
 50
270.0
 51
0.000000000000007
  0
LINE
  5
3D5
  8
3
 10
248.67945452927
 20
123.3974955490766
 30
0.0
 11
248.67945452927
 21
97.947495549076649
 31
0.0
  0
LINE
  5
3D6
  8
0
 10
272.7294545292699
 20
126.8974955490766
 30
0.0
 11
273.72945452927001
 21
127.89749554907669
 31
0.0
  0
LINE
  5
3D7
  8
0
 10
272.7294545292699
 20
206.89749554907669
 30
0.0
 11
273.72945452927001
 21
205.89749554907669
 31
0.0
  0
LINE
  5
3D8
  8
0
 10
273.72945452927001
 20
205.89749554907669
 30
0.0
 11
273.72945452927001
 21
127.89749554907669
 31
0.0
  0
LINE
  5
3D9
  8
0
 10
257.72945452927001
 20
96.897495549076652
 30
0.0
 11
249.72945452926999
 21
96.897495549076652
 31
0.0
  0
LINE
  5
3DA
  8
0
 10
259.72945452927001
 20
98.897495549076666
 30
0.0
 11
247.72945452926999
 21
98.897495549076666
 31
0.0
  0
LINE
  5
3DB
  8
0
 10
259.72945452927001
 20
123.3974955490766
 30
0.0
 11
247.72945452926999
 21
123.3974955490766
 31
0.0
  0
LINE
  5
3DC
  8
3
 10
258.77945452927003
 20
123.3974955490766
 30
0.0
 11
258.77945452927003
 21
97.947495549076649
 31
0.0
  0
ARC
  5
3DD
  8
0
 10
258.82945452927009
 20
123.7974955490766
 30
0.0
 40
0.4
 50
180.0
 51
270.0
  0
ARC
  5
3DE
  8
0
 10
258.82945452927009
 20
126.4974955490766
 30
0.0
 40
0.4
 50
90.0
 51
180.0
  0
LINE
  5
3DF
  8
0
 10
259.72945452927001
 20
98.897495549076666
 30
0.0
 11
257.72945452927001
 21
96.897495549076652
 31
0.0
  0
LINE
  5
3E0
  8
0
 10
259.72945452927001
 20
123.3974955490766
 30
0.0
 11
259.72945452927001
 21
98.897495549076666
 31
0.0
  0
LINE
  5
3E1
  8
0
 10
258.42945452927
 20
126.4974955490766
 30
0.0
 11
258.42945452927
 21
123.7974955490766
 31
0.0
  0
LINE
  5
437
  8
2
 10
405.72945452927001
 20
206.89749554907669
 30
0.0
 11
405.72945452927001
 21
206.1969675490767
 31
0.0
  0
LINE
  5
438
  8
2
 10
381.72945452927001
 20
206.89749554907669
 30
0.0
 11
381.72945452927001
 21
206.1969675490767
 31
0.0
  0
LINE
  5
43B
  8
2
 10
265.72945452927001
 20
206.89749554907669
 30
0.0
 11
265.72945452927001
 21
206.1969675490767
 31
0.0
  0
LINE
  5
43C
  8
2
 10
241.72945452926999
 20
206.89749554907669
 30
0.0
 11
241.72945452926999
 21
206.1969675490767
 31
0.0
  0
LINE
  5
43D
  8
2
 10
130.72945452926999
 20
206.89749554907669
 30
0.0
 11
130.72945452926999
 21
206.1969675490767
 31
0.0
  0
LINE
  5
43E
  8
2
 10
106.72945452927
 20
206.89749554907669
 30
0.0
 11
106.72945452927
 21
206.1969675490767
 31
0.0
  0
TEXT
  5
5E3
  8
0
 62
     3
 10
0.0
 20
0.0
 30
0.0
 40
10.0
  1
BJ130-12140A1
  7
STANDARD1
  0
ENDSEC
  0
EOF
