  0
SECTION
  2
HEADER
  9
$ACADVER
  1
AC1009
  9
$INSBASE
 10
0.0
 20
0.0
 30
0.0
  9
$EXTMIN
 10
0.0
 20
-2.960436562073669
 30
0.0
  9
$EXTMAX
 10
376.99999999999989
 20
188.0
 30
0.0
  9
$LIMMIN
 10
0.0
 20
0.0
  9
$LIMMAX
 10
375.0
 20
270.0
  9
$ORTHOMODE
 70
     1
  9
$REGENMODE
 70
     1
  9
$FILLMODE
 70
     1
  9
$QTEXTMODE
 70
     0
  9
$MIRRTEXT
 70
     0
  9
$DRAGMODE
 70
     2
  9
$LTSCALE
 40
5.0
  9
$OSMODE
 70
    37
  9
$ATTMODE
 70
     1
  9
$TEXTSIZE
 40
4.000000000000048
  9
$TRACEWID
 40
0.05
  9
$TEXTSTYLE
  7
STANDARD
  9
$CLAYER
  8
0
  9
$CELTYPE
  6
BYLAYER
  9
$CECOLOR
 62
   256
  9
$DIMSCALE
 40
1.0
  9
$DIMASZ
 40
3.0
  9
$DIMEXO
 40
2.0
  9
$DIMDLI
 40
0.38
  9
$DIMRND
 40
0.0
  9
$DIMDLE
 40
0.0
  9
$DIMEXE
 40
2.0
  9
$DIMTP
 40
0.0
  9
$DIMTM
 40
0.0
  9
$DIMTXT
 40
3.2000000000000002
  9
$DIMCEN
 40
0.0
  9
$DIMTSZ
 40
0.0
  9
$DIMTOL
 70
     0
  9
$DIMLIM
 70
     0
  9
$DIMTIH
 70
     0
  9
$DIMTOH
 70
     0
  9
$DIMSE1
 70
     0
  9
$DIMSE2
 70
     0
  9
$DIMTAD
 70
     1
  9
$DIMZIN
 70
     0
  9
$DIMBLK
  1

  9
$DIMASO
 70
     0
  9
$DIMSHO
 70
     0
  9
$DIMPOST
  1

  9
$DIMAPOST
  1

  9
$DIMALT
 70
     0
  9
$DIMALTD
 70
     2
  9
$DIMALTF
 40
25.399999999999999
  9
$DIMLFAC
 40
1.0
  9
$DIMTOFL
 70
     0
  9
$DIMTVP
 40
1.6000000000000001
  9
$DIMTIX
 70
     1
  9
$DIMSOXD
 70
     0
  9
$DIMSAH
 70
     0
  9
$DIMBLK1
  1

  9
$DIMBLK2
  1

  9
$DIMSTYLE
  2
STANDARD
  9
$DIMCLRD
 70
     4
  9
$DIMCLRE
 70
     4
  9
$DIMCLRT
 70
     4
  9
$DIMTFAC
 40
1.0
  9
$DIMGAP
 40
0.09
  9
$LUNITS
 70
     2
  9
$LUPREC
 70
     1
  9
$SKETCHINC
 40
0.1
  9
$FILLETRAD
 40
0.0
  9
$AUNITS
 70
     0
  9
$AUPREC
 70
     0
  9
$MENU
  1
E:\r13\win\SUPPORT\ACAD
  9
$ELEVATION
 40
0.0
  9
$PELEVATION
 40
0.0
  9
$THICKNESS
 40
0.0
  9
$LIMCHECK
 70
     0
  9
$BLIPMODE
 70
     0
  9
$CHAMFERA
 40
1.1999999999999991
  9
$CHAMFERB
 40
1.1999999999999991
  9
$SKPOLY
 70
     0
  9
$TDCREATE
 40
2450136.592187616
  9
$TDUPDATE
 40
2456969.392682604
  9
$TDINDWG
 40
0.0131078588
  9
$TDUSRTIMER
 40
0.0131078588
  9
$USRTIMER
 70
     1
  9
$ANGBASE
 50
0.0
  9
$ANGDIR
 70
     0
  9
$PDMODE
 70
     0
  9
$PDSIZE
 40
0.0
  9
$PLINEWID
 40
0.0
  9
$COORDS
 70
     1
  9
$SPLFRAME
 70
     0
  9
$SPLINETYPE
 70
     6
  9
$SPLINESEGS
 70
     8
  9
$ATTDIA
 70
     0
  9
$ATTREQ
 70
     1
  9
$HANDLING
 70
     1
  9
$HANDSEED
  5
1A32
  9
$SURFTAB1
 70
     6
  9
$SURFTAB2
 70
     6
  9
$SURFTYPE
 70
     6
  9
$SURFU
 70
     6
  9
$SURFV
 70
     6
  9
$UCSNAME
  2

  9
$UCSORG
 10
0.0
 20
0.0
 30
0.0
  9
$UCSXDIR
 10
1.0
 20
0.0
 30
0.0
  9
$UCSYDIR
 10
0.0
 20
1.0
 30
0.0
  9
$PUCSNAME
  2

  9
$PUCSORG
 10
0.0
 20
0.0
 30
0.0
  9
$PUCSXDIR
 10
1.0
 20
0.0
 30
0.0
  9
$PUCSYDIR
 10
0.0
 20
1.0
 30
0.0
  9
$USERI1
 70
     0
  9
$USERI2
 70
     1
  9
$USERI3
 70
     0
  9
$USERI4
 70
     0
  9
$USERI5
 70
     0
  9
$USERR1
 40
0.0
  9
$USERR2
 40
0.0
  9
$USERR3
 40
0.0
  9
$USERR4
 40
0.0
  9
$USERR5
 40
0.0
  9
$WORLDVIEW
 70
     1
  9
$SHADEDGE
 70
     3
  9
$SHADEDIF
 70
    70
  9
$TILEMODE
 70
     1
  9
$MAXACTVP
 70
    16
  9
$PLIMCHECK
 70
     0
  9
$PEXTMIN
 10
1.0000000000000000E+020
 20
1.0000000000000000E+020
 30
1.0000000000000000E+020
  9
$PEXTMAX
 10
-1.0000000000000000E+020
 20
-1.0000000000000000E+020
 30
-1.0000000000000000E+020
  9
$PLIMMIN
 10
0.0
 20
0.0
  9
$PLIMMAX
 10
12.0
 20
9.0
  9
$UNITMODE
 70
     0
  9
$VISRETAIN
 70
     0
  9
$PLINEGEN
 70
     0
  9
$PSLTSCALE
 70
     0
  0
ENDSEC
  0
SECTION
  2
TABLES
  0
TABLE
  2
VPORT
 70
     1
  0
VPORT
  2
*ACTIVE
 70
     0
 10
0.0
 20
0.0
 11
1.0
 21
1.0
 12
235.63977746870651
 22
135.0
 13
0.0
 23
0.0
 14
10.0
 24
10.0
 15
10.0
 25
10.0
 16
0.0
 26
0.0
 36
1.0
 17
0.0
 27
0.0
 37
0.0
 40
270.0
 41
1.7454798331015291
 42
50.0
 43
0.0
 44
0.0
 50
0.0
 51
0.0
 71
     0
 72
   500
 73
     1
 74
     0
 75
     0
 76
     0
 77
     0
 78
     2
  0
ENDTAB
  0
TABLE
  2
LTYPE
 70
     5
  0
LTYPE
  2
CONTINUOUS
 70
     0
  3
Solid Line
 72
    65
 73
     0
 40
0.0
  0
LTYPE
  2
CENTER
 70
     0
  3
____ _ ____ _ ____ _ ____ _ ____ _ ____ _ ____
 72
    65
 73
     4
 40
2.0
 49
1.25
 49
-0.25
 49
0.25
 49
-0.25
  0
LTYPE
  2
PHANTOM2
 70
     0
  3
___ _ _ ___ _ _ ___ _ _ ___ _ _
 72
    65
 73
     6
 40
1.25
 49
0.625
 49
-0.125
 49
0.125
 49
-0.125
 49
0.125
 49
-0.125
  0
LTYPE
  2
PHANTOM
 70
     0
  3
_____ _ _ _____ _ _ _____ _ _ _____ _ _ ____
 72
    65
 73
     6
 40
2.5
 49
1.25
 49
-0.25
 49
0.25
 49
-0.25
 49
0.25
 49
-0.25
  0
LTYPE
  2
HIDDEN
 70
     0
  3
_ _ _ _ _ _ _ _ _ _ _ _ _ _ _ _ _ _ _ _ _ _ _
 72
    65
 73
     2
 40
0.375
 49
0.25
 49
-0.125
  0
ENDTAB
  0
TABLE
  2
LAYER
 70
     6
  0
LAYER
  2
0
 70
     0
 62
     7
  6
CONTINUOUS
  0
LAYER
  2
1
 70
     0
 62
     1
  6
CENTER
  0
LAYER
  2
3
 70
     0
 62
     3
  6
CONTINUOUS
  0
LAYER
  2
DEFPOINTS
 70
     0
 62
     7
  6
CONTINUOUS
  0
LAYER
  2
5
 70
     0
 62
     3
  6
PHANTOM
  0
LAYER
  2
2
 70
     0
 62
     2
  6
HIDDEN
  0
ENDTAB
  0
TABLE
  2
STYLE
 70
     2
  0
STYLE
  2
STANDARD
 70
     0
 40
0.0
 41
1.0
 50
0.0
 71
     0
 42
4.000000000000048
  3
SIMPLEX
  4
BIGFONT
  0
STYLE
  2
STANDARD1
 70
     0
 40
0.0
 41
1.0
 50
0.0
 71
     0
 42
3.0
  3
txt
  4

  0
ENDTAB
  0
TABLE
  2
VIEW
 70
     2
  0
VIEW
  2
ALL
 70
     0
 40
270.33333333333331
 10
220.8717648550103
 20
134.83333333333329
 41
441.74352971002048
 11
0.0
 21
0.0
 31
1.0
 12
0.0
 22
0.0
 32
0.0
 42
50.0
 43
0.0
 44
0.0
 50
0.0
 71
     0
  0
VIEW
  2
OLE1
 70
     0
 40
304.80310992263469
 10
609.48020153847733
 20
206.0721590797971
 41
375.67901379621122
 11
0.0
 21
0.0
 31
1.0
 12
0.0
 22
0.0
 32
0.0
 42
50.0
 43
0.0
 44
0.0
 50
0.0
 71
     0
  0
ENDTAB
  0
TABLE
  2
UCS
 70
     0
  0
ENDTAB
  0
TABLE
  2
APPID
 70
    39
  0
APPID
  2
ACAD
 70
     0
  0
APPID
  2
ACAD_MLEADERVER
 70
     0
  0
APPID
  2
DCO15
 70
     0
  0
APPID
  2
GENIUS_GENOREF_13
 70
     0
  0
APPID
  2
GENIUS_GENOENT_13
 70
     0
  0
APPID
  2
GENIUS_GENBH_13
 70
     0
  0
APPID
  2
GENIUS_GENOBJ_13
 70
     0
  0
APPID
  2
GENIUS_GENODEF_13
 70
     0
  0
APPID
  2
GENIUS_GENOLIS_13
 70
     0
  0
APPID
  2
GENIUS_GENOBJ-NBEHI-BHF_13
 70
     0
  0
APPID
  2
GENIUS_GENOBJ-NBEHI-BHB_13
 70
     0
  0
APPID
  2
GENIUS_GENOBJ-F-PART_13
 70
     0
  0
APPID
  2
GENIUS_GEFSTDP_13
 70
     0
  0
APPID
  2
GENIUS_GENOBJ-N-RSSYM_13
 70
     0
  0
APPID
  2
GENIUS_GENSYMENT_13
 70
     0
  0
APPID
  2
GENIUS_GENOBJ-N-TIT_13
 70
     0
  0
APPID
  2
GENIUS_GENTITLE_13
 70
     0
  0
APPID
  2
GENIUS_GENZVEED_13
 70
     0
  0
APPID
  2
GENIUS_GENOBJ-N-LEADER_13
 70
     0
  0
APPID
  2
GENIUS_GENOBJ-N-FIL_13
 70
     0
  0
APPID
  2
GENIUS_GENOBJ-N-SEC_13
 70
     0
  0
APPID
  2
GENIUS_GENOBJ-N-CRS_13
 70
     0
  0
APPID
  2
GENIUS_GENOBJ-N-ZOO_13
 70
     0
  0
APPID
  2
GENIUS_GENZOO_13
 70
     0
  0
APPID
  2
GENIUS_GENOBJ-F-TOL_13
 70
     0
  0
APPID
  2
GENIUS_GENFIL_13
 70
     0
  0
APPID
  2
GENIUS_GENOBJ-N-CHA_13
 70
     0
  0
APPID
  2
_CALL_MAC$
 70
     0
  0
APPID
  2
ASM_BASE
 70
     0
  0
APPID
  2
ASM_EXPLO_VER_2_00
 70
     0
  0
APPID
  2
ASM_CADM_VER_12_00
 70
     0
  0
APPID
  2
ASM_BASEFORO
 70
     0
  0
APPID
  2
ASM_BASETRAVI
 70
     0
  0
APPID
  2
ASM_BASETRAVI1
 70
     0
  0
APPID
  2
ASM_GRUPPI
 70
     0
  0
APPID
  2
ASM_CADM_ALBERO
 70
     0
  0
APPID
  2
ASM_GOLE
 70
     0
  0
APPID
  2
ACAD_NAV_VCDISPLAY
 70
     0
  0
APPID
  2
ACAD_EXEMPT_FROM_CAD_STANDARDS
 70
     0
  0
ENDTAB
  0
TABLE
  2
DIMSTYLE
 70
     1
  0
DIMSTYLE
  2
STANDARD
 70
     0
  3

  4

  5

  6

  7

 40
1.0
 41
0.18
 42
0.0625
 43
0.38
 44
0.18
 45
0.0
 46
0.0
 47
0.0
 48
0.0
140
0.18
141
0.09
142
0.0
143
25.399999999999999
144
1.0
145
0.0
146
1.0
147
0.09
 71
     0
 72
     0
 73
     1
 74
     1
 75
     0
 76
     0
 77
     0
 78
     0
170
     0
171
     2
172
     0
173
     0
174
     0
175
     0
176
     0
177
     0
178
     0
  0
ENDTAB
  0
ENDSEC
  0
SECTION
  2
BLOCKS
  0
BLOCK
  8
0
  2
$MODEL_SPACE
 70
     0
 10
0.0
 20
0.0
 30
0.0
  3
$MODEL_SPACE
  1

  0
ENDBLK
  5
1B4
  8
0
  0
BLOCK
 67
     1
  8
0
  2
$PAPER_SPACE
 70
     0
 10
0.0
 20
0.0
 30
0.0
  3
$PAPER_SPACE
  1

  0
ENDBLK
  5
1B2
 67
     1
  8
0
  0
ENDSEC
  0
SECTION
  2
ENTITIES
  0
ARC
  5
D3
  8
0
 10
340.99999999999989
 20
86.0
 30
0.0
 40
4.0
 50
90.0
 51
180.0
  0
LINE
  5
D4
  8
0
 10
336.99999999999989
 20
62.0
 30
0.0
 11
376.99999999999989
 21
62.0
 31
0.0
  0
ARC
  5
D5
  8
0
 10
372.99999999999989
 20
86.0
 30
0.0
 40
4.0
 50
0.0
 51
90.0
  0
LINE
  5
D6
  8
0
 10
372.99999999999989
 20
90.0
 30
0.0
 11
340.99999999999989
 21
90.0
 31
0.0
  0
LINE
  5
D7
  8
1
 10
356.99999999999989
 20
55.0
 30
0.0
 11
356.99999999999989
 21
103.0
 31
0.0
  0
LINE
  5
D8
  8
0
 10
338.15470099999982
 20
60.0
 30
0.0
 11
375.8452989999999
 21
60.0
 31
0.0
  0
LINE
  5
D9
  8
0
 10
376.99999999999989
 20
62.0
 30
0.0
 11
376.99999999999989
 21
94.0
 31
0.0
  0
LINE
  5
DA
  8
0
 10
372.99999999999989
 20
98.0
 30
0.0
 11
340.99999999999989
 21
98.0
 31
0.0
  0
ARC
  5
DB
  8
0
 10
372.99999999999989
 20
94.0
 30
0.0
 40
4.0
 50
0.0
 51
90.0
  0
LINE
  5
DC
  8
0
 10
376.99999999999989
 20
62.0
 30
0.0
 11
375.8452989999999
 21
60.0
 31
0.0
  0
LINE
  5
DD
  8
0
 10
336.99999999999989
 20
62.0
 30
0.0
 11
336.99999999999989
 21
94.0
 31
0.0
  0
LINE
  5
DE
  8
0
 10
336.99999999999989
 20
62.0
 30
0.0
 11
338.15470099999982
 21
60.0
 31
0.0
  0
ARC
  5
DF
  8
0
 10
340.99999999999989
 20
94.0
 30
0.0
 40
4.0
 50
90.0
 51
180.0
  0
TEXT
  5
269
  8
0
 62
     3
 10
0.0
 20
0.0
 30
0.0
 40
10.0
  1
BJ102-16130
  7
STANDARD1
  0
CIRCLE
  5
D08
  8
0
 10
239.50000000000011
 20
168.0
 30
0.0
 40
12.5
  0
CIRCLE
  5
D1A
  8
0
 10
239.50000000000011
 20
168.0
 30
0.0
 40
8.5
  0
LINE
  5
D1B
  8
5
 10
163.9999999999998
 20
76.5
 30
0.0
 11
164.49999999999989
 21
76.0
 31
0.0
  0
LINE
  5
D1C
  8
5
 10
163.9999999999998
 20
111.5
 30
0.0
 11
164.49999999999989
 21
112.0
 31
0.0
  0
LINE
  5
D1D
  8
0
 10
149.99999999999989
 20
62.5
 30
0.0
 11
150.49999999999989
 21
62.0
 31
0.0
  0
LINE
  5
D1E
  8
0
 10
149.99999999999989
 20
97.5
 30
0.0
 11
150.49999999999989
 21
98.0
 31
0.0
  0
LINE
  5
D38
  8
1
 10
79.999999999999943
 20
55.0
 30
0.0
 11
79.999999999999943
 21
103.0
 31
0.0
  0
LINE
  5
D39
  8
0
 10
61.154700538379132
 20
60.0
 30
0.0
 11
98.845299461620641
 21
60.0
 31
0.0
  0
LINE
  5
D3A
  8
0
 10
99.999999999999943
 20
62.0
 30
0.0
 11
99.999999999999943
 21
94.0
 31
0.0
  0
LINE
  5
D3B
  8
0
 10
95.999999999999943
 20
98.0
 30
0.0
 11
63.99999999999995
 21
98.0
 31
0.0
  0
ARC
  5
D3C
  8
0
 10
95.999999999999943
 20
94.0
 30
0.0
 40
4.0
 50
0.0
 51
90.0
  0
LINE
  5
D3D
  8
0
 10
60.999999999999943
 20
62.0
 30
0.0
 11
98.999999999999943
 21
62.0
 31
0.0
  0
LINE
  5
D3E
  8
0
 10
99.999999999999943
 20
62.0
 30
0.0
 11
98.845299461620641
 21
60.0
 31
0.0
  0
LINE
  5
D3F
  8
0
 10
98.999999999999943
 20
62.0
 30
0.0
 11
99.999999999999943
 21
63.0
 31
0.0
  0
LINE
  5
D40
  8
0
 10
60.999999999999943
 20
62.0
 30
0.0
 11
59.999999999999943
 21
63.0
 31
0.0
  0
LINE
  5
D41
  8
0
 10
59.999999999999943
 20
62.0
 30
0.0
 11
59.999999999999943
 21
94.0
 31
0.0
  0
LINE
  5
D42
  8
0
 10
59.999999999999943
 20
62.0
 30
0.0
 11
61.154700538379132
 21
60.0
 31
0.0
  0
ARC
  5
D43
  8
0
 10
63.99999999999995
 20
94.0
 30
0.0
 40
4.0
 50
90.0
 51
180.0
  0
LINE
  5
D44
  8
0
 10
83.999999999999943
 20
62.0
 30
0.0
 11
83.999999999999943
 21
98.0
 31
0.0
  0
LINE
  5
D45
  8
0
 10
75.999999999999943
 20
62.0
 30
0.0
 11
75.999999999999943
 21
98.0
 31
0.0
  0
CIRCLE
  5
D46
  8
0
 10
91.999999999999929
 20
79.0
 30
0.0
 40
5.5
  0
LINE
  5
D47
  8
1
 10
83.999999999999943
 20
79.0
 30
0.0
 11
99.999999999999943
 21
79.0
 31
0.0
  0
LINE
  5
D48
  8
1
 10
91.999999999999929
 20
87.0
 30
0.0
 11
91.999999999999929
 21
71.0
 31
0.0
  0
CIRCLE
  5
D49
  8
0
 10
67.999999999999943
 20
79.0
 30
0.0
 40
5.5
  0
LINE
  5
D4A
  8
1
 10
67.999999999999943
 20
87.0
 30
0.0
 11
67.999999999999943
 21
71.0
 31
0.0
  0
LINE
  5
D4B
  8
1
 10
75.999999999999943
 20
79.0
 30
0.0
 11
59.999999999999943
 21
79.0
 31
0.0
  0
CIRCLE
  5
D4C
  8
0
 10
67.999999999999943
 20
79.0
 30
0.0
 40
5.0
  0
CIRCLE
  5
D4D
  8
0
 10
91.999999999999929
 20
79.0
 30
0.0
 40
5.0
  0
LINE
  5
D4E
  8
0
 10
89.499999999999602
 20
80.443375672973843
 30
0.0
 11
89.500000000000171
 21
77.556624327026157
 31
0.0
  0
LINE
  5
D4F
  8
0
 10
91.999999999999929
 20
81.886751345948255
 30
0.0
 11
89.499999999999602
 21
80.443375672973843
 31
0.0
  0
LINE
  5
D50
  8
0
 10
94.499999999999929
 20
80.443375672974753
 30
0.0
 11
91.999999999999929
 21
81.886751345948255
 31
0.0
  0
LINE
  5
D51
  8
0
 10
94.499999999999929
 20
77.556624327026157
 30
0.0
 11
94.499999999999929
 21
80.443375672974753
 31
0.0
  0
LINE
  5
D52
  8
0
 10
92.000000000000171
 20
76.113248654052086
 30
0.0
 11
94.499999999999929
 21
77.556624327026157
 31
0.0
  0
LINE
  5
D53
  8
0
 10
89.500000000000171
 20
77.556624327026157
 30
0.0
 11
92.000000000000171
 21
76.113248654052086
 31
0.0
  0
LINE
  5
D54
  8
0
 10
65.499999999999602
 20
80.443375672973843
 30
0.0
 11
65.500000000000171
 21
77.556624327026157
 31
0.0
  0
LINE
  5
D55
  8
0
 10
67.999999999999943
 20
81.886751345948255
 30
0.0
 11
65.499999999999602
 21
80.443375672973843
 31
0.0
  0
LINE
  5
D56
  8
0
 10
70.499999999999943
 20
80.443375672974753
 30
0.0
 11
67.999999999999943
 21
81.886751345948255
 31
0.0
  0
LINE
  5
D57
  8
0
 10
70.499999999999943
 20
77.556624327026157
 30
0.0
 11
70.499999999999943
 21
80.443375672974753
 31
0.0
  0
LINE
  5
D58
  8
0
 10
68.000000000000171
 20
76.113248654052086
 30
0.0
 11
70.499999999999943
 21
77.556624327026157
 31
0.0
  0
LINE
  5
D59
  8
0
 10
65.500000000000171
 20
77.556624327026157
 30
0.0
 11
68.000000000000171
 21
76.113248654052086
 31
0.0
  0
LINE
  5
D60
  8
5
 10
164.49999999999989
 20
76.0
 30
0.0
 11
185.99999999999989
 21
76.0
 31
0.0
  0
LINE
  5
D61
  8
0
 10
149.99999999999989
 20
62.5
 30
0.0
 11
149.99999999999989
 21
97.5
 31
0.0
  0
LINE
  5
D62
  8
0
 10
164.99999999999989
 20
92.962988330808344
 30
0.0
 11
164.99999999999989
 21
69.0
 31
0.0
  0
LINE
  5
D63
  8
0
 10
164.99999999999989
 20
69.0
 30
0.0
 11
169.99999999999989
 21
69.0
 31
0.0
  0
LINE
  5
D64
  8
0
 10
169.99999999999989
 20
69.0
 30
0.0
 11
169.99999999999989
 21
62.0
 31
0.0
  0
LINE
  5
D65
  8
5
 10
163.9999999999998
 20
76.5
 30
0.0
 11
163.9999999999998
 21
111.5
 31
0.0
  0
LINE
  5
D66
  8
5
 10
211.31370849898471
 20
90.0
 30
0.0
 11
225.31370849898471
 21
104.0
 31
0.0
  0
LINE
  5
D67
  8
5
 10
199.99999999999989
 20
90.0
 30
0.0
 11
213.99999999999989
 21
104.0
 31
0.0
  0
LINE
  5
D68
  8
5
 10
225.31370849898471
 20
104.0
 30
0.0
 11
191.99999999999989
 21
104.0
 31
0.0
  0
LINE
  5
D69
  8
0
 10
150.49999999999989
 20
98.0
 30
0.0
 11
157.60392194562871
 21
98.0
 31
0.0
  0
ARC
  5
D6A
  8
0
 10
177.99999999999989
 20
120.0
 30
0.0
 40
30.000000000000011
 50
227.16657193393371
 51
270.0
  0
LINE
  5
D6B
  8
5
 10
164.49999999999989
 20
112.0
 30
0.0
 11
171.60392194562871
 21
112.0
 31
0.0
  0
ARC
  5
D6C
  8
5
 10
191.99999999999989
 20
134.0
 30
0.0
 40
30.000000000000011
 50
227.16657193393371
 51
270.0
  0
LINE
  5
D6D
  8
0
 10
149.99999999999989
 20
150.0
 30
0.0
 11
149.99999999999989
 21
164.0
 31
0.0
  0
ARC
  5
D6E
  8
0
 10
151.99999999999989
 20
186.0
 30
0.0
 40
2.0
 50
90.0
 51
180.0
  0
ARC
  5
D6F
  8
0
 10
151.99999999999989
 20
150.0
 30
0.0
 40
2.0
 50
180.0
 51
270.0
  0
LINE
  5
D70
  8
0
 10
149.99999999999989
 20
172.0
 30
0.0
 11
153.9999999999998
 21
168.0
 31
0.0
  0
LINE
  5
D71
  8
0
 10
153.9999999999998
 20
168.0
 30
0.0
 11
149.99999999999989
 21
164.0
 31
0.0
  0
LINE
  5
D72
  8
0
 10
149.99999999999989
 20
172.0
 30
0.0
 11
149.99999999999989
 21
186.0
 31
0.0
  0
LINE
  5
D73
  8
0
 10
157.60392194562851
 20
149.99999999999989
 30
0.0
 11
157.60392194562851
 21
185.99999999999989
 31
0.0
  0
LINE
  5
D74
  8
0
 10
164.99999999999989
 20
148.0
 30
0.0
 11
164.99999999999989
 21
188.0
 31
0.0
  0
LINE
  5
D75
  8
1
 10
144.99999999999989
 20
168.0
 30
0.0
 11
292.00000000000011
 21
168.0
 31
0.0
  0
LINE
  5
D76
  8
0
 10
151.99999999999989
 20
188.0
 30
0.0
 11
279.00000000000011
 21
188.0
 31
0.0
  0
LINE
  5
D77
  8
0
 10
287.00000000000011
 20
180.0
 30
0.0
 11
287.00000000000011
 21
156.0
 31
0.0
  0
LINE
  5
D78
  8
0
 10
279.00000000000011
 20
148.0
 30
0.0
 11
151.99999999999989
 21
148.0
 31
0.0
  0
LINE
  5
D79
  8
0
 10
200.00000000000011
 20
148.0
 30
0.0
 11
200.00000000000011
 21
157.61764973081051
 31
0.0
  0
LINE
  5
D7A
  8
0
 10
287.00000000000011
 20
62.0
 30
0.0
 11
287.00000000000011
 21
86.0
 31
0.0
  0
LINE
  5
D7B
  8
0
 10
283.00000000000011
 20
90.0
 30
0.0
 11
177.99999999999989
 21
90.0
 31
0.0
  0
ARC
  5
D7C
  8
0
 10
283.00000000000011
 20
86.0
 30
0.0
 40
4.0
 50
0.0
 51
90.0
  0
LINE
  5
D7D
  8
0
 10
150.49999999999989
 20
62.0
 30
0.0
 11
287.00000000000011
 21
62.0
 31
0.0
  0
LINE
  5
D7E
  8
0
 10
172.00000000000011
 20
62.0
 30
0.0
 11
200.00000000000011
 21
90.0
 31
0.0
  0
LINE
  5
D80
  8
0
 10
200.00000000000011
 20
178.3823502691896
 30
0.0
 11
211.31370849898471
 21
183.00115242270661
 31
0.0
  0
LINE
  5
D81
  8
0
 10
211.31370849898471
 20
183.00115242270661
 30
0.0
 11
211.31370849898471
 21
173.00000000000031
 31
0.0
  0
LINE
  5
D82
  8
0
 10
211.31370849898471
 20
152.99884757729339
 30
0.0
 11
200.00000000000011
 21
157.61764973081051
 31
0.0
  0
LINE
  5
D83
  8
0
 10
200.00000000000011
 20
178.3823502691896
 30
0.0
 11
200.00000000000011
 21
188.0
 31
0.0
  0
ARC
  5
D84
  8
3
 10
213.32832084837929
 20
171.34833256756841
 30
0.0
 40
12.00000000000003
 50
289.61927114432791
 51
317.9586686270186
  0
ARC
  5
D85
  8
3
 10
211.31371040633331
 20
176.99999999999969
 30
0.0
 40
17.999999999999829
 50
269.99998785744219
 51
289.61927114432791
  0
ARC
  5
D86
  8
3
 10
211.31371040633331
 20
159.0000000000002
 30
0.0
 40
17.999999999999829
 50
70.380728855672089
 51
90.000012142557793
  0
ARC
  5
D87
  8
3
 10
213.32832084837929
 20
164.65166743243159
 30
0.0
 40
12.00000000000003
 50
42.041331372981418
 51
70.380728855672089
  0
ARC
  5
D88
  8
3
 10
217.04163056034221
 20
168.0
 30
0.0
 40
7.0000000000003686
 50
317.9586686270186
 51
42.041331372981418
  0
ARC
  5
D89
  8
0
 10
213.0254574591919
 20
170.84496657269321
 30
0.0
 40
10.19600000400003
 50
289.61927114432791
 51
317.9586686270186
  0
ARC
  5
D8A
  8
0
 10
211.31371011959541
 20
175.64700000299979
 30
0.0
 40
15.29400000599985
 50
269.99998785744219
 51
289.61927114432791
  0
ARC
  5
D8B
  8
0
 10
211.31371011959541
 20
160.3529999970001
 30
0.0
 40
15.29400000599985
 50
70.380728855672089
 51
90.000012142557793
  0
ARC
  5
D8C
  8
0
 10
213.0254574591919
 20
165.15503342730659
 30
0.0
 40
10.19600000400003
 50
42.041331372981418
 51
70.380728855672089
  0
ARC
  5
D8D
  8
0
 10
216.1805329456941
 20
168.0
 30
0.0
 40
5.9476666690003137
 50
317.9586686270186
 51
42.041331372981418
  0
LINE
  5
D8E
  8
0
 10
211.31370849898471
 20
162.99999999999949
 30
0.0
 11
211.31370849898471
 21
152.99884757729339
 31
0.0
  0
LINE
  5
D8F
  8
1
 10
269.50000000000011
 20
183.5
 30
0.0
 11
269.50000000000011
 21
152.5
 31
0.0
  0
ARC
  5
D90
  8
0
 10
269.50000000000011
 20
168.0
 30
0.0
 40
13.0
 50
270.0
 51
90.0
  0
ARC
  5
D91
  8
0
 10
269.50000000000011
 20
168.0
 30
0.0
 40
8.5
 50
270.0
 51
90.0
  0
LINE
  5
D92
  8
1
 10
239.50000000000011
 20
183.5
 30
0.0
 11
239.50000000000011
 21
152.5
 31
0.0
  0
ARC
  5
D93
  8
0
 10
239.50000000000011
 20
168.0
 30
0.0
 40
13.0
 50
90.0
 51
270.0
  0
LINE
  5
D94
  8
0
 10
239.50000000000011
 20
181.0
 30
0.0
 11
269.50000000000011
 21
181.0
 31
0.0
  0
LINE
  5
D95
  8
0
 10
269.50000000000011
 20
176.5
 30
0.0
 11
248.6651513899115
 21
176.5
 31
0.0
  0
LINE
  5
D96
  8
0
 10
248.66515138991181
 20
159.5
 30
0.0
 11
269.50000000000011
 21
159.5
 31
0.0
  0
LINE
  5
D97
  8
0
 10
269.50000000000011
 20
155.0
 30
0.0
 11
239.50000000000011
 21
155.0
 31
0.0
  0
ARC
  5
D98
  8
0
 10
279.00000000000011
 20
180.0
 30
0.0
 40
8.0
 50
0.0
 51
90.0
  0
ARC
  5
D99
  8
0
 10
279.00000000000011
 20
156.0
 30
0.0
 40
8.0
 50
270.0
 51
0.0
  0
LINE
  5
D9A
  8
0
 10
196.00000000000011
 20
63.0
 30
0.0
 11
173.00000000000011
 21
63.0
 31
0.0
  0
LINE
  5
D9B
  8
0
 10
207.00000000000011
 20
67.0
 30
0.0
 11
271.50000000000011
 21
67.0
 31
0.0
  0
LINE
  5
D9C
  8
0
 10
274.50000000000011
 20
70.0
 30
0.0
 11
274.50000000000011
 21
78.0
 31
0.0
  0
ARC
  5
D9D
  8
0
 10
271.50000000000011
 20
70.0
 30
0.0
 40
3.0
 50
270.0
 51
0.0
  0
LINE
  5
D9E
  8
0
 10
215.00000000000011
 20
81.0
 30
0.0
 11
271.50000000000011
 21
81.0
 31
0.0
  0
ARC
  5
D9F
  8
0
 10
271.50000000000011
 20
78.0
 30
0.0
 40
3.0
 50
0.0
 51
90.0
  0
LINE
  5
DA0
  8
0
 10
204.87867965644031
 20
72.12132034355966
 30
0.0
 11
212.8786796564404
 21
80.12132034355966
 31
0.0
  0
ARC
  5
DA1
  8
0
 10
207.00000000000011
 20
70.0
 30
0.0
 40
3.0
 50
135.00000000000031
 51
270.0
  0
ARC
  5
DA2
  8
0
 10
215.00000000000011
 20
78.0
 30
0.0
 40
3.0
 50
90.0
 51
135.00000000000031
  0
LINE
  5
DA3
  8
0
 10
276.50000000000011
 20
70.0
 30
0.0
 11
276.50000000000011
 21
78.0
 31
0.0
  0
LINE
  5
DA4
  8
0
 10
215.00000000000011
 20
83.0
 30
0.0
 11
271.50000000000011
 21
83.0
 31
0.0
  0
LINE
  5
DA5
  8
0
 10
207.00000000000011
 20
65.0
 30
0.0
 11
271.50000000000011
 21
65.0
 31
0.0
  0
LINE
  5
DA6
  8
0
 10
203.46446609406749
 20
73.535533905932766
 30
0.0
 11
211.46446609406721
 21
81.535533905932766
 31
0.0
  0
ARC
  5
DA7
  8
0
 10
271.50000000000011
 20
70.0
 30
0.0
 40
5.0
 50
270.0
 51
0.0
  0
ARC
  5
DA8
  8
0
 10
271.50000000000011
 20
78.0
 30
0.0
 40
5.0
 50
0.0
 51
90.0
  0
ARC
  5
DA9
  8
0
 10
215.00000000000011
 20
78.0
 30
0.0
 40
5.0
 50
90.0
 51
135.00000000000031
  0
ARC
  5
DAA
  8
0
 10
207.00000000000011
 20
70.0
 30
0.0
 40
5.0
 50
135.00000000000031
 51
270.0
  0
LINE
  5
DAB
  8
1
 10
269.50000000000011
 20
92.5
 30
0.0
 11
269.50000000000011
 21
57.5
 31
0.0
  0
LINE
  5
DAC
  8
1
 10
239.50000000000011
 20
92.5
 30
0.0
 11
239.50000000000011
 21
57.5
 31
0.0
  0
ARC
  5
DAD
  8
0
 10
210.4499082282469
 20
170.12704871390471
 30
0.0
 40
7.000000000001247
 50
220.8799693967199
 51
253.2657265165362
  0
ARC
  5
DAE
  8
0
 10
211.31370849898471
 20
173.0000000000002
 30
0.0
 40
10.000000000000719
 50
253.2657265165362
 51
270.0
  0
ARC
  5
DAF
  8
0
 10
211.31370849898471
 20
162.99999999999949
 30
0.0
 40
10.000000000000719
 50
90.0
 51
106.7342734834637
  0
ARC
  5
DB0
  8
0
 10
210.4499082282469
 20
165.8729512860952
 30
0.0
 40
7.000000000001247
 50
106.7342734834637
 51
139.1200306032801
  0
ARC
  5
DB1
  8
0
 10
207.99264068711781
 20
168.0
 30
0.0
 40
3.749999999999488
 50
139.1200306032799
 51
220.8799693967199
  0
LINE
  5
E1A
  8
0
 10
287.00000000000011
 20
62.0
 30
0.0
 11
285.00000000000011
 21
60.0
 31
0.0
  0
LINE
  5
E1B
  8
0
 10
285.00000000000011
 20
60.0
 30
0.0
 11
283.0767949192433
 21
60.0
 31
0.0
  0
LINE
  5
E1C
  8
0
 10
283.0767949192433
 20
60.0
 30
0.0
 11
282.34641016151397
 21
61.265063509461129
 31
0.0
  0
LINE
  5
E1D
  8
0
 10
280.92320508075687
 20
60.0
 30
0.0
 11
281.65358983848631
 21
61.265063509461129
 31
0.0
  0
LINE
  5
E1E
  8
0
 10
280.92320508075687
 20
60.0
 30
0.0
 11
278.0767949192433
 21
60.0
 31
0.0
  0
ARC
  5
E1F
  8
0
 10
282.00000000000011
 20
61.06506350946119
 30
0.0
 40
0.4
 50
30.000000000000909
 51
149.99999999999909
  0
LINE
  5
E20
  8
0
 10
275.92320508075687
 20
60.0
 30
0.0
 11
273.0767949192433
 21
60.0
 31
0.0
  0
LINE
  5
E21
  8
0
 10
275.92320508075687
 20
60.0
 30
0.0
 11
276.65358983848631
 21
61.265063509461129
 31
0.0
  0
LINE
  5
E22
  8
0
 10
278.0767949192433
 20
60.0
 30
0.0
 11
277.34641016151397
 21
61.265063509461129
 31
0.0
  0
ARC
  5
E23
  8
0
 10
277.00000000000011
 20
61.06506350946119
 30
0.0
 40
0.4
 50
30.000000000000909
 51
149.99999999999909
  0
LINE
  5
E24
  8
0
 10
270.92320508075687
 20
60.0
 30
0.0
 11
268.0767949192433
 21
60.0
 31
0.0
  0
LINE
  5
E25
  8
0
 10
270.92320508075687
 20
60.0
 30
0.0
 11
271.6535898384862
 21
61.265063509461129
 31
0.0
  0
LINE
  5
E26
  8
0
 10
273.0767949192433
 20
60.0
 30
0.0
 11
272.34641016151397
 21
61.265063509461129
 31
0.0
  0
ARC
  5
E27
  8
0
 10
272.00000000000011
 20
61.06506350946119
 30
0.0
 40
0.4
 50
30.000000000000909
 51
149.99999999999909
  0
LINE
  5
E28
  8
0
 10
265.92320508075687
 20
60.0
 30
0.0
 11
263.0767949192433
 21
60.0
 31
0.0
  0
LINE
  5
E29
  8
0
 10
265.92320508075687
 20
60.0
 30
0.0
 11
266.65358983848631
 21
61.265063509461129
 31
0.0
  0
LINE
  5
E2A
  8
0
 10
268.0767949192433
 20
60.0
 30
0.0
 11
267.34641016151397
 21
61.265063509461129
 31
0.0
  0
ARC
  5
E2B
  8
0
 10
267.00000000000011
 20
61.06506350946119
 30
0.0
 40
0.4
 50
30.000000000000909
 51
149.99999999999909
  0
LINE
  5
E2C
  8
0
 10
260.92320508075687
 20
60.0
 30
0.0
 11
258.0767949192433
 21
60.0
 31
0.0
  0
LINE
  5
E2D
  8
0
 10
260.92320508075687
 20
60.0
 30
0.0
 11
261.65358983848631
 21
61.265063509461129
 31
0.0
  0
LINE
  5
E2E
  8
0
 10
263.0767949192433
 20
60.0
 30
0.0
 11
262.34641016151397
 21
61.265063509461129
 31
0.0
  0
ARC
  5
E2F
  8
0
 10
262.00000000000011
 20
61.06506350946119
 30
0.0
 40
0.4
 50
30.000000000000909
 51
149.99999999999909
  0
LINE
  5
E30
  8
0
 10
255.9232050807569
 20
60.0
 30
0.0
 11
253.0767949192433
 21
60.0
 31
0.0
  0
LINE
  5
E31
  8
0
 10
255.9232050807569
 20
60.0
 30
0.0
 11
256.6535898384862
 21
61.265063509461129
 31
0.0
  0
LINE
  5
E32
  8
0
 10
258.0767949192433
 20
60.0
 30
0.0
 11
257.34641016151397
 21
61.265063509461129
 31
0.0
  0
ARC
  5
E33
  8
0
 10
257.00000000000011
 20
61.06506350946119
 30
0.0
 40
0.4
 50
30.000000000000909
 51
149.99999999999909
  0
LINE
  5
E34
  8
0
 10
250.9232050807569
 20
60.0
 30
0.0
 11
248.0767949192433
 21
60.0
 31
0.0
  0
LINE
  5
E35
  8
0
 10
250.9232050807569
 20
60.0
 30
0.0
 11
251.65358983848631
 21
61.265063509461129
 31
0.0
  0
LINE
  5
E36
  8
0
 10
253.0767949192433
 20
60.0
 30
0.0
 11
252.346410161514
 21
61.265063509461129
 31
0.0
  0
ARC
  5
E37
  8
0
 10
252.00000000000011
 20
61.06506350946119
 30
0.0
 40
0.4
 50
30.000000000000909
 51
149.99999999999909
  0
LINE
  5
E38
  8
0
 10
245.9232050807569
 20
60.0
 30
0.0
 11
243.0767949192433
 21
60.0
 31
0.0
  0
LINE
  5
E39
  8
0
 10
245.9232050807569
 20
60.0
 30
0.0
 11
246.6535898384862
 21
61.265063509461129
 31
0.0
  0
LINE
  5
E3A
  8
0
 10
248.0767949192433
 20
60.0
 30
0.0
 11
247.346410161514
 21
61.265063509461129
 31
0.0
  0
ARC
  5
E3B
  8
0
 10
247.00000000000011
 20
61.06506350946119
 30
0.0
 40
0.4
 50
30.000000000000909
 51
149.99999999999909
  0
LINE
  5
E3C
  8
0
 10
240.9232050807569
 20
60.0
 30
0.0
 11
238.0767949192433
 21
60.0
 31
0.0
  0
LINE
  5
E3D
  8
0
 10
240.9232050807569
 20
60.0
 30
0.0
 11
241.65358983848631
 21
61.265063509461129
 31
0.0
  0
LINE
  5
E3E
  8
0
 10
243.0767949192433
 20
60.0
 30
0.0
 11
242.346410161514
 21
61.265063509461129
 31
0.0
  0
ARC
  5
E3F
  8
0
 10
242.00000000000011
 20
61.06506350946119
 30
0.0
 40
0.4
 50
30.000000000000909
 51
149.99999999999909
  0
LINE
  5
E40
  8
0
 10
235.9232050807569
 20
60.0
 30
0.0
 11
233.0767949192433
 21
60.0
 31
0.0
  0
LINE
  5
E41
  8
0
 10
235.9232050807569
 20
60.0
 30
0.0
 11
236.65358983848631
 21
61.265063509461129
 31
0.0
  0
LINE
  5
E42
  8
0
 10
238.0767949192433
 20
60.0
 30
0.0
 11
237.346410161514
 21
61.265063509461129
 31
0.0
  0
ARC
  5
E43
  8
0
 10
237.00000000000011
 20
61.06506350946119
 30
0.0
 40
0.4
 50
30.000000000000909
 51
149.99999999999909
  0
LINE
  5
E44
  8
0
 10
230.9232050807569
 20
60.0
 30
0.0
 11
228.0767949192433
 21
60.0
 31
0.0
  0
LINE
  5
E45
  8
0
 10
230.9232050807569
 20
60.0
 30
0.0
 11
231.6535898384862
 21
61.265063509461129
 31
0.0
  0
LINE
  5
E46
  8
0
 10
233.0767949192433
 20
60.0
 30
0.0
 11
232.346410161514
 21
61.265063509461129
 31
0.0
  0
ARC
  5
E47
  8
0
 10
232.00000000000011
 20
61.06506350946119
 30
0.0
 40
0.4
 50
30.000000000000909
 51
149.99999999999909
  0
LINE
  5
E48
  8
0
 10
225.9232050807569
 20
60.0
 30
0.0
 11
223.0767949192433
 21
60.0
 31
0.0
  0
LINE
  5
E49
  8
0
 10
225.9232050807569
 20
60.0
 30
0.0
 11
226.65358983848631
 21
61.265063509461129
 31
0.0
  0
LINE
  5
E4A
  8
0
 10
228.0767949192433
 20
60.0
 30
0.0
 11
227.346410161514
 21
61.265063509461129
 31
0.0
  0
ARC
  5
E4B
  8
0
 10
227.00000000000011
 20
61.06506350946119
 30
0.0
 40
0.4
 50
30.000000000000909
 51
149.99999999999909
  0
LINE
  5
E4C
  8
0
 10
220.9232050807569
 20
60.0
 30
0.0
 11
218.0767949192433
 21
60.0
 31
0.0
  0
LINE
  5
E4D
  8
0
 10
220.9232050807569
 20
60.0
 30
0.0
 11
221.6535898384862
 21
61.265063509461129
 31
0.0
  0
LINE
  5
E4E
  8
0
 10
223.0767949192433
 20
60.0
 30
0.0
 11
222.346410161514
 21
61.265063509461129
 31
0.0
  0
ARC
  5
E4F
  8
0
 10
222.00000000000011
 20
61.06506350946119
 30
0.0
 40
0.4
 50
30.000000000000909
 51
149.99999999999909
  0
LINE
  5
E50
  8
0
 10
215.9232050807569
 20
60.0
 30
0.0
 11
213.0767949192433
 21
60.0
 31
0.0
  0
LINE
  5
E51
  8
0
 10
215.9232050807569
 20
60.0
 30
0.0
 11
216.65358983848631
 21
61.265063509461129
 31
0.0
  0
LINE
  5
E52
  8
0
 10
218.0767949192433
 20
60.0
 30
0.0
 11
217.346410161514
 21
61.265063509461129
 31
0.0
  0
ARC
  5
E53
  8
0
 10
217.00000000000011
 20
61.06506350946119
 30
0.0
 40
0.4
 50
30.000000000000909
 51
149.99999999999909
  0
LINE
  5
E54
  8
0
 10
210.9232050807569
 20
60.0
 30
0.0
 11
208.0767949192433
 21
60.0
 31
0.0
  0
LINE
  5
E55
  8
0
 10
210.9232050807569
 20
60.0
 30
0.0
 11
211.65358983848631
 21
61.265063509461129
 31
0.0
  0
LINE
  5
E56
  8
0
 10
213.0767949192433
 20
60.0
 30
0.0
 11
212.346410161514
 21
61.265063509461129
 31
0.0
  0
ARC
  5
E57
  8
0
 10
212.00000000000011
 20
61.06506350946119
 30
0.0
 40
0.4
 50
30.000000000000909
 51
149.99999999999909
  0
LINE
  5
E58
  8
0
 10
205.9232050807569
 20
60.0
 30
0.0
 11
203.0767949192433
 21
60.0
 31
0.0
  0
LINE
  5
E59
  8
0
 10
205.9232050807569
 20
60.0
 30
0.0
 11
206.6535898384862
 21
61.265063509461129
 31
0.0
  0
LINE
  5
E5A
  8
0
 10
208.0767949192433
 20
60.0
 30
0.0
 11
207.346410161514
 21
61.265063509461129
 31
0.0
  0
ARC
  5
E5B
  8
0
 10
207.00000000000011
 20
61.06506350946119
 30
0.0
 40
0.4
 50
30.000000000000909
 51
149.99999999999909
  0
LINE
  5
E5C
  8
0
 10
200.9232050807569
 20
60.0
 30
0.0
 11
199.00000000000011
 21
60.0
 31
0.0
  0
LINE
  5
E5D
  8
0
 10
200.9232050807569
 20
60.0
 30
0.0
 11
201.65358983848631
 21
61.265063509461129
 31
0.0
  0
LINE
  5
E5E
  8
0
 10
203.0767949192433
 20
60.0
 30
0.0
 11
202.346410161514
 21
61.265063509461129
 31
0.0
  0
ARC
  5
E5F
  8
0
 10
202.00000000000011
 20
61.06506350946119
 30
0.0
 40
0.4
 50
30.000000000000909
 51
149.99999999999909
  0
LINE
  5
E60
  8
0
 10
196.00000000000011
 20
63.0
 30
0.0
 11
199.00000000000011
 21
60.0
 31
0.0
  0
LINE
  5
104E
  8
5
 10
178.9999999999996
 20
106.9629883308086
 30
0.0
 11
178.9999999999996
 21
83.000000000000298
 31
0.0
  0
POLYLINE
  5
1697
  8
3
 66
     1
 10
0.0
 20
0.0
 30
0.0
 70
     1
1001
ACAD
1000
ASC_BOUNDS
1002
{
1070
    19
1005
1696
1002
}
  0
VERTEX
  5
19CE
  8
3
 10
261.15196609406752
 20
74.0
 30
0.0
 42
1.0
  0
VERTEX
  5
19CF
  8
3
 10
263.77696609406752
 20
74.0
 30
0.0
 42
1.0
  0
SEQEND
  5
19D0
  8
3
  0
POLYLINE
  5
1698
  8
3
 66
     1
 10
0.0
 20
0.0
 30
0.0
 70
     1
1001
ACAD
1000
ASC_BOUNDS
1002
{
1070
    19
1005
1696
1002
}
  0
VERTEX
  5
19D1
  8
3
 10
265.96446609406718
 20
74.0
 30
0.0
 42
1.0
  0
VERTEX
  5
19D2
  8
3
 10
258.9644660940674
 20
74.0
 30
0.0
 42
1.0
  0
SEQEND
  5
19D3
  8
3
  0
POLYLINE
  5
1699
  8
3
 66
     1
 10
0.0
 20
0.0
 30
0.0
 70
     1
1001
ACAD
1000
ASC_BOUNDS
1002
{
1070
    19
1005
1696
1002
}
  0
VERTEX
  5
19D4
  8
3
 10
232.9936327607339
 20
76.352655075262703
 30
0.0
  0
VERTEX
  5
19D5
  8
3
 10
232.9936327607339
 20
77.647344924736274
 30
0.0
 42
0.1238822414942591
  0
VERTEX
  5
19D6
  8
3
 10
231.320987006021
 20
76.999999999999488
 30
0.0
 42
0.1238822414942589
  0
SEQEND
  5
19D7
  8
3
  0
POLYLINE
  5
169A
  8
3
 66
     1
 10
0.0
 20
0.0
 30
0.0
 70
     1
1001
ACAD
1000
ASC_BOUNDS
1002
{
1070
    19
1005
1696
1002
}
  0
VERTEX
  5
19D8
  8
3
 10
235.56627851544761
 20
76.999999999999488
 30
0.0
 42
0.1238822414942568
  0
VERTEX
  5
19D9
  8
3
 10
233.8936327607347
 20
77.647344924736274
 30
0.0
  0
VERTEX
  5
19DA
  8
3
 10
233.8936327607347
 20
76.35265507526276
 30
0.0
 42
0.1238822414942573
  0
SEQEND
  5
19DB
  8
3
  0
POLYLINE
  5
169B
  8
3
 66
     1
 10
0.0
 20
0.0
 30
0.0
 70
     1
1001
ACAD
1000
ASC_BOUNDS
1002
{
1070
    19
1005
1696
1002
}
  0
VERTEX
  5
19DC
  8
3
 10
232.9936327607339
 20
73.181846591395299
 30
0.0
 42
-0.0420571628960909
  0
VERTEX
  5
19DD
  8
3
 10
232.79432935474401
 20
72.452909732632975
 30
0.0
 42
-0.0111573747896638
  0
VERTEX
  5
19DE
  8
3
 10
232.9936327607339
 20
72.477443466980617
 30
0.0
  0
SEQEND
  5
19DF
  8
3
  0
POLYLINE
  5
169C
  8
3
 66
     1
 10
0.0
 20
0.0
 30
0.0
 70
     1
1001
ACAD
1000
ASC_BOUNDS
1002
{
1070
    19
1005
1696
1002
}
  0
VERTEX
  5
19E0
  8
3
 10
233.8936327607347
 20
73.549999999999613
 30
0.0
  0
VERTEX
  5
19E1
  8
3
 10
233.8936327607347
 20
72.477443466980617
 30
0.0
 42
-0.1402251973297237
  0
VERTEX
  5
19E2
  8
3
 10
236.19352973589989
 20
71.562031250000473
 30
0.0
 42
0.1517967807321737
  0
VERTEX
  5
19E3
  8
3
 10
237.09097768547059
 20
73.549999999999613
 30
0.0
  0
SEQEND
  5
19E4
  8
3
  0
POLYLINE
  5
169D
  8
3
 66
     1
 10
0.0
 20
0.0
 30
0.0
 70
     1
1001
ACAD
1000
ASC_BOUNDS
1002
{
1070
    19
1005
1696
1002
}
  0
VERTEX
  5
19E5
  8
3
 10
237.09097768547059
 20
74.45000000000033
 30
0.0
 42
0.1517967807321736
  0
VERTEX
  5
19E6
  8
3
 10
236.19352973589989
 20
76.43796874999947
 30
0.0
 42
-0.1402251973297237
  0
VERTEX
  5
19E7
  8
3
 10
233.8936327607347
 20
75.522556533019255
 30
0.0
  0
VERTEX
  5
19E8
  8
3
 10
233.8936327607347
 20
74.45000000000033
 30
0.0
  0
SEQEND
  5
19E9
  8
3
  0
POLYLINE
  5
169E
  8
3
 66
     1
 10
0.0
 20
0.0
 30
0.0
 70
     1
1001
ACAD
1000
ASC_BOUNDS
1002
{
1070
    19
1005
1696
1002
}
  0
VERTEX
  5
19EA
  8
3
 10
244.52696609406749
 20
70.5
 30
0.0
  0
VERTEX
  5
19EB
  8
3
 10
244.52696609406749
 20
74.65625
 30
0.0
 42
-1.0
  0
VERTEX
  5
19EC
  8
3
 10
245.83946609406749
 20
74.65625
 30
0.0
  0
VERTEX
  5
19ED
  8
3
 10
245.83946609406749
 20
70.5
 30
0.0
  0
VERTEX
  5
19EE
  8
3
 10
248.0269660940674
 20
70.5
 30
0.0
  0
VERTEX
  5
19EF
  8
3
 10
248.0269660940674
 20
74.65625
 30
0.0
 42
-1.0
  0
VERTEX
  5
19F0
  8
3
 10
249.3394660940674
 20
74.65625
 30
0.0
  0
VERTEX
  5
19F1
  8
3
 10
249.3394660940674
 20
70.5
 30
0.0
  0
VERTEX
  5
19F2
  8
3
 10
251.52696609406749
 20
70.5
 30
0.0
  0
VERTEX
  5
19F3
  8
3
 10
251.52696609406749
 20
74.65625
 30
0.0
 42
0.6247472440541069
  0
VERTEX
  5
19F4
  8
3
 10
246.93321609406749
 20
76.897770480053623
 30
0.0
 42
0.6247472440541069
  0
VERTEX
  5
19F5
  8
3
 10
242.33946609406749
 20
74.65625
 30
0.0
  0
VERTEX
  5
19F6
  8
3
 10
242.33946609406749
 20
70.5
 30
0.0
  0
SEQEND
  5
19F7
  8
3
  0
POLYLINE
  5
169F
  8
3
 66
     1
 10
0.0
 20
0.0
 30
0.0
 70
     1
1001
ACAD
1000
ASC_BOUNDS
1002
{
1070
    19
1005
1696
1002
}
  0
VERTEX
  5
19F8
  8
3
 10
232.9936327607339
 20
71.647344924737183
 30
0.0
 42
0.0479752760773671
  0
VERTEX
  5
19F9
  8
3
 10
232.30676553936371
 20
71.494732882636299
 30
0.0
 42
-0.0528997705207019
  0
VERTEX
  5
19FA
  8
3
 10
231.6978635299655
 20
70.766130059371335
 30
0.0
 42
0.0933324906988985
  0
VERTEX
  5
19FB
  8
3
 10
232.9936327607339
 20
70.352655075263669
 30
0.0
  0
SEQEND
  5
19FC
  8
3
  0
POLYLINE
  5
16A0
  8
3
 66
     1
 10
0.0
 20
0.0
 30
0.0
 70
     1
1001
ACAD
1000
ASC_BOUNDS
1002
{
1070
    19
1005
1696
1002
}
  0
VERTEX
  5
19FD
  8
3
 10
233.8936327607347
 20
71.647344924737183
 30
0.0
  0
VERTEX
  5
19FE
  8
3
 10
233.8936327607347
 20
70.352655075263669
 30
0.0
 42
0.1238822414942567
  0
VERTEX
  5
19FF
  8
3
 10
235.56627851544761
 20
71.000000000000398
 30
0.0
 42
0.1238822414942571
  0
SEQEND
  5
1A00
  8
3
  0
POLYLINE
  5
16A1
  8
3
 66
     1
 10
0.0
 20
0.0
 30
0.0
 70
     1
1001
ACAD
1000
ASC_BOUNDS
1002
{
1070
    19
1005
1696
1002
}
  0
VERTEX
  5
1A01
  8
3
 10
241.46446609406749
 20
77.5
 30
0.0
  0
VERTEX
  5
1A02
  8
3
 10
239.27696609406749
 20
77.5
 30
0.0
  0
VERTEX
  5
1A03
  8
3
 10
239.27696609406749
 20
70.5
 30
0.0
  0
VERTEX
  5
1A04
  8
3
 10
241.46446609406749
 20
70.5
 30
0.0
  0
SEQEND
  5
1A05
  8
3
  0
POLYLINE
  5
16A2
  8
3
 66
     1
 10
0.0
 20
0.0
 30
0.0
 70
     1
1001
ACAD
1000
ASC_BOUNDS
1002
{
1070
    19
1005
1696
1002
}
  0
VERTEX
  5
1A06
  8
3
 10
254.58946609406749
 20
72.031249999999943
 30
0.0
  0
VERTEX
  5
1A07
  8
3
 10
255.90196609406749
 20
72.03125
 30
0.0
  0
VERTEX
  5
1A08
  8
3
 10
255.90196609406749
 20
70.5
 30
0.0
  0
VERTEX
  5
1A09
  8
3
 10
258.08946609406752
 20
70.5
 30
0.0
  0
VERTEX
  5
1A0A
  8
3
 10
258.08946609406752
 20
74.65625
 30
0.0
 42
1.000000215936474
  0
VERTEX
  5
1A0B
  8
3
 10
252.40196609406749
 20
74.65625
 30
0.0
  0
VERTEX
  5
1A0C
  8
3
 10
252.40196609406749
 20
70.5
 30
0.0
  0
VERTEX
  5
1A0D
  8
3
 10
254.58946609406749
 20
70.499999999999943
 30
0.0
  0
SEQEND
  5
1A0E
  8
3
  0
POLYLINE
  5
16A3
  8
3
 66
     1
 10
0.0
 20
0.0
 30
0.0
 70
     1
1001
ACAD
1000
ASC_BOUNDS
1002
{
1070
    19
1005
1696
1002
}
  0
VERTEX
  5
1A0F
  8
3
 10
255.90196609406749
 20
73.78125
 30
0.0
  0
VERTEX
  5
1A10
  8
3
 10
255.90196609406749
 20
74.65625
 30
0.0
 42
1.0000004495664849
  0
VERTEX
  5
1A11
  8
3
 10
254.58946609406749
 20
74.65625
 30
0.0
  0
VERTEX
  5
1A12
  8
3
 10
254.58946609406749
 20
73.78125
 30
0.0
  0
SEQEND
  5
1A13
  8
3
  0
POLYLINE
  5
16A4
  8
3
 66
     1
 10
0.0
 20
0.0
 30
0.0
 70
     1
1001
ACAD
1000
ASC_BOUNDS
1002
{
1070
    19
1005
1696
1002
}
  0
VERTEX
  5
1A14
  8
3
 10
230.69373578556849
 20
76.437968749999413
 30
0.0
 42
0.1402251973297244
  0
VERTEX
  5
1A15
  8
3
 10
232.9936327607339
 20
75.522556533019255
 30
0.0
  0
VERTEX
  5
1A16
  8
3
 10
232.9936327607339
 20
74.45000000000033
 30
0.0
  0
VERTEX
  5
1A17
  8
3
 10
232.24363276073481
 20
74.45000000000033
 30
0.0
  0
VERTEX
  5
1A18
  8
3
 10
232.24363276073481
 20
74.0
 30
0.0
 42
-0.378699158263169
  0
VERTEX
  5
1A19
  8
3
 10
229.01863276073561
 20
70.352655075263669
 30
0.0
  0
VERTEX
  5
1A1A
  8
3
 10
229.01863276073561
 20
69.522556533020165
 30
0.0
 42
0.1186144156091118
  0
VERTEX
  5
1A1B
  8
3
 10
231.00613276073469
 20
70.217329812156194
 30
0.0
 42
1.834021909257185
  0
VERTEX
  5
1A1C
  8
3
 10
231.00613276073469
 20
77.782670187843792
 30
0.0
 42
1.26915442618927
  0
VERTEX
  5
1A1D
  8
3
 10
228.11863276073481
 20
69.522556533020165
 30
0.0
  0
VERTEX
  5
1A1E
  8
3
 10
228.11863276073481
 20
70.352655075263669
 30
0.0
 42
-0.3786991582631508
  0
VERTEX
  5
1A1F
  8
3
 10
224.89363276073561
 20
73.999999999999716
 30
0.0
  0
VERTEX
  5
1A20
  8
3
 10
224.89363276073561
 20
74.45000000000033
 30
0.0
  0
VERTEX
  5
1A21
  8
3
 10
225.71863276073501
 20
74.45000000000033
 30
0.0
  0
VERTEX
  5
1A22
  8
3
 10
225.71863276073501
 20
74.000000000000171
 30
0.0
 42
0.3684995607863874
  0
VERTEX
  5
1A23
  8
3
 10
228.11863276073481
 20
71.185750544105929
 30
0.0
  0
VERTEX
  5
1A24
  8
3
 10
228.11863276073481
 20
72.025633012836806
 30
0.0
 42
-0.3500011104183812
  0
VERTEX
  5
1A25
  8
3
 10
226.5436327607359
 20
74.0
 30
0.0
  0
VERTEX
  5
1A26
  8
3
 10
226.5436327607359
 20
74.45000000000033
 30
0.0
  0
VERTEX
  5
1A27
  8
3
 10
227.36863276073569
 20
74.45000000000033
 30
0.0
  0
VERTEX
  5
1A28
  8
3
 10
227.36863276073569
 20
73.999999999999886
 30
0.0
 42
0.9999989916437579
  0
VERTEX
  5
1A29
  8
3
 10
229.76863276073431
 20
73.999999165053893
 30
0.0
 42
-0.1833501526628178
  0
SEQEND
  5
1A2A
  8
3
  0
POLYLINE
  5
16A5
  8
3
 66
     1
 10
0.0
 20
0.0
 30
0.0
 70
     1
1001
ACAD
1000
ASC_BOUNDS
1002
{
1070
    19
1005
1696
1002
}
  0
VERTEX
  5
1A2B
  8
3
 10
231.41863276073551
 20
74.0
 30
0.0
  0
VERTEX
  5
1A2C
  8
3
 10
231.41863276073551
 20
74.45000000000033
 30
0.0
  0
VERTEX
  5
1A2D
  8
3
 10
230.59363276073429
 20
74.45000000000033
 30
0.0
  0
VERTEX
  5
1A2E
  8
3
 10
230.59363276073429
 20
74.0
 30
0.0
 42
-0.3500011104183828
  0
VERTEX
  5
1A2F
  8
3
 10
229.01863276073561
 20
72.025633012836806
 30
0.0
  0
VERTEX
  5
1A30
  8
3
 10
229.01863276073561
 20
71.185750544105929
 30
0.0
 42
0.3684995607863695
  0
SEQEND
  5
1A31
  8
3
  0
LINE
  5
16AE
  8
1
 10
147.49999999999989
 20
79.0
 30
0.0
 11
181.4999999999996
 21
79.0
 31
0.0
  0
LINE
  5
1929
  8
2
 10
282.50000000000011
 20
90.0
 30
0.0
 11
282.50000000000011
 21
73.0
 31
0.0
  0
LINE
  5
192A
  8
2
 10
278.00000000000011
 20
60.133012701892341
 30
0.0
 11
278.00000000000011
 21
73.0
 31
0.0
  0
LINE
  5
192B
  8
2
 10
252.00000000000011
 20
73.5
 30
0.0
 11
252.00000000000011
 21
76.5
 31
0.0
  0
LINE
  5
192C
  8
2
 10
251.50000000000011
 20
77.0
 30
0.0
 11
252.00000000000011
 21
76.5
 31
0.0
  0
LINE
  5
192D
  8
2
 10
227.00000000000011
 20
73.500000000000028
 30
0.0
 11
227.00000000000011
 21
76.5
 31
0.0
  0
LINE
  5
192E
  8
2
 10
226.50000000000011
 20
90.0
 30
0.0
 11
226.50000000000011
 21
73.0
 31
0.0
  0
LINE
  5
192F
  8
2
 10
231.00000000000011
 20
60.133012701892149
 30
0.0
 11
231.00000000000011
 21
73.0
 31
0.0
  0
LINE
  5
1930
  8
2
 10
282.50000000000011
 20
73.0
 30
0.0
 11
226.50000000000011
 21
73.0
 31
0.0
  0
LINE
  5
1931
  8
2
 10
251.50000000000011
 20
77.0
 30
0.0
 11
227.50000000000011
 21
77.0
 31
0.0
  0
LINE
  5
1932
  8
2
 10
227.00000000000011
 20
76.5
 30
0.0
 11
227.50000000000011
 21
77.0
 31
0.0
  0
LINE
  5
1933
  8
2
 10
251.50000000000011
 20
73.0
 30
0.0
 11
252.00000000000011
 21
73.5
 31
0.0
  0
LINE
  5
1934
  8
2
 10
227.00000000000011
 20
73.5
 30
0.0
 11
227.50000000000011
 21
73.0
 31
0.0
  0
ENDSEC
  0
EOF
