  0
SECTION
  2
HEADER
  9
$ACADVER
  1
AC1009
  9
$INSBASE
 10
0.0
 20
0.0
 30
0.0
  9
$EXTMIN
 10
0.0
 20
-2.960436562073669
 30
0.0
  9
$EXTMAX
 10
242.99999999999989
 20
86.000000000000057
 30
0.0
  9
$LIMMIN
 10
0.0
 20
0.0
  9
$LIMMAX
 10
187.5
 20
135.0
  9
$ORTHOMODE
 70
     1
  9
$REGENMODE
 70
     1
  9
$FILLMODE
 70
     1
  9
$QTEXTMODE
 70
     0
  9
$MIRRTEXT
 70
     0
  9
$DRAGMODE
 70
     2
  9
$LTSCALE
 40
5.0
  9
$OSMODE
 70
    37
  9
$ATTMODE
 70
     1
  9
$TEXTSIZE
 40
5.0
  9
$TRACEWID
 40
0.05
  9
$TEXTSTYLE
  7
STANDARD
  9
$CLAYER
  8
0
  9
$CELTYPE
  6
BYLAYER
  9
$CECOLOR
 62
   256
  9
$DIMSCALE
 40
0.5
  9
$DIMASZ
 40
3.0
  9
$DIMEXO
 40
2.0
  9
$DIMDLI
 40
0.38
  9
$DIMRND
 40
0.0
  9
$DIMDLE
 40
0.0
  9
$DIMEXE
 40
2.0
  9
$DIMTP
 40
0.0
  9
$DIMTM
 40
0.0
  9
$DIMTXT
 40
3.2000000000000002
  9
$DIMCEN
 40
0.0
  9
$DIMTSZ
 40
0.0
  9
$DIMTOL
 70
     0
  9
$DIMLIM
 70
     0
  9
$DIMTIH
 70
     0
  9
$DIMTOH
 70
     0
  9
$DIMSE1
 70
     0
  9
$DIMSE2
 70
     0
  9
$DIMTAD
 70
     1
  9
$DIMZIN
 70
     0
  9
$DIMBLK
  1

  9
$DIMASO
 70
     1
  9
$DIMSHO
 70
     0
  9
$DIMPOST
  1

  9
$DIMAPOST
  1

  9
$DIMALT
 70
     0
  9
$DIMALTD
 70
     2
  9
$DIMALTF
 40
25.399999999999999
  9
$DIMLFAC
 40
1.0
  9
$DIMTOFL
 70
     0
  9
$DIMTVP
 40
1.6000000000000001
  9
$DIMTIX
 70
     1
  9
$DIMSOXD
 70
     0
  9
$DIMSAH
 70
     0
  9
$DIMBLK1
  1

  9
$DIMBLK2
  1

  9
$DIMSTYLE
  2
STANDARD
  9
$DIMCLRD
 70
     0
  9
$DIMCLRE
 70
     0
  9
$DIMCLRT
 70
     0
  9
$DIMTFAC
 40
1.0
  9
$DIMGAP
 40
0.09
  9
$LUNITS
 70
     2
  9
$LUPREC
 70
     1
  9
$SKETCHINC
 40
0.1
  9
$FILLETRAD
 40
0.0
  9
$AUNITS
 70
     0
  9
$AUPREC
 70
     0
  9
$MENU
  1
E:\r13\win\SUPPORT\ACAD
  9
$ELEVATION
 40
0.0
  9
$PELEVATION
 40
0.0
  9
$THICKNESS
 40
0.0
  9
$LIMCHECK
 70
     0
  9
$BLIPMODE
 70
     0
  9
$CHAMFERA
 40
0.0
  9
$CHAMFERB
 40
0.0
  9
$SKPOLY
 70
     0
  9
$TDCREATE
 40
2449840.6020138888
  9
$TDUPDATE
 40
2456969.3924851161
  9
$TDINDWG
 40
0.0052597917
  9
$TDUSRTIMER
 40
0.0052597917
  9
$USRTIMER
 70
     1
  9
$ANGBASE
 50
0.0
  9
$ANGDIR
 70
     0
  9
$PDMODE
 70
     0
  9
$PDSIZE
 40
0.0
  9
$PLINEWID
 40
0.0
  9
$COORDS
 70
     1
  9
$SPLFRAME
 70
     0
  9
$SPLINETYPE
 70
     6
  9
$SPLINESEGS
 70
     8
  9
$ATTDIA
 70
     0
  9
$ATTREQ
 70
     1
  9
$HANDLING
 70
     1
  9
$HANDSEED
  5
6B5
  9
$SURFTAB1
 70
     6
  9
$SURFTAB2
 70
     6
  9
$SURFTYPE
 70
     6
  9
$SURFU
 70
     6
  9
$SURFV
 70
     6
  9
$UCSNAME
  2

  9
$UCSORG
 10
0.0
 20
0.0
 30
0.0
  9
$UCSXDIR
 10
1.0
 20
0.0
 30
0.0
  9
$UCSYDIR
 10
0.0
 20
1.0
 30
0.0
  9
$PUCSNAME
  2

  9
$PUCSORG
 10
0.0
 20
0.0
 30
0.0
  9
$PUCSXDIR
 10
1.0
 20
0.0
 30
0.0
  9
$PUCSYDIR
 10
0.0
 20
1.0
 30
0.0
  9
$USERI1
 70
     0
  9
$USERI2
 70
     1
  9
$USERI3
 70
     1
  9
$USERI4
 70
     0
  9
$USERI5
 70
     0
  9
$USERR1
 40
0.0
  9
$USERR2
 40
0.0
  9
$USERR3
 40
0.0
  9
$USERR4
 40
0.0
  9
$USERR5
 40
0.0
  9
$WORLDVIEW
 70
     1
  9
$SHADEDGE
 70
     3
  9
$SHADEDIF
 70
    70
  9
$TILEMODE
 70
     1
  9
$MAXACTVP
 70
    16
  9
$PLIMCHECK
 70
     0
  9
$PEXTMIN
 10
1.0000000000000000E+020
 20
1.0000000000000000E+020
 30
1.0000000000000000E+020
  9
$PEXTMAX
 10
-1.0000000000000000E+020
 20
-1.0000000000000000E+020
 30
-1.0000000000000000E+020
  9
$PLIMMIN
 10
0.0
 20
0.0
  9
$PLIMMAX
 10
12.0
 20
9.0
  9
$UNITMODE
 70
     0
  9
$VISRETAIN
 70
     0
  9
$PLINEGEN
 70
     0
  9
$PSLTSCALE
 70
     0
  0
ENDSEC
  0
SECTION
  2
TABLES
  0
TABLE
  2
VPORT
 70
     1
  0
VPORT
  2
*ACTIVE
 70
     0
 10
0.0
 20
0.0
 11
1.0
 21
1.0
 12
165.83078820990249
 22
95.0
 13
0.0
 23
0.0
 14
5.0
 24
5.0
 15
5.0
 25
5.0
 16
0.0
 26
0.0
 36
1.0
 17
0.0
 27
0.0
 37
0.0
 40
190.0974901744809
 41
1.7454798331015291
 42
50.0
 43
0.0
 44
0.0
 50
0.0
 51
0.0
 71
     0
 72
   500
 73
     1
 74
     0
 75
     0
 76
     0
 77
     0
 78
     2
  0
ENDTAB
  0
TABLE
  2
LTYPE
 70
     4
  0
LTYPE
  2
CONTINUOUS
 70
     0
  3
Solid Line
 72
    65
 73
     0
 40
0.0
  0
LTYPE
  2
CENTER
 70
     0
  3
____ _ ____ _ ____ _ ____ _ ____ _ ____ _ ____
 72
    65
 73
     4
 40
2.0
 49
1.25
 49
-0.25
 49
0.25
 49
-0.25
  0
LTYPE
  2
PHANTOM2
 70
     0
  3
___ _ _ ___ _ _ ___ _ _ ___ _ _
 72
    65
 73
     6
 40
1.25
 49
0.625
 49
-0.125
 49
0.125
 49
-0.125
 49
0.125
 49
-0.125
  0
LTYPE
  2
HIDDEN
 70
     0
  3
_ _ _ _ _ _ _ _ _ _ _ _ _ _ _ _ _ _ _ _ _ _ _
 72
    65
 73
     2
 40
0.375
 49
0.25
 49
-0.125
  0
ENDTAB
  0
TABLE
  2
LAYER
 70
     4
  0
LAYER
  2
0
 70
     0
 62
     7
  6
CONTINUOUS
  0
LAYER
  2
1
 70
     0
 62
     1
  6
CENTER
  0
LAYER
  2
3
 70
     0
 62
     3
  6
CONTINUOUS
  0
LAYER
  2
2
 70
     0
 62
     2
  6
HIDDEN
  0
ENDTAB
  0
TABLE
  2
STYLE
 70
     2
  0
STYLE
  2
STANDARD
 70
     0
 40
0.0
 41
1.0
 50
0.0
 71
     0
 42
5.0
  3
TXT
  4
BIGFONT
  0
STYLE
  2
STANDARD1
 70
     0
 40
0.0
 41
1.0
 50
0.0
 71
     0
 42
3.0
  3
txt
  4

  0
ENDTAB
  0
TABLE
  2
VIEW
 70
     1
  0
VIEW
  2
ALL
 70
     0
 40
175.0
 10
143.23529411764699
 20
87.5
 41
0.0
 11
0.0
 21
0.0
 31
1.0
 12
0.0
 22
0.0
 32
0.0
 42
0.0
 43
0.0
 44
0.0
 50
0.0
 71
     0
  0
ENDTAB
  0
TABLE
  2
UCS
 70
     0
  0
ENDTAB
  0
TABLE
  2
APPID
 70
     4
  0
APPID
  2
ACAD
 70
     0
  0
APPID
  2
ACAD_MLEADERVER
 70
     0
  0
APPID
  2
ACAD_NAV_VCDISPLAY
 70
     0
  0
APPID
  2
ACAD_EXEMPT_FROM_CAD_STANDARDS
 70
     0
  0
ENDTAB
  0
TABLE
  2
DIMSTYLE
 70
     1
  0
DIMSTYLE
  2
STANDARD
 70
     0
  3

  4

  5

  6

  7

 40
1.0
 41
0.18
 42
0.0625
 43
0.38
 44
0.18
 45
0.0
 46
0.0
 47
0.0
 48
0.0
140
0.18
141
0.09
142
0.0
143
25.399999999999999
144
1.0
145
0.0
146
1.0
147
0.09
 71
     0
 72
     0
 73
     1
 74
     1
 75
     0
 76
     0
 77
     0
 78
     0
170
     0
171
     2
172
     0
173
     0
174
     0
175
     0
176
     0
177
     0
178
     0
  0
ENDTAB
  0
ENDSEC
  0
SECTION
  2
BLOCKS
  0
BLOCK
  8
0
  2
$MODEL_SPACE
 70
     0
 10
0.0
 20
0.0
 30
0.0
  3
$MODEL_SPACE
  1

  0
ENDBLK
  5
10C
  8
0
  0
BLOCK
 67
     1
  8
0
  2
$PAPER_SPACE
 70
     0
 10
0.0
 20
0.0
 30
0.0
  3
$PAPER_SPACE
  1

  0
ENDBLK
  5
10A
 67
     1
  8
0
  0
ENDSEC
  0
SECTION
  2
ENTITIES
  0
LINE
  5
95
  8
0
 10
176.99999999999989
 20
60.962276879499413
 30
0.0
 11
176.99999999999989
 21
79.037722166826271
 31
0.0
  0
LINE
  5
96
  8
0
 10
151.0
 20
81.000000000000014
 30
0.0
 11
103.0
 21
81.000000000000028
 31
0.0
  0
LINE
  5
97
  8
0
 10
151.0
 20
59.000000000000021
 30
0.0
 11
103.0
 21
59.000000000000021
 31
0.0
  0
LINE
  5
98
  8
0
 10
103.0
 20
59.000000000000021
 30
0.0
 11
103.0
 21
81.000000000000028
 31
0.0
  0
LINE
  5
99
  8
0
 10
151.0
 20
59.000000000000021
 30
0.0
 11
151.0
 21
81.000000000000014
 31
0.0
  0
LINE
  5
9A
  8
0
 10
176.038433122101
 20
59.963016658542443
 30
0.0
 11
151.0
 21
59.000000000000021
 31
0.0
  0
LINE
  5
9B
  8
0
 10
176.038433122101
 20
80.036983341457585
 30
0.0
 11
151.0
 21
81.000000000000014
 31
0.0
  0
ARC
  5
9C
  8
0
 10
175.99999999999989
 20
79.037722166826271
 30
0.0
 40
1.0
 50
0.0
 51
87.797401838234663
  0
ARC
  5
9D
  8
0
 10
175.99999999999989
 20
60.962277833173729
 30
0.0
 40
1.0
 50
272.20259816176542
 51
0.0
  0
ARC
  5
9E
  8
0
 10
140.0
 20
70.000000000000014
 30
0.0
 40
40.0
 50
166.17754576195071
 51
193.82245423804929
  0
ARC
  5
9F
  8
0
 10
103.0
 20
79.103448275862092
 30
0.0
 40
1.8965517241379299
 50
90.0
 51
166.17754576195071
  0
ARC
  5
A0
  8
0
 10
103.0
 20
60.89655172413795
 30
0.0
 40
1.8965517241379299
 50
193.82245423804929
 51
270.0
  0
CIRCLE
  5
AA
  8
0
 10
226.99999999999989
 20
70.000000000000028
 30
0.0
 40
11.000000000000011
  0
LINE
  5
AB
  8
1
 10
210.99999999999989
 20
70.000000000000028
 30
0.0
 11
242.99999999999989
 21
70.000000000000028
 31
0.0
  0
LINE
  5
AC
  8
1
 10
226.99999999999989
 20
54.0
 30
0.0
 11
226.99999999999989
 21
86.000000000000028
 31
0.0
  0
LINE
  5
AD
  8
1
 10
181.99999999999989
 20
70.0
 30
0.0
 11
95.0
 21
70.000000000000028
 31
0.0
  0
CIRCLE
  5
AE
  8
0
 10
226.99999999999989
 20
70.000000000000028
 30
0.0
 40
9.9999999999999432
  0
CIRCLE
  5
B0
  8
3
 10
226.99999999999989
 20
70.000000000000028
 30
0.0
 40
5.0
  0
CIRCLE
  5
B1
  8
0
 10
226.99999999999989
 20
70.000000000000028
 30
0.0
 40
4.0000000000000142
  0
CIRCLE
  5
B2
  8
0
 10
50.0
 20
70.000000000000043
 30
0.0
 40
11.000000000000011
  0
LINE
  5
B3
  8
1
 10
50.0
 20
54.000000000000028
 30
0.0
 11
50.0
 21
86.000000000000057
 31
0.0
  0
LINE
  5
B4
  8
1
 10
34.0
 20
70.000000000000043
 30
0.0
 11
66.0
 21
70.000000000000043
 31
0.0
  0
TEXT
  5
1FC
  8
0
 62
     3
 10
0.0
 20
0.0
 30
0.0
 40
10.0
  1
BG10
  7
STANDARD1
  0
LINE
  5
4EA
  8
2
 10
175.80000000000041
 20
74.000000000000043
 30
0.0
 11
154.30940107675841
 21
74.000000000000043
 31
0.0
  0
LINE
  5
4EB
  8
2
 10
175.80000000000049
 20
65.999999999999957
 30
0.0
 11
175.80000000000049
 21
74.000000000000043
 31
0.0
  0
LINE
  5
4EC
  8
2
 10
154.30940107675841
 20
74.000000000000043
 30
0.0
 11
154.30940107675841
 21
65.999999999999957
 31
0.0
  0
LINE
  5
4ED
  8
2
 10
161.99999999999989
 20
75.000000000000071
 30
0.0
 11
161.99999999999989
 21
64.999999999999972
 31
0.0
  0
LINE
  5
4EE
  8
2
 10
151.99999999999989
 20
70.000000000000043
 30
0.0
 11
154.30940107675841
 21
74.000000000000043
 31
0.0
  0
LINE
  5
4EF
  8
2
 10
161.99999999999989
 20
75.000000000000043
 30
0.0
 11
160.2679491924309
 21
74.000000000000043
 31
0.0
  0
LINE
  5
4F1
  8
2
 10
176.8000000000001
 20
75.000000000000043
 30
0.0
 11
161.99999999999989
 21
75.000000000000043
 31
0.0
  0
LINE
  5
4F4
  8
2
 10
175.80000000000041
 20
74.000000000000043
 30
0.0
 11
176.99999999999989
 21
75.199999999999875
 31
0.0
  0
LINE
  5
57B
  8
2
 10
175.80000000000041
 20
65.999999999999957
 30
0.0
 11
154.30940107675841
 21
65.999999999999957
 31
0.0
  0
LINE
  5
57C
  8
2
 10
151.99999999999989
 20
69.999999999999957
 30
0.0
 11
154.30940107675841
 21
65.999999999999957
 31
0.0
  0
LINE
  5
57D
  8
2
 10
161.99999999999989
 20
64.999999999999957
 30
0.0
 11
160.2679491924309
 21
65.999999999999957
 31
0.0
  0
LINE
  5
57E
  8
2
 10
176.8000000000001
 20
64.999999999999957
 30
0.0
 11
161.99999999999989
 21
64.999999999999957
 31
0.0
  0
LINE
  5
57F
  8
2
 10
175.80000000000041
 20
65.999999999999957
 30
0.0
 11
176.99999999999989
 21
64.800000000000111
 31
0.0
  0
ENDSEC
  0
EOF
