  0
SECTION
  2
HEADER
  9
$ACADVER
  1
AC1009
  9
$INSBASE
 10
0.0
 20
0.0
 30
0.0
  9
$EXTMIN
 10
0.0
 20
-1.4802182810368341
 30
0.0
  9
$EXTMAX
 10
93.175265103353297
 20
63.485341818522237
 30
0.0
  9
$LIMMIN
 10
0.0
 20
0.0
  9
$LIMMAX
 10
187.5
 20
135.0
  9
$ORTHOMODE
 70
     1
  9
$REGENMODE
 70
     1
  9
$FILLMODE
 70
     1
  9
$QTEXTMODE
 70
     0
  9
$MIRRTEXT
 70
     0
  9
$DRAGMODE
 70
     2
  9
$LTSCALE
 40
5.0
  9
$OSMODE
 70
  3071
  9
$ATTMODE
 70
     1
  9
$TEXTSIZE
 40
0.2
  9
$TRACEWID
 40
0.05
  9
$TEXTSTYLE
  7
STANDARD
  9
$CLAYER
  8
0
  9
$CELTYPE
  6
BYLAYER
  9
$CECOLOR
 62
   256
  9
$DIMSCALE
 40
0.5
  9
$DIMASZ
 40
3.0
  9
$DIMEXO
 40
2.0
  9
$DIMDLI
 40
10.0
  9
$DIMRND
 40
0.0
  9
$DIMDLE
 40
0.0
  9
$DIMEXE
 40
2.0
  9
$DIMTP
 40
0.0
  9
$DIMTM
 40
0.0
  9
$DIMTXT
 40
3.2000000000000002
  9
$DIMCEN
 40
0.09
  9
$DIMTSZ
 40
0.0
  9
$DIMTOL
 70
     0
  9
$DIMLIM
 70
     0
  9
$DIMTIH
 70
     0
  9
$DIMTOH
 70
     0
  9
$DIMSE1
 70
     0
  9
$DIMSE2
 70
     0
  9
$DIMTAD
 70
     1
  9
$DIMZIN
 70
     0
  9
$DIMBLK
  1

  9
$DIMASO
 70
     1
  9
$DIMSHO
 70
     0
  9
$DIMPOST
  1

  9
$DIMAPOST
  1

  9
$DIMALT
 70
     0
  9
$DIMALTD
 70
     2
  9
$DIMALTF
 40
25.399999999999999
  9
$DIMLFAC
 40
1.0
  9
$DIMTOFL
 70
     1
  9
$DIMTVP
 40
1.6000000000000001
  9
$DIMTIX
 70
     1
  9
$DIMSOXD
 70
     0
  9
$DIMSAH
 70
     0
  9
$DIMBLK1
  1

  9
$DIMBLK2
  1

  9
$DIMSTYLE
  2
STANDARD
  9
$DIMCLRD
 70
     0
  9
$DIMCLRE
 70
     0
  9
$DIMCLRT
 70
     0
  9
$DIMTFAC
 40
1.0
  9
$DIMGAP
 40
0.09
  9
$LUNITS
 70
     2
  9
$LUPREC
 70
     4
  9
$SKETCHINC
 40
0.1
  9
$FILLETRAD
 40
0.0
  9
$AUNITS
 70
     0
  9
$AUPREC
 70
     0
  9
$MENU
  1
E:\r13\win\SUPPORT\ACAD
  9
$ELEVATION
 40
0.0
  9
$PELEVATION
 40
0.0
  9
$THICKNESS
 40
0.0
  9
$LIMCHECK
 70
     0
  9
$BLIPMODE
 70
     0
  9
$CHAMFERA
 40
0.0
  9
$CHAMFERB
 40
0.0
  9
$SKPOLY
 70
     0
  9
$TDCREATE
 40
2449840.618912037
  9
$TDUPDATE
 40
2456597.5957669909
  9
$TDINDWG
 40
0.0042375463
  9
$TDUSRTIMER
 40
0.0042375463
  9
$USRTIMER
 70
     1
  9
$ANGBASE
 50
0.0
  9
$ANGDIR
 70
     0
  9
$PDMODE
 70
     0
  9
$PDSIZE
 40
0.0
  9
$PLINEWID
 40
0.0
  9
$COORDS
 70
     1
  9
$SPLFRAME
 70
     0
  9
$SPLINETYPE
 70
     6
  9
$SPLINESEGS
 70
     8
  9
$ATTDIA
 70
     0
  9
$ATTREQ
 70
     1
  9
$HANDLING
 70
     1
  9
$HANDSEED
  5
2A4
  9
$SURFTAB1
 70
     6
  9
$SURFTAB2
 70
     6
  9
$SURFTYPE
 70
     6
  9
$SURFU
 70
     6
  9
$SURFV
 70
     6
  9
$UCSNAME
  2

  9
$UCSORG
 10
0.0
 20
0.0
 30
0.0
  9
$UCSXDIR
 10
1.0
 20
0.0
 30
0.0
  9
$UCSYDIR
 10
0.0
 20
1.0
 30
0.0
  9
$PUCSNAME
  2

  9
$PUCSORG
 10
0.0
 20
0.0
 30
0.0
  9
$PUCSXDIR
 10
1.0
 20
0.0
 30
0.0
  9
$PUCSYDIR
 10
0.0
 20
1.0
 30
0.0
  9
$USERI1
 70
     0
  9
$USERI2
 70
     1
  9
$USERI3
 70
     1
  9
$USERI4
 70
     0
  9
$USERI5
 70
     0
  9
$USERR1
 40
0.0
  9
$USERR2
 40
0.0
  9
$USERR3
 40
0.0
  9
$USERR4
 40
0.0
  9
$USERR5
 40
0.0
  9
$WORLDVIEW
 70
     1
  9
$SHADEDGE
 70
     3
  9
$SHADEDIF
 70
    70
  9
$TILEMODE
 70
     1
  9
$MAXACTVP
 70
    16
  9
$PLIMCHECK
 70
     0
  9
$PEXTMIN
 10
1.0000000000000000E+020
 20
1.0000000000000000E+020
 30
1.0000000000000000E+020
  9
$PEXTMAX
 10
-1.0000000000000000E+020
 20
-1.0000000000000000E+020
 30
-1.0000000000000000E+020
  9
$PLIMMIN
 10
0.0
 20
0.0
  9
$PLIMMAX
 10
12.0
 20
9.0
  9
$UNITMODE
 70
     0
  9
$VISRETAIN
 70
     0
  9
$PLINEGEN
 70
     0
  9
$PSLTSCALE
 70
     0
  0
ENDSEC
  0
SECTION
  2
TABLES
  0
TABLE
  2
VPORT
 70
     1
  0
VPORT
  2
*ACTIVE
 70
     0
 10
0.0
 20
0.0
 11
1.0
 21
1.0
 12
97.52905416604365
 22
66.75636307133405
 13
0.0
 23
0.0
 14
5.0
 24
5.0
 15
5.0
 25
5.0
 16
0.0
 26
0.0
 36
1.0
 17
0.0
 27
0.0
 37
0.0
 40
137.71137496815999
 41
1.831871345029239
 42
50.0
 43
0.0
 44
0.0
 50
0.0
 51
0.0
 71
     0
 72
   100
 73
     1
 74
     0
 75
     0
 76
     0
 77
     0
 78
     0
  0
ENDTAB
  0
TABLE
  2
LTYPE
 70
     4
  0
LTYPE
  2
CONTINUOUS
 70
     0
  3
Solid Line
 72
    65
 73
     0
 40
0.0
  0
LTYPE
  2
CENTER
 70
     0
  3
____ _ ____ _ ____ _ ____ _ ____ _ ____ _ ____
 72
    65
 73
     4
 40
2.0
 49
1.25
 49
-0.25
 49
0.25
 49
-0.25
  0
LTYPE
  2
HIDDEN
 70
     0
  3
_ _ _ _ _ _ _ _ _ _ _ _ _ _ _ _ _ _ _ _ _ _ _
 72
    65
 73
     2
 40
0.375
 49
0.25
 49
-0.125
  0
LTYPE
  2
PHANTOM2
 70
     0
  3
___ _ _ ___ _ _ ___ _ _ ___ _ _
 72
    65
 73
     6
 40
1.25
 49
0.625
 49
-0.125
 49
0.125
 49
-0.125
 49
0.125
 49
-0.125
  0
ENDTAB
  0
TABLE
  2
LAYER
 70
     4
  0
LAYER
  2
0
 70
     0
 62
     7
  6
CONTINUOUS
  0
LAYER
  2
1
 70
     0
 62
     1
  6
CENTER
  0
LAYER
  2
2
 70
     0
 62
     2
  6
HIDDEN
  0
LAYER
  2
3
 70
     0
 62
     3
  6
CONTINUOUS
  0
ENDTAB
  0
TABLE
  2
STYLE
 70
     2
  0
STYLE
  2
STANDARD
 70
     0
 40
0.0
 41
1.0
 50
0.0
 71
     0
 42
0.2
  3
TXT
  4
BIGFONT
  0
STYLE
  2
STANDARD1
 70
     0
 40
0.0
 41
1.0
 50
0.0
 71
     0
 42
3.0
  3
txt
  4

  0
ENDTAB
  0
TABLE
  2
VIEW
 70
     1
  0
VIEW
  2
ALL
 70
     0
 40
135.0
 10
110.49579799999999
 20
67.5
 41
0.0
 11
0.0
 21
0.0
 31
1.0
 12
0.0
 22
0.0
 32
0.0
 42
0.0
 43
0.0
 44
0.0
 50
0.0
 71
     0
  0
ENDTAB
  0
TABLE
  2
UCS
 70
     0
  0
ENDTAB
  0
TABLE
  2
APPID
 70
     3
  0
APPID
  2
ACAD
 70
     0
  0
APPID
  2
ACAD_MLEADERVER
 70
     0
  0
APPID
  2
ACAD_NAV_VCDISPLAY
 70
     0
  0
ENDTAB
  0
TABLE
  2
DIMSTYLE
 70
     1
  0
DIMSTYLE
  2
STANDARD
 70
     0
  3

  4

  5

  6

  7

 40
1.0
 41
0.18
 42
0.0625
 43
0.38
 44
0.18
 45
0.0
 46
0.0
 47
0.0
 48
0.0
140
0.18
141
0.09
142
0.0
143
25.399999999999999
144
1.0
145
0.0
146
1.0
147
0.09
 71
     0
 72
     0
 73
     1
 74
     1
 75
     0
 76
     0
 77
     0
 78
     0
170
     0
171
     2
172
     0
173
     0
174
     0
175
     0
176
     0
177
     0
178
     0
  0
ENDTAB
  0
ENDSEC
  0
SECTION
  2
BLOCKS
  0
BLOCK
  8
0
  2
$MODEL_SPACE
 70
     0
 10
0.0
 20
0.0
 30
0.0
  3
$MODEL_SPACE
  1

  0
ENDBLK
  5
BC
  8
0
  0
BLOCK
 67
     1
  8
0
  2
$PAPER_SPACE
 70
     0
 10
0.0
 20
0.0
 30
0.0
  3
$PAPER_SPACE
  1

  0
ENDBLK
  5
BA
 67
     1
  8
0
  0
ENDSEC
  0
SECTION
  2
ENTITIES
  0
LINE
  5
119
  8
0
 10
61.17526510335329
 20
60.085341818522267
 30
0.0
 11
61.175265103353297
 21
53.885341818522278
 31
0.0
  0
LINE
  5
11A
  8
0
 10
60.675265103353297
 20
60.085341818522267
 30
0.0
 11
60.67526510335329
 21
53.885341818522278
 31
0.0
  0
LINE
  5
11F
  8
0
 10
59.525265103353263
 20
52.985341818522272
 30
0.0
 11
59.525265103353263
 21
60.985341818522272
 31
0.0
  0
ARC
  5
120
  8
2
 10
58.675265103353297
 20
56.985341818522272
 30
0.0
 40
2.5
 50
293.57817800000021
 51
66.421821999999821
  0
ARC
  5
121
  8
3
 10
21.175265103353361
 20
56.985341818522237
 30
0.0
 40
3.3235000000000521
 50
10.400782093237821
 51
169.59921790676211
  0
LINE
  5
122
  8
0
 10
25.130009090010329
 20
56.385341818522249
 30
0.0
 11
17.220521116696322
 21
56.385341818522221
 31
0.0
  0
LINE
  5
123
  8
0
 10
25.130009090010329
 20
57.585341818522259
 30
0.0
 11
17.220521116696322
 21
57.585341818522231
 31
0.0
  0
CIRCLE
  5
124
  8
0
 10
21.175265103353361
 20
56.985341818522272
 30
0.0
 40
3.9999999999999849
  0
ARC
  5
125
  8
3
 10
21.175265103353361
 20
56.985341818522237
 30
0.0
 40
3.3235000000000521
 50
190.40078209323809
 51
349.59921790676242
  0
LINE
  5
126
  8
1
 10
14.67526510335335
 20
56.985341818522272
 30
0.0
 11
27.675265103353329
 21
56.985341818522272
 31
0.0
  0
LINE
  5
127
  8
1
 10
21.175265103353361
 20
50.485341818522272
 30
0.0
 11
21.175265103353361
 21
63.485341818522237
 31
0.0
  0
CIRCLE
  5
129
  8
0
 10
86.675265103353297
 20
56.985341818522272
 30
0.0
 40
2.5
  0
LINE
  5
12A
  8
1
 10
86.675265103353297
 20
50.485341818522272
 30
0.0
 11
86.675265103353297
 21
63.485341818522237
 31
0.0
  0
LINE
  5
12B
  8
1
 10
80.175265103353297
 20
56.985341818522272
 30
0.0
 11
93.175265103353297
 21
56.985341818522272
 31
0.0
  0
CIRCLE
  5
12C
  8
3
 10
86.675265103353297
 20
56.985341818522237
 30
0.0
 40
3.3235000000000521
  0
CIRCLE
  5
12D
  8
0
 10
86.675265103353297
 20
56.985341818522272
 30
0.0
 40
3.9999999999999849
  0
LINE
  5
12E
  8
0
 10
45.17526510335329
 20
53.852341818522227
 30
0.0
 11
46.042265103353309
 21
52.985341818522237
 31
0.0
  0
LINE
  5
12F
  8
0
 10
46.042265103353309
 20
60.985341818522272
 30
0.0
 11
45.17526510335329
 21
60.118341818522261
 31
0.0
  0
LINE
  5
130
  8
0
 10
46.042265103353309
 20
52.985341818522237
 30
0.0
 11
59.525265103353263
 21
52.985341818522237
 31
0.0
  0
LINE
  5
131
  8
0
 10
59.525265103353263
 20
60.985341818522237
 30
0.0
 11
46.042265103353309
 21
60.985341818522272
 31
0.0
  0
LINE
  5
132
  8
0
 10
45.17526510335329
 20
56.385341818522249
 30
0.0
 11
45.17526510335329
 21
53.852341818522227
 31
0.0
  0
LINE
  5
133
  8
0
 10
45.17526510335329
 20
60.118341818522261
 30
0.0
 11
45.17526510335329
 21
57.585341818522231
 31
0.0
  0
LINE
  5
134
  8
0
 10
46.042265103353309
 20
56.385341818522249
 30
0.0
 11
46.042265103353309
 21
52.985341818522237
 31
0.0
  0
LINE
  5
135
  8
0
 10
46.042265103353309
 20
60.985341818522272
 30
0.0
 11
46.042265103353309
 21
57.585341818522231
 31
0.0
  0
LINE
  5
136
  8
0
 10
45.175265103353318
 20
57.585341818522231
 30
0.0
 11
47.17526510335329
 21
57.585341818522231
 31
0.0
  0
LINE
  5
137
  8
0
 10
47.17526510335329
 20
57.585341818522231
 30
0.0
 11
47.17526510335329
 21
56.385341818522249
 31
0.0
  0
LINE
  5
138
  8
0
 10
47.17526510335329
 20
56.385341818522249
 30
0.0
 11
45.175265103353318
 21
56.385341818522249
 31
0.0
  0
LINE
  5
139
  8
1
 10
65.175265103353297
 20
56.985341818522272
 30
0.0
 11
42.675265103353318
 21
56.985341818522272
 31
0.0
  0
LINE
  5
13A
  8
3
 10
60.389681770019912
 20
53.661841818522241
 30
0.0
 11
45.365765103353283
 21
53.661841818522248
 31
0.0
  0
LINE
  5
13B
  8
3
 10
60.389681770019941
 20
60.308841818522289
 30
0.0
 11
45.365765103353311
 21
60.308841818522239
 31
0.0
  0
ARC
  5
13D
  8
0
 10
60.17526510335329
 20
56.985341818522237
 30
0.0
 40
2.5
 50
293.57817847820189
 51
66.421821521798151
  0
LINE
  5
13E
  8
3
 10
60.389681770019877
 20
33.550394331877243
 30
0.0
 11
45.365765103353311
 21
33.550394331877158
 31
0.0
  0
LINE
  5
13F
  8
3
 10
60.389681770019962
 20
26.903394331877202
 30
0.0
 11
45.365765103353283
 21
26.90339433187717
 31
0.0
  0
LINE
  5
140
  8
1
 10
65.175265103353297
 20
30.22689433187719
 30
0.0
 11
42.675265103353318
 21
30.22689433187719
 31
0.0
  0
LINE
  5
141
  8
0
 10
46.042265103353309
 20
34.22689433187719
 30
0.0
 11
46.042265103353309
 21
26.226894331877158
 31
0.0
  0
LINE
  5
142
  8
0
 10
45.175265103353318
 20
33.359894331877172
 30
0.0
 11
45.17526510335329
 21
27.093894331877149
 31
0.0
  0
LINE
  5
143
  8
0
 10
59.525265103353398
 20
34.226894331877133
 30
0.0
 11
46.042265103353309
 21
34.22689433187719
 31
0.0
  0
LINE
  5
144
  8
0
 10
46.042265103353309
 20
26.226894331877158
 30
0.0
 11
59.525265103353263
 21
26.226894331877158
 31
0.0
  0
LINE
  5
145
  8
0
 10
46.042265103353309
 20
34.22689433187719
 30
0.0
 11
45.17526510335329
 21
33.359894331877172
 31
0.0
  0
LINE
  5
146
  8
0
 10
45.17526510335329
 20
27.093894331877149
 30
0.0
 11
46.042265103353309
 21
26.226894331877158
 31
0.0
  0
LINE
  5
14F
  8
0
 10
61.175265103353311
 20
60.085341818522281
 30
0.0
 11
60.675265103353297
 21
60.085341818522281
 31
0.0
  0
LINE
  5
150
  8
0
 10
61.175265103353311
 20
53.885341818522271
 30
0.0
 11
60.675265103353297
 21
53.885341818522278
 31
0.0
  0
LINE
  5
151
  8
0
 10
59.525265103353263
 20
60.985341818522272
 30
0.0
 11
60.675265103353297
 21
60.085341818522267
 31
0.0
  0
LINE
  5
152
  8
0
 10
59.525265103353263
 20
52.985341818522272
 30
0.0
 11
60.675265103353297
 21
53.885341818522278
 31
0.0
  0
CIRCLE
  5
154
  8
0
 10
86.675265103353297
 20
56.985341818522272
 30
0.0
 40
3.1000000000000081
  0
LINE
  5
155
  8
0
 10
59.525265103353249
 20
26.22689433187719
 30
0.0
 11
60.67526510335329
 21
27.1268943318772
 31
0.0
  0
LINE
  5
156
  8
0
 10
59.525265103353249
 20
34.22689433187719
 30
0.0
 11
60.675265103353297
 21
33.326894331877192
 31
0.0
  0
LINE
  5
157
  8
0
 10
61.175265103353297
 20
27.126894331877189
 30
0.0
 11
60.67526510335329
 21
27.1268943318772
 31
0.0
  0
LINE
  5
158
  8
0
 10
61.175265103353311
 20
33.326894331877199
 30
0.0
 11
60.675265103353297
 21
33.326894331877199
 31
0.0
  0
ARC
  5
159
  8
0
 10
60.17526510335329
 20
30.226894331877158
 30
0.0
 40
2.5
 50
293.57817847820189
 51
66.421821521798151
  0
ARC
  5
15A
  8
2
 10
58.67526510335329
 20
30.22689433187719
 30
0.0
 40
2.5
 50
293.57817800000021
 51
66.421821999999821
  0
LINE
  5
15B
  8
0
 10
59.525265103353249
 20
26.22689433187719
 30
0.0
 11
59.525265103353249
 21
34.22689433187719
 31
0.0
  0
LINE
  5
15C
  8
0
 10
60.675265103353297
 20
33.326894331877192
 30
0.0
 11
60.675265103353283
 21
27.1268943318772
 31
0.0
  0
LINE
  5
15D
  8
0
 10
61.175265103353283
 20
33.326894331877192
 30
0.0
 11
61.17526510335329
 21
27.1268943318772
 31
0.0
  0
TEXT
  5
215
  8
0
 62
     3
 10
0.0
 20
0.0
 30
0.0
 40
5.0
  1
BEU8
  7
STANDARD1
  0
ENDSEC
  0
EOF
