  0
SECTION
  2
HEADER
  9
$ACADVER
  1
AC1009
  9
$INSBASE
 10
0.0
 20
0.0
 30
0.0
  9
$EXTMIN
 10
0.0
 20
-2.960436562073669
 30
0.0
  9
$EXTMAX
 10
310.87346185206042
 20
207.9415459114409
 30
0.0
  9
$LIMMIN
 10
0.0
 20
0.0
  9
$LIMMAX
 10
420.0
 20
297.0
  9
$ORTHOMODE
 70
     1
  9
$REGENMODE
 70
     1
  9
$FILLMODE
 70
     1
  9
$QTEXTMODE
 70
     0
  9
$MIRRTEXT
 70
     1
  9
$DRAGMODE
 70
     2
  9
$LTSCALE
 40
1.0
  9
$OSMODE
 70
  3071
  9
$ATTMODE
 70
     1
  9
$TEXTSIZE
 40
2.5
  9
$TRACEWID
 40
1.0
  9
$TEXTSTYLE
  7
STANDARD
  9
$CLAYER
  8
0
  9
$CELTYPE
  6
BYLAYER
  9
$CECOLOR
 62
   256
  9
$DIMSCALE
 40
1.0
  9
$DIMASZ
 40
2.5
  9
$DIMEXO
 40
0.625
  9
$DIMDLI
 40
3.75
  9
$DIMRND
 40
0.0
  9
$DIMDLE
 40
0.0
  9
$DIMEXE
 40
1.25
  9
$DIMTP
 40
0.0
  9
$DIMTM
 40
0.0
  9
$DIMTXT
 40
2.5
  9
$DIMCEN
 40
2.5
  9
$DIMTSZ
 40
0.0
  9
$DIMTOL
 70
     0
  9
$DIMLIM
 70
     0
  9
$DIMTIH
 70
     0
  9
$DIMTOH
 70
     0
  9
$DIMSE1
 70
     0
  9
$DIMSE2
 70
     0
  9
$DIMTAD
 70
     1
  9
$DIMZIN
 70
     8
  9
$DIMBLK
  1

  9
$DIMASO
 70
     1
  9
$DIMSHO
 70
     1
  9
$DIMPOST
  1

  9
$DIMAPOST
  1

  9
$DIMALT
 70
     0
  9
$DIMALTD
 70
     3
  9
$DIMALTF
 40
0.03937007874016
  9
$DIMLFAC
 40
1.0
  9
$DIMTOFL
 70
     1
  9
$DIMTVP
 40
0.0
  9
$DIMTIX
 70
     0
  9
$DIMSOXD
 70
     0
  9
$DIMSAH
 70
     0
  9
$DIMBLK1
  1

  9
$DIMBLK2
  1

  9
$DIMSTYLE
  2
ISO-25
  9
$DIMCLRD
 70
     0
  9
$DIMCLRE
 70
     0
  9
$DIMCLRT
 70
     0
  9
$DIMTFAC
 40
1.0
  9
$DIMGAP
 40
0.625
  9
$LUNITS
 70
     2
  9
$LUPREC
 70
     4
  9
$SKETCHINC
 40
1.0
  9
$FILLETRAD
 40
10.0
  9
$AUNITS
 70
     0
  9
$AUPREC
 70
     0
  9
$MENU
  1
.
  9
$ELEVATION
 40
0.0
  9
$PELEVATION
 40
0.0
  9
$THICKNESS
 40
0.0
  9
$LIMCHECK
 70
     0
  9
$BLIPMODE
 70
     0
  9
$CHAMFERA
 40
10.0
  9
$CHAMFERB
 40
10.0
  9
$SKPOLY
 70
     0
  9
$TDCREATE
 40
2454971.3644701159
  9
$TDUPDATE
 40
2456597.5943850121
  9
$TDINDWG
 40
0.0547286921
  9
$TDUSRTIMER
 40
0.0547286921
  9
$USRTIMER
 70
     1
  9
$ANGBASE
 50
0.0
  9
$ANGDIR
 70
     0
  9
$PDMODE
 70
     0
  9
$PDSIZE
 40
0.0
  9
$PLINEWID
 40
0.0
  9
$COORDS
 70
     1
  9
$SPLFRAME
 70
     0
  9
$SPLINETYPE
 70
     6
  9
$SPLINESEGS
 70
     8
  9
$ATTDIA
 70
     0
  9
$ATTREQ
 70
     1
  9
$HANDLING
 70
     1
  9
$HANDSEED
  5
7BC
  9
$SURFTAB1
 70
     6
  9
$SURFTAB2
 70
     6
  9
$SURFTYPE
 70
     6
  9
$SURFU
 70
     6
  9
$SURFV
 70
     6
  9
$UCSNAME
  2

  9
$UCSORG
 10
0.0
 20
0.0
 30
0.0
  9
$UCSXDIR
 10
1.0
 20
0.0
 30
0.0
  9
$UCSYDIR
 10
0.0
 20
1.0
 30
0.0
  9
$PUCSNAME
  2

  9
$PUCSORG
 10
0.0
 20
0.0
 30
0.0
  9
$PUCSXDIR
 10
1.0
 20
0.0
 30
0.0
  9
$PUCSYDIR
 10
0.0
 20
1.0
 30
0.0
  9
$USERI1
 70
     0
  9
$USERI2
 70
     0
  9
$USERI3
 70
     0
  9
$USERI4
 70
     0
  9
$USERI5
 70
     0
  9
$USERR1
 40
0.0
  9
$USERR2
 40
0.0
  9
$USERR3
 40
0.0
  9
$USERR4
 40
0.0
  9
$USERR5
 40
0.0
  9
$WORLDVIEW
 70
     1
  9
$SHADEDGE
 70
     3
  9
$SHADEDIF
 70
    70
  9
$TILEMODE
 70
     1
  9
$MAXACTVP
 70
    64
  9
$PLIMCHECK
 70
     0
  9
$PEXTMIN
 10
0.0
 20
0.0
 30
0.0
  9
$PEXTMAX
 10
1000.0
 20
1000.0
 30
0.0
  9
$PLIMMIN
 10
0.0
 20
0.0
  9
$PLIMMAX
 10
100.0
 20
100.0
  9
$UNITMODE
 70
     0
  9
$VISRETAIN
 70
     1
  9
$PLINEGEN
 70
     0
  9
$PSLTSCALE
 70
     1
  0
ENDSEC
  0
SECTION
  2
TABLES
  0
TABLE
  2
VPORT
 70
     1
  0
VPORT
  2
*ACTIVE
 70
     0
 10
0.0
 20
0.0
 11
1.0
 21
1.0
 12
218.30564249092441
 22
147.0112842185321
 13
0.0
 23
0.0
 14
10.0
 24
10.0
 15
10.0
 25
10.0
 16
0.0
 26
0.0
 36
1.0
 17
0.0
 27
0.0
 37
0.0
 40
302.66781211506969
 41
1.831871345029239
 42
50.0
 43
0.0
 44
0.0
 50
0.0
 51
0.0
 71
     0
 72
   100
 73
     1
 74
     3
 75
     0
 76
     0
 77
     0
 78
     0
  0
ENDTAB
  0
TABLE
  2
LTYPE
 70
     4
  0
LTYPE
  2
CONTINUOUS
 70
     0
  3
Solid line
 72
    65
 73
     0
 40
0.0
  0
LTYPE
  2
GESTRICHELT
 70
     0
  3

 72
    65
 73
     2
 40
2.0
 49
1.0
 49
-1.0
  0
LTYPE
  2
CENTER
 70
     0
  3
____ _ ____ _ ____ _ ____ _ ____ _ ____ _ ____
 72
    65
 73
     4
 40
2.0
 49
1.25
 49
-0.25
 49
0.25
 49
-0.25
  0
LTYPE
  2
HIDDEN
 70
     0
  3
_ _ _ _ _ _ _ _ _ _ _ _ _ _ _ _ _ _ _ _ _ _ _
 72
    65
 73
     2
 40
0.375
 49
0.25
 49
-0.125
  0
ENDTAB
  0
TABLE
  2
LAYER
 70
     3
  0
LAYER
  2
0
 70
     0
 62
     7
  6
CONTINUOUS
  0
LAYER
  2
1
 70
     0
 62
     1
  6
CENTER
  0
LAYER
  2
2
 70
     0
 62
     2
  6
HIDDEN
  0
ENDTAB
  0
TABLE
  2
STYLE
 70
     2
  0
STYLE
  2
STANDARD
 70
     0
 40
0.0
 41
1.0
 50
0.0
 71
     0
 42
2.5
  3
txt
  4

  0
STYLE
  2
STANDARD1
 70
     0
 40
0.0
 41
1.0
 50
0.0
 71
     0
 42
3.0
  3
txt
  4

  0
ENDTAB
  0
TABLE
  2
VIEW
 70
     0
  0
ENDTAB
  0
TABLE
  2
UCS
 70
     0
  0
ENDTAB
  0
TABLE
  2
APPID
 70
     3
  0
APPID
  2
ACAD
 70
     0
  0
APPID
  2
ACAD_MLEADERVER
 70
     0
  0
APPID
  2
ACAD_NAV_VCDISPLAY
 70
     0
  0
ENDTAB
  0
TABLE
  2
DIMSTYLE
 70
     2
  0
DIMSTYLE
  2
ISO-25
 70
     0
  3

  4

  5

  6

  7

 40
1.0
 41
2.5
 42
0.625
 43
3.75
 44
1.25
 45
0.0
 46
0.0
 47
0.0
 48
0.0
140
2.5
141
2.5
142
0.0
143
0.03937007874016
144
1.0
145
0.0
146
1.0
147
0.625
 71
     0
 72
     0
 73
     0
 74
     0
 75
     0
 76
     0
 77
     1
 78
     8
170
     0
171
     3
172
     1
173
     0
174
     0
175
     0
176
     0
177
     0
178
     0
  0
DIMSTYLE
  2
STANDARD
 70
     0
  3

  4

  5

  6

  7

 40
1.0
 41
0.18
 42
0.0625
 43
0.38
 44
0.18
 45
0.0
 46
0.0
 47
0.0
 48
0.0
140
0.18
141
0.09
142
0.0
143
25.399999999999999
144
1.0
145
0.0
146
1.0
147
0.09
 71
     0
 72
     0
 73
     1
 74
     1
 75
     0
 76
     0
 77
     0
 78
     0
170
     0
171
     2
172
     0
173
     0
174
     0
175
     0
176
     0
177
     0
178
     0
  0
ENDTAB
  0
ENDSEC
  0
SECTION
  2
BLOCKS
  0
BLOCK
  8
0
  2
$MODEL_SPACE
 70
     0
 10
0.0
 20
0.0
 30
0.0
  3
$MODEL_SPACE
  1

  0
ENDBLK
  5
21
  8
0
  0
BLOCK
 67
     1
  8
0
  2
$PAPER_SPACE
 70
     0
 10
0.0
 20
0.0
 30
0.0
  3
$PAPER_SPACE
  1

  0
ENDBLK
  5
1D
 67
     1
  8
0
  0
ENDSEC
  0
SECTION
  2
ENTITIES
  0
LINE
  5
35
  8
0
  6
CONTINUOUS
 62
     7
 10
207.44405600238301
 20
82.667265812220634
 30
0.0
 11
207.44405600238301
 21
82.367265812220623
 31
0.0
  0
LINE
  5
36
  8
0
  6
CONTINUOUS
 62
     7
 10
217.19405600238309
 20
82.367265812220623
 30
0.0
 11
217.19405600238309
 21
82.667265812220634
 31
0.0
  0
LINE
  5
37
  8
0
  6
CONTINUOUS
 62
     7
 10
205.81905600238309
 20
97.367265812220651
 30
0.0
 11
205.81905600238309
 21
82.667265812220634
 31
0.0
  0
LINE
  5
38
  8
0
  6
CONTINUOUS
 62
     7
 10
218.81905600238301
 20
82.667265812220634
 30
0.0
 11
218.81905600238301
 21
97.367265812220651
 31
0.0
  0
ARC
  5
3A
  8
0
  6
CONTINUOUS
 62
     7
 10
218.81905600238301
 20
98.617265812220651
 30
0.0
 40
1.25
 50
270.0
 51
0.0
  0
ARC
  5
3B
  8
0
  6
CONTINUOUS
 62
     7
 10
205.81905600238309
 20
98.617265812220651
 30
0.0
 40
1.25
 50
180.0
 51
270.0
  0
LINE
  5
3C
  8
0
  6
CONTINUOUS
 62
     7
 10
204.56905600238301
 20
119.61726581222059
 30
0.0
 11
204.56905600238301
 21
98.617265812220651
 31
0.0
  0
LINE
  5
3D
  8
0
  6
CONTINUOUS
 62
     7
 10
220.06905600238301
 20
98.617265812220651
 30
0.0
 11
220.06905600238301
 21
119.61726581222059
 31
0.0
  0
ARC
  5
3E
  8
0
  6
CONTINUOUS
 62
     7
 10
212.31905600238301
 20
119.61726581222059
 30
0.0
 40
7.7500000000000142
 50
0.0
 51
180.0
  0
LINE
  5
43
  8
0
  6
CONTINUOUS
 62
     7
 10
217.19405600238309
 20
82.367265812220623
 30
0.0
 11
207.44405600238301
 21
82.367265812220623
 31
0.0
  0
LINE
  5
44
  8
0
  6
CONTINUOUS
 62
     7
 10
218.81905600238301
 20
82.667265812220634
 30
0.0
 11
205.81905600238309
 21
82.667265812220634
 31
0.0
  0
LINE
  5
45
  8
0
  6
CONTINUOUS
 62
     7
 10
220.06905600238301
 20
98.617265812220651
 30
0.0
 11
204.56905600238301
 21
98.617265812220651
 31
0.0
  0
LINE
  5
46
  8
0
  6
CONTINUOUS
 62
     7
 10
220.06905600238301
 20
119.61726581222059
 30
0.0
 11
204.56905600238301
 21
119.61726581222059
 31
0.0
  0
LINE
  5
4F
  8
0
  6
CONTINUOUS
 62
     7
 10
221.06905600238301
 20
66.85738209129039
 30
0.0
 11
221.06905600238301
 21
82.367265812220623
 31
0.0
  0
LINE
  5
50
  8
0
  6
CONTINUOUS
 62
     7
 10
140.81905600238301
 20
49.567265812220633
 30
0.0
 11
140.81905600238301
 21
49.367265812220637
 31
0.0
  0
LINE
  5
51
  8
0
  6
CONTINUOUS
 62
     7
 10
155.81905600238301
 20
49.367265812220637
 30
0.0
 11
155.81905600238301
 21
49.567265812220633
 31
0.0
  0
LINE
  5
52
  8
0
  6
CONTINUOUS
 62
     7
 10
138.31905600238301
 20
58.36726581222063
 30
0.0
 11
138.31905600238301
 21
49.567265812220633
 31
0.0
  0
LINE
  5
53
  8
0
  6
CONTINUOUS
 62
     7
 10
158.31905600238301
 20
49.567265812220633
 30
0.0
 11
158.31905600238301
 21
58.36726581222063
 31
0.0
  0
ARC
  5
54
  8
0
  6
CONTINUOUS
 62
     7
 10
160.4966872923583
 20
59.367265812220637
 30
0.0
 40
0.9999999999999982
 50
270.0
 51
4.0000000000000648
  0
ARC
  5
55
  8
0
  6
CONTINUOUS
 62
     7
 10
136.14142471240771
 20
59.367265812220637
 30
0.0
 40
0.9999999999999975
 50
175.99999999999989
 51
270.0
  0
LINE
  5
56
  8
0
  6
CONTINUOUS
 62
     7
 10
138.10727454230101
 20
80.867265812220637
 30
0.0
 11
136.532274542301
 21
79.292265812220649
 31
0.0
  0
LINE
  5
57
  8
0
  6
CONTINUOUS
 62
     7
 10
160.10583746246499
 20
79.292265812220649
 30
0.0
 11
158.530837462465
 21
80.867265812220637
 31
0.0
  0
LINE
  5
58
  8
2
 10
140.01290701549109
 20
80.867265812220637
 30
0.0
 11
140.31905600238301
 21
79.292265812220649
 31
0.0
  0
LINE
  5
59
  8
2
 10
156.31905600238301
 20
79.292265812220649
 30
0.0
 11
156.62520498927489
 21
80.867265812220637
 31
0.0
  0
LINE
  5
5A
  8
0
  6
CONTINUOUS
 62
     7
 10
136.532274542301
 20
79.292265812220649
 30
0.0
 11
135.14386066214789
 21
59.437022285964758
 31
0.0
  0
LINE
  5
5B
  8
0
  6
CONTINUOUS
 62
     7
 10
160.250830575328
 20
77.21876769564625
 30
0.0
 11
160.10583746246499
 21
79.292265812220649
 31
0.0
  0
LINE
  5
5C
  8
0
  6
CONTINUOUS
 62
     7
 10
161.49425134261821
 20
59.437022285964758
 30
0.0
 11
161.3878482036738
 21
60.958658064673813
 31
0.0
  0
LINE
  5
5D
  8
2
 10
152.31905600238301
 20
69.367265812220637
 30
0.0
 11
148.31905600238301
 21
71.676666888979142
 31
0.0
  0
LINE
  5
5E
  8
2
 10
148.31905600238301
 20
71.676666888979142
 30
0.0
 11
144.31905600238301
 21
69.367265812220637
 31
0.0
  0
LINE
  5
5F
  8
2
 10
152.31905600238301
 20
50.029765812220639
 30
0.0
 11
152.31905600238301
 21
69.367265812220637
 31
0.0
  0
LINE
  5
60
  8
2
 10
144.31905600238301
 20
69.367265812220637
 30
0.0
 11
144.31905600238301
 21
50.029765812220639
 31
0.0
  0
LINE
  5
61
  8
2
 10
152.981556002383
 20
49.367265812220637
 30
0.0
 11
152.31905600238301
 21
50.029765812220639
 31
0.0
  0
LINE
  5
62
  8
2
 10
144.31905600238301
 20
50.029765812220639
 30
0.0
 11
143.65655600238301
 21
49.367265812220637
 31
0.0
  0
POLYLINE
  5
67
  8
0
  6
CONTINUOUS
 62
     7
 66
     1
 10
0.0
 20
0.0
 30
0.0
  0
VERTEX
  5
568
  8
0
  6
CONTINUOUS
 62
     7
 10
215.11286860335241
 20
66.26868915068853
 30
0.0
  0
VERTEX
  5
569
  8
0
  6
CONTINUOUS
 62
     7
 10
215.15729738502731
 20
66.273080367481981
 30
0.0
  0
VERTEX
  5
56A
  8
0
  6
CONTINUOUS
 62
     7
 10
215.24607831886601
 20
66.281855227221854
 30
0.0
  0
VERTEX
  5
56B
  8
0
  6
CONTINUOUS
 62
     7
 10
215.3347428630334
 20
66.290618583331423
 30
0.0
  0
VERTEX
  5
56C
  8
0
  6
CONTINUOUS
 62
     7
 10
215.379026162862
 20
66.294995421105185
 30
0.0
  0
VERTEX
  5
56D
  8
0
  6
CONTINUOUS
 62
     7
 10
215.42327397700149
 20
66.299368751572459
 30
0.0
  0
VERTEX
  5
56E
  8
0
  6
CONTINUOUS
 62
     7
 10
215.51165464588641
 20
66.308104050241312
 30
0.0
  0
VERTEX
  5
56F
  8
0
  6
CONTINUOUS
 62
     7
 10
215.5998678837183
 20
66.316822800492147
 30
0.0
  0
VERTEX
  5
570
  8
0
  6
CONTINUOUS
 62
     7
 10
215.68789673670639
 20
66.325523326659578
 30
0.0
  0
VERTEX
  5
571
  8
0
  6
CONTINUOUS
 62
     7
 10
215.7757242864968
 20
66.334203956580723
 30
0.0
  0
VERTEX
  5
572
  8
0
  6
CONTINUOUS
 62
     7
 10
215.86333365342429
 20
66.342863021916571
 30
0.0
  0
VERTEX
  5
573
  8
0
  6
CONTINUOUS
 62
     7
 10
215.9070512547965
 20
66.347183947633596
 30
0.0
  0
VERTEX
  5
574
  8
0
  6
CONTINUOUS
 62
     7
 10
215.9507079997565
 20
66.351498858472667
 30
0.0
  0
VERTEX
  5
575
  8
0
  6
CONTINUOUS
 62
     7
 10
216.0378305329298
 20
66.360109806518864
 30
0.0
  0
VERTEX
  5
576
  8
0
  6
CONTINUOUS
 62
     7
 10
216.12468450877691
 20
66.368694211108391
 30
0.0
  0
VERTEX
  5
577
  8
0
  6
CONTINUOUS
 62
     7
 10
216.21125323474479
 20
66.377250422395903
 30
0.0
  0
VERTEX
  5
578
  8
0
  6
CONTINUOUS
 62
     7
 10
216.2975200731029
 20
66.385776795954555
 30
0.0
  0
VERTEX
  5
579
  8
0
  6
CONTINUOUS
 62
     7
 10
216.3834684441407
 20
66.394271693092037
 30
0.0
  0
VERTEX
  5
57A
  8
0
  6
CONTINUOUS
 62
     7
 10
216.42631803990429
 20
66.398506827557043
 30
0.0
  0
VERTEX
  5
57B
  8
0
  6
CONTINUOUS
 62
     7
 10
216.46908182935439
 20
66.40273348116547
 30
0.0
  0
VERTEX
  5
57C
  8
0
  6
CONTINUOUS
 62
     7
 10
216.55434377462109
 20
66.411160533895327
 30
0.0
  0
VERTEX
  5
57D
  8
0
  6
CONTINUOUS
 62
     7
 10
216.63923789336201
 20
66.419551231677843
 30
0.0
  0
VERTEX
  5
57E
  8
0
  6
CONTINUOUS
 62
     7
 10
216.68154191622341
 20
66.423732443239743
 30
0.0
  0
VERTEX
  5
57F
  8
0
  6
CONTINUOUS
 62
     7
 10
216.7237478696907
 20
66.427903961896391
 30
0.0
  0
VERTEX
  5
580
  8
0
  6
CONTINUOUS
 62
     7
 10
216.80785746154999
 20
66.436217119231316
 30
0.0
  0
VERTEX
  5
581
  8
0
  6
CONTINUOUS
 62
     7
 10
216.89155050383269
 20
66.444489105968572
 30
0.0
  0
VERTEX
  5
582
  8
0
  6
CONTINUOUS
 62
     7
 10
216.93323578909289
 20
66.448609163232646
 30
0.0
  0
VERTEX
  5
583
  8
0
  6
CONTINUOUS
 62
     7
 10
216.9748109114889
 20
66.452718332306674
 30
0.0
  0
VERTEX
  5
584
  8
0
  6
CONTINUOUS
 62
     7
 10
217.05762268261691
 20
66.460903216662345
 30
0.0
  0
VERTEX
  5
585
  8
0
  6
CONTINUOUS
 62
     7
 10
217.1399699015391
 20
66.46904218597443
 30
0.0
  0
VERTEX
  5
586
  8
0
  6
CONTINUOUS
 62
     7
 10
217.2218367418607
 20
66.477133676006218
 30
0.0
  0
VERTEX
  5
587
  8
0
  6
CONTINUOUS
 62
     7
 10
217.30320746951111
 20
66.485176131646085
 30
0.0
  0
VERTEX
  5
588
  8
0
  6
CONTINUOUS
 62
     7
 10
217.3840664457685
 20
66.493168007206407
 30
0.0
  0
VERTEX
  5
589
  8
0
  6
CONTINUOUS
 62
     7
 10
217.42429916683599
 20
66.497144497079347
 30
0.0
  0
VERTEX
  5
58A
  8
0
  6
CONTINUOUS
 62
     7
 10
217.4643981302647
 20
66.501107766720565
 30
0.0
  0
VERTEX
  5
58B
  8
0
  6
CONTINUOUS
 62
     7
 10
217.54418708397239
 20
66.50899388423818
 30
0.0
  0
VERTEX
  5
58C
  8
0
  6
CONTINUOUS
 62
     7
 10
217.6234179721724
 20
66.516824844118418
 30
0.0
  0
VERTEX
  5
58D
  8
0
  6
CONTINUOUS
 62
     7
 10
217.7020755674005
 20
66.524599141321204
 30
0.0
  0
VERTEX
  5
58E
  8
0
  6
CONTINUOUS
 62
     7
 10
217.7801447523743
 20
66.532315281696512
 30
0.0
  0
VERTEX
  5
58F
  8
0
  6
CONTINUOUS
 62
     7
 10
217.8576105228986
 20
66.539971782271593
 30
0.0
  0
VERTEX
  5
590
  8
0
  6
CONTINUOUS
 62
     7
 10
217.89611247056359
 20
66.543777207331502
 30
0.0
  0
VERTEX
  5
591
  8
0
  6
CONTINUOUS
 62
     7
 10
217.934457990749
 20
66.547567171535874
 30
0.0
  0
VERTEX
  5
592
  8
0
  6
CONTINUOUS
 62
     7
 10
218.0106723865332
 20
66.555099989723857
 30
0.0
  0
VERTEX
  5
593
  8
0
  6
CONTINUOUS
 62
     7
 10
218.08623906253001
 20
66.562568789095621
 30
0.0
  0
VERTEX
  5
594
  8
0
  6
CONTINUOUS
 62
     7
 10
218.16114349550369
 20
66.569972134215121
 30
0.0
  0
VERTEX
  5
595
  8
0
  6
CONTINUOUS
 62
     7
 10
218.23537128949599
 20
66.577308602225983
 30
0.0
  0
VERTEX
  5
596
  8
0
  6
CONTINUOUS
 62
     7
 10
218.30890817859239
 20
66.584576783125044
 30
0.0
  0
VERTEX
  5
597
  8
0
  6
CONTINUOUS
 62
     7
 10
218.34541311194059
 20
66.58818482886295
 30
0.0
  0
VERTEX
  5
598
  8
0
  6
CONTINUOUS
 62
     7
 10
218.38174002966429
 20
66.591775280033318
 30
0.0
  0
VERTEX
  5
599
  8
0
  6
CONTINUOUS
 62
     7
 10
218.45385284508501
 20
66.598902709464426
 30
0.0
  0
VERTEX
  5
59A
  8
0
  6
CONTINUOUS
 62
     7
 10
218.52523276541959
 20
66.605957701590526
 30
0.0
  0
VERTEX
  5
59B
  8
0
  6
CONTINUOUS
 62
     7
 10
218.59586607208971
 20
66.612938900505597
 30
0.0
  0
VERTEX
  5
59C
  8
0
  6
CONTINUOUS
 62
     7
 10
218.66573919000891
 20
66.619844964485978
 30
0.0
  0
VERTEX
  5
59D
  8
0
  6
CONTINUOUS
 62
     7
 10
218.7348386901923
 20
66.626674566248298
 30
0.0
  0
VERTEX
  5
59E
  8
0
  6
CONTINUOUS
 62
     7
 10
218.76909417766069
 20
66.630060283032961
 30
0.0
  0
VERTEX
  5
59F
  8
0
  6
CONTINUOUS
 62
     7
 10
218.8031512923375
 20
66.633426393204502
 30
0.0
  0
VERTEX
  5
5A0
  8
0
  6
CONTINUOUS
 62
     7
 10
218.87066386737669
 20
66.640099147714182
 30
0.0
  0
VERTEX
  5
5A1
  8
0
  6
CONTINUOUS
 62
     7
 10
218.9373634400001
 20
66.646691547333944
 30
0.0
  0
VERTEX
  5
5A2
  8
0
  6
CONTINUOUS
 62
     7
 10
219.00323719114979
 20
66.653202325063859
 30
0.0
  0
VERTEX
  5
5A3
  8
0
  6
CONTINUOUS
 62
     7
 10
219.0682724604832
 20
66.659630229591002
 30
0.0
  0
VERTEX
  5
5A4
  8
0
  6
CONTINUOUS
 62
     7
 10
219.1324567488065
 20
66.66597402552992
 30
0.0
  0
VERTEX
  5
5A5
  8
0
  6
CONTINUOUS
 62
     7
 10
219.1642259137472
 20
66.669114001134531
 30
0.0
  0
VERTEX
  5
5A6
  8
0
  6
CONTINUOUS
 62
     7
 10
219.19577772047671
 20
66.672232493660118
 30
0.0
  0
VERTEX
  5
5A7
  8
0
  6
CONTINUOUS
 62
     7
 10
219.25822320577251
 20
66.678404431160288
 30
0.0
  0
VERTEX
  5
5A8
  8
0
  6
CONTINUOUS
 62
     7
 10
219.3197812032333
 20
66.684488651839558
 30
0.0
  0
VERTEX
  5
5A9
  8
0
  6
CONTINUOUS
 62
     7
 10
219.35022369014621
 20
66.687497502290242
 30
0.0
  0
VERTEX
  5
5AA
  8
0
  6
CONTINUOUS
 62
     7
 10
219.3804398819656
 20
66.690483986365422
 30
0.0
  0
VERTEX
  5
5AB
  8
0
  6
CONTINUOUS
 62
     7
 10
219.44018758391681
 20
66.696389282488511
 30
0.0
  0
VERTEX
  5
5AC
  8
0
  6
CONTINUOUS
 62
     7
 10
219.49901282611609
 20
66.702203405264015
 30
0.0
  0
VERTEX
  5
5AD
  8
0
  6
CONTINUOUS
 62
     7
 10
219.52807598479791
 20
66.705075926761623
 30
0.0
  0
VERTEX
  5
5AE
  8
0
  6
CONTINUOUS
 62
     7
 10
219.55690430288081
 20
66.707925237269819
 30
0.0
  0
VERTEX
  5
5AF
  8
0
  6
CONTINUOUS
 62
     7
 10
219.6138508879898
 20
66.713553678821299
 30
0.0
  0
VERTEX
  5
5B0
  8
0
  6
CONTINUOUS
 62
     7
 10
219.6698416368217
 20
66.719087648182594
 30
0.0
  0
VERTEX
  5
5B1
  8
0
  6
CONTINUOUS
 62
     7
 10
219.724865788458
 20
66.724526081774542
 30
0.0
  0
VERTEX
  5
5B2
  8
0
  6
CONTINUOUS
 62
     7
 10
219.77891276775159
 20
66.729867934379158
 30
0.0
  0
VERTEX
  5
5B3
  8
0
  6
CONTINUOUS
 62
     7
 10
219.8319721873593
 20
66.735112179340376
 30
0.0
  0
VERTEX
  5
5B4
  8
0
  6
CONTINUOUS
 62
     7
 10
219.85812836808071
 20
66.737697383248886
 30
0.0
  0
VERTEX
  5
5B5
  8
0
  6
CONTINUOUS
 62
     7
 10
219.8840338497377
 20
66.740257808761484
 30
0.0
  0
VERTEX
  5
5B6
  8
0
  6
CONTINUOUS
 62
     7
 10
219.93508774910359
 20
66.745303833698827
 30
0.0
  0
VERTEX
  5
5B7
  8
0
  6
CONTINUOUS
 62
     7
 10
219.9851240733567
 20
66.750249284351753
 30
0.0
  0
VERTEX
  5
5B8
  8
0
  6
CONTINUOUS
 62
     7
 10
220.03413320596539
 20
66.755093210249129
 30
0.0
  0
VERTEX
  5
5B9
  8
0
  6
CONTINUOUS
 62
     7
 10
220.0821057278153
 20
66.759834680431965
 30
0.0
  0
VERTEX
  5
5BA
  8
0
  6
CONTINUOUS
 62
     7
 10
220.1290324190191
 20
66.764472783632328
 30
0.0
  0
VERTEX
  5
5BB
  8
0
  6
CONTINUOUS
 62
     7
 10
220.15210075182699
 20
66.766752793270314
 30
0.0
  0
VERTEX
  5
5BC
  8
0
  6
CONTINUOUS
 62
     7
 10
220.17490426068869
 20
66.769006628448523
 30
0.0
  0
VERTEX
  5
5BD
  8
0
  6
CONTINUOUS
 62
     7
 10
220.2197124366688
 20
66.773435343516326
 30
0.0
  0
VERTEX
  5
5BE
  8
0
  6
CONTINUOUS
 62
     7
 10
220.26344833523089
 20
66.777758077676538
 30
0.0
  0
VERTEX
  5
5BF
  8
0
  6
CONTINUOUS
 62
     7
 10
220.30610355072869
 20
66.781974000138518
 30
0.0
  0
VERTEX
  5
5C0
  8
0
  6
CONTINUOUS
 62
     7
 10
220.34766988521341
 20
66.786082300639904
 30
0.0
  0
VERTEX
  5
5C1
  8
0
  6
CONTINUOUS
 62
     7
 10
220.3881393500092
 20
66.790082189602288
 30
0.0
  0
VERTEX
  5
5C2
  8
0
  6
CONTINUOUS
 62
     7
 10
220.40796031741451
 20
66.792041238706304
 30
0.0
  0
VERTEX
  5
5C3
  8
0
  6
CONTINUOUS
 62
     7
 10
220.42750416724911
 20
66.793972898282973
 30
0.0
  0
VERTEX
  5
5C4
  8
0
  6
CONTINUOUS
 62
     7
 10
220.4657567713692
 20
66.797753678922746
 30
0.0
  0
VERTEX
  5
5C5
  8
0
  6
CONTINUOUS
 62
     7
 10
220.502889810563
 20
66.801423804889581
 30
0.0
  0
VERTEX
  5
5C6
  8
0
  6
CONTINUOUS
 62
     7
 10
220.53889614819431
 20
66.804982570818254
 30
0.0
  0
VERTEX
  5
5C7
  8
0
  6
CONTINUOUS
 62
     7
 10
220.5737688641689
 20
66.808429292745984
 30
0.0
  0
VERTEX
  5
5C8
  8
0
  6
CONTINUOUS
 62
     7
 10
220.60750125626441
 20
66.811763308243798
 30
0.0
  0
VERTEX
  5
5C9
  8
0
  6
CONTINUOUS
 62
     7
 10
220.6239377963052
 20
66.813387849992012
 30
0.0
  0
VERTEX
  5
5CA
  8
0
  6
CONTINUOUS
 62
     7
 10
220.64008684141839
 20
66.8149839765439
 30
0.0
  0
VERTEX
  5
5CB
  8
0
  6
CONTINUOUS
 62
     7
 10
220.6715193569745
 20
66.818090678662813
 30
0.0
  0
VERTEX
  5
5CC
  8
0
  6
CONTINUOUS
 62
     7
 10
220.70179276188591
 20
66.821082817520335
 30
0.0
  0
VERTEX
  5
5CD
  8
0
  6
CONTINUOUS
 62
     7
 10
220.73090123787651
 20
66.823959818054291
 30
0.0
  0
VERTEX
  5
5CE
  8
0
  6
CONTINUOUS
 62
     7
 10
220.75883919055889
 20
66.826721127331041
 30
0.0
  0
VERTEX
  5
5CF
  8
0
  6
CONTINUOUS
 62
     7
 10
220.7856012505099
 20
66.82936621465177
 30
0.0
  0
VERTEX
  5
5D0
  8
0
  6
CONTINUOUS
 62
     7
 10
220.79853970453479
 20
66.830645015340281
 30
0.0
  0
VERTEX
  5
5D1
  8
0
  6
CONTINUOUS
 62
     7
 10
220.8111822743023
 20
66.831894571654516
 30
0.0
  0
VERTEX
  5
5D2
  8
0
  6
CONTINUOUS
 62
     7
 10
220.83557734549331
 20
66.834305712411762
 30
0.0
  0
VERTEX
  5
5D3
  8
0
  6
CONTINUOUS
 62
     7
 10
220.8587817755697
 20
66.836599173523979
 30
0.0
  0
VERTEX
  5
5D4
  8
0
  6
CONTINUOUS
 62
     7
 10
220.8699360975767
 20
66.837701635582775
 30
0.0
  0
VERTEX
  5
5D5
  8
0
  6
CONTINUOUS
 62
     7
 10
220.88079110484881
 20
66.838774514208524
 30
0.0
  0
VERTEX
  5
5D6
  8
0
  6
CONTINUOUS
 62
     7
 10
220.90160110333531
 20
66.840831316384509
 30
0.0
  0
VERTEX
  5
5D7
  8
0
  6
CONTINUOUS
 62
     7
 10
220.92120777153471
 20
66.842769184753067
 30
0.0
  0
VERTEX
  5
5D8
  8
0
  6
CONTINUOUS
 62
     7
 10
220.93055867015221
 20
66.843693401476884
 30
0.0
  0
VERTEX
  5
5D9
  8
0
  6
CONTINUOUS
 62
     7
 10
220.93960734122169
 20
66.844587746873273
 30
0.0
  0
VERTEX
  5
5DA
  8
0
  6
CONTINUOUS
 62
     7
 10
220.95679627616451
 20
66.846286653233904
 30
0.0
  0
VERTEX
  5
5DB
  8
0
  6
CONTINUOUS
 62
     7
 10
220.97277127280449
 20
66.84786557732042
 30
0.0
  0
VERTEX
  5
5DC
  8
0
  6
CONTINUOUS
 62
     7
 10
220.9875292608908
 20
66.849324215677797
 30
0.0
  0
VERTEX
  5
5DD
  8
0
  6
CONTINUOUS
 62
     7
 10
221.00106740407091
 20
66.850662287968859
 30
0.0
  0
VERTEX
  5
5DE
  8
0
  6
CONTINUOUS
 62
     7
 10
221.01338310043559
 20
66.851879537028154
 30
0.0
  0
VERTEX
  5
5DF
  8
0
  6
CONTINUOUS
 62
     7
 10
221.019081782195
 20
66.852442778829953
 30
0.0
  0
VERTEX
  5
5E0
  8
0
  6
CONTINUOUS
 62
     7
 10
221.02447398301859
 20
66.85297572891136
 30
0.0
  0
VERTEX
  5
5E1
  8
0
  6
CONTINUOUS
 62
     7
 10
221.03433792025211
 20
66.853950652940256
 30
0.0
  0
VERTEX
  5
5E2
  8
0
  6
CONTINUOUS
 62
     7
 10
221.0429730163761
 20
66.8548041217432
 30
0.0
  0
VERTEX
  5
5E3
  8
0
  6
CONTINUOUS
 62
     7
 10
221.0503776118029
 20
66.855535971291189
 30
0.0
  0
VERTEX
  5
5E4
  8
0
  6
CONTINUOUS
 62
     7
 10
221.05655028343551
 20
66.856146060929305
 30
0.0
  0
VERTEX
  5
5E5
  8
0
  6
CONTINUOUS
 62
     7
 10
221.0614898449422
 20
66.856634273403813
 30
0.0
  0
VERTEX
  5
5E6
  8
0
  6
CONTINUOUS
 62
     7
 10
221.06349690346701
 20
66.856832645467307
 30
0.0
  0
VERTEX
  5
5E7
  8
0
  6
CONTINUOUS
 62
     7
 10
221.0651953469837
 20
66.857000514884646
 30
0.0
  0
VERTEX
  5
5E8
  8
0
  6
CONTINUOUS
 62
     7
 10
221.06766607739581
 20
66.857244714983523
 30
0.0
  0
VERTEX
  5
5E9
  8
0
  6
CONTINUOUS
 62
     7
 10
221.0689015613263
 20
66.857366826767347
 30
0.0
  0
VERTEX
  5
5EA
  8
0
  6
CONTINUOUS
 62
     7
 10
221.06905600238301
 20
66.85738209129039
 30
0.0
  0
SEQEND
  5
5EB
  8
0
  6
CONTINUOUS
 62
     7
  0
LINE
  5
69
  8
0
  6
CONTINUOUS
 62
     7
 10
221.06905600238301
 20
82.367265812220623
 30
0.0
 11
205.16905600238309
 21
82.367265812220623
 31
0.0
  0
LINE
  5
6A
  8
0
  6
CONTINUOUS
 62
     7
 10
205.16905600238309
 20
82.367265812220623
 30
0.0
 11
205.16905600238309
 21
81.967265812220646
 31
0.0
  0
LINE
  5
6C
  8
0
  6
CONTINUOUS
 62
     7
 10
161.3878482036738
 20
60.958658064673813
 30
0.0
 11
215.11286860335241
 21
66.268689150688544
 31
0.0
  0
LINE
  5
6D
  8
0
  6
CONTINUOUS
 62
     7
 10
205.16905600238309
 20
81.967265812220646
 30
0.0
 11
160.250830575328
 21
77.21876769564625
 31
0.0
  0
LINE
  5
6E
  8
0
  6
CONTINUOUS
 62
     7
 10
155.81905600238301
 20
49.367265812220637
 30
0.0
 11
140.81905600238301
 21
49.367265812220637
 31
0.0
  0
LINE
  5
73
  8
0
  6
CONTINUOUS
 62
     7
 10
158.530837462465
 20
80.867265812220637
 30
0.0
 11
138.10727454230101
 21
80.867265812220637
 31
0.0
  0
LINE
  5
75
  8
0
  6
GESTRICHELT
 62
     2
 10
140.31905600238301
 20
79.292265812220649
 30
0.0
 11
156.31905600238301
 21
79.292265812220649
 31
0.0
  0
LINE
  5
7C
  8
0
  6
CONTINUOUS
 62
     7
 10
161.49425134261821
 20
59.437022285964758
 30
0.0
 11
135.14386066214789
 21
59.437022285964758
 31
0.0
  0
LINE
  5
7D
  8
0
  6
CONTINUOUS
 62
     7
 10
160.10583746246499
 20
79.292265812220649
 30
0.0
 11
136.532274542301
 21
79.292265812220649
 31
0.0
  0
LINE
  5
7E
  8
2
 10
152.31905600238301
 20
69.367265812220637
 30
0.0
 11
144.31905600238301
 21
69.367265812220637
 31
0.0
  0
LINE
  5
80
  8
2
 10
152.31905600238301
 20
50.029765812220639
 30
0.0
 11
144.31905600238301
 21
50.029765812220639
 31
0.0
  0
LINE
  5
F2
  8
1
 10
148.31905600238301
 20
83.203467175348734
 30
0.0
 11
148.31905600238301
 21
46.781072057555029
 31
0.0
  0
LINE
  5
12E
  8
0
 10
160.4966872923583
 20
58.36726581222063
 30
0.0
 11
136.14142471240771
 21
58.36726581222063
 31
0.0
  0
LINE
  5
12F
  8
0
 10
158.31905600238301
 20
49.567265812220633
 30
0.0
 11
138.31905600238301
 21
49.567265812220633
 31
0.0
  0
LINE
  5
130
  8
2
 10
152.8674520594069
 20
74.367265812220637
 30
0.0
 11
143.82097576227159
 21
74.367460508760303
 31
0.0
  0
LINE
  5
131
  8
2
 10
140.81905600238301
 20
71.108783413430999
 30
0.0
 11
140.81905600238301
 21
49.367265812220637
 31
0.0
  0
LINE
  5
132
  8
2
 10
155.81905600238301
 20
49.367265812220637
 30
0.0
 11
155.81905600238301
 21
71.164512166094951
 31
0.0
  0
LINE
  5
134
  8
2
 10
143.81980340963389
 20
74.366790926258716
 30
0.0
 11
140.8170800454044
 21
71.106638053689665
 31
0.0
  0
LINE
  5
135
  8
2
 10
152.8631401736146
 20
74.371944611784954
 30
0.0
 11
155.83655081405669
 21
71.145515833504476
 31
0.0
  0
LINE
  5
164
  8
1
 10
212.31905600238301
 20
130.846520547566
 30
0.0
 11
212.31905600238301
 21
61.742834729988722
 31
0.0
  0
LINE
  5
348
  8
0
  6
CONTINUOUS
 62
     7
 10
292.82326651182518
 20
82.667265812220677
 30
0.0
 11
292.82326651182518
 21
82.36726581222068
 31
0.0
  0
LINE
  5
349
  8
0
  6
CONTINUOUS
 62
     7
 10
302.57326651182518
 20
82.36726581222068
 30
0.0
 11
302.57326651182518
 21
82.667265812220677
 31
0.0
  0
LINE
  5
34A
  8
0
  6
CONTINUOUS
 62
     7
 10
291.19826651182518
 20
97.36726581222068
 30
0.0
 11
291.19826651182518
 21
82.667265812220677
 31
0.0
  0
LINE
  5
34B
  8
0
  6
CONTINUOUS
 62
     7
 10
304.19826651182518
 20
82.667265812220677
 30
0.0
 11
304.19826651182518
 21
97.36726581222068
 31
0.0
  0
ARC
  5
34C
  8
0
  6
CONTINUOUS
 62
     7
 10
304.19826651182518
 20
98.61726581222068
 30
0.0
 40
1.25
 50
270.0
 51
0.0000008537736463
  0
ARC
  5
34D
  8
0
  6
CONTINUOUS
 62
     7
 10
291.19826651182518
 20
98.617265812220666
 30
0.0
 40
1.2499999999999989
 50
180.0
 51
270.0
  0
LINE
  5
34E
  8
0
  6
CONTINUOUS
 62
     7
 10
289.94826651182518
 20
119.61726581222059
 30
0.0
 11
289.94826651182518
 21
98.61726581222068
 31
0.0
  0
LINE
  5
34F
  8
0
  6
CONTINUOUS
 62
     7
 10
305.44826651182518
 20
98.61726581222068
 30
0.0
 11
305.44826651182518
 21
119.61726581222059
 31
0.0
  0
ARC
  5
350
  8
0
  6
CONTINUOUS
 62
     7
 10
297.69826651182518
 20
119.61726581222059
 30
0.0
 40
7.7500000000000124
 50
0.0
 51
180.0
  0
LINE
  5
358
  8
0
  6
CONTINUOUS
 62
     7
 10
304.19826651182518
 20
82.667265812220677
 30
0.0
 11
291.19826651182518
 21
82.667265812220677
 31
0.0
  0
LINE
  5
359
  8
0
  6
CONTINUOUS
 62
     7
 10
304.19826651182518
 20
97.36726581222068
 30
0.0
 11
291.19826651182518
 21
97.36726581222068
 31
0.0
  0
LINE
  5
35A
  8
0
  6
CONTINUOUS
 62
     7
 10
305.44826651182518
 20
98.61726581222068
 30
0.0
 11
289.94826651182518
 21
98.61726581222068
 31
0.0
  0
LINE
  5
35B
  8
0
  6
CONTINUOUS
 62
     7
 10
305.44826651182518
 20
119.61726581222059
 30
0.0
 11
289.94826651182518
 21
119.61726581222059
 31
0.0
  0
LINE
  5
365
  8
0
  6
CONTINUOUS
 62
     7
 10
290.19826651182518
 20
49.567265812220683
 30
0.0
 11
290.19826651182518
 21
49.367265812220673
 31
0.0
  0
LINE
  5
366
  8
0
  6
CONTINUOUS
 62
     7
 10
305.19826651182518
 20
49.367265812220673
 30
0.0
 11
305.19826651182518
 21
49.567265812220683
 31
0.0
  0
LINE
  5
367
  8
0
  6
CONTINUOUS
 62
     7
 10
287.69826651182518
 20
58.36726581222068
 30
0.0
 11
287.69826651182518
 21
49.567265812220683
 31
0.0
  0
LINE
  5
368
  8
0
  6
CONTINUOUS
 62
     7
 10
307.69826651182518
 20
49.567265812220683
 30
0.0
 11
307.69826651182518
 21
58.36726581222068
 31
0.0
  0
ARC
  5
369
  8
0
  6
CONTINUOUS
 62
     7
 10
309.87589780180048
 20
59.367265812220673
 30
0.0
 40
0.9999999999999982
 50
270.0
 51
4.0000000000000151
  0
ARC
  5
36A
  8
0
  6
CONTINUOUS
 62
     7
 10
285.52063522184977
 20
59.367265812220673
 30
0.0
 40
0.9999999999999975
 50
176.0
 51
270.0
  0
LINE
  5
36B
  8
0
  6
CONTINUOUS
 62
     7
 10
287.4864850517431
 20
80.86726581222068
 30
0.0
 11
285.91148505174323
 21
79.292265812220677
 31
0.0
  0
LINE
  5
36C
  8
0
  6
CONTINUOUS
 62
     7
 10
309.48504797190719
 20
79.292265812220677
 30
0.0
 11
307.91004797190732
 21
80.86726581222068
 31
0.0
  0
LINE
  5
36F
  8
0
  6
CONTINUOUS
 62
     7
 10
285.91148505174323
 20
79.292265812220677
 30
0.0
 11
284.52307117159
 21
59.437022285964801
 31
0.0
  0
LINE
  5
370
  8
0
  6
CONTINUOUS
 62
     7
 10
310.87346185206042
 20
59.437022285964801
 30
0.0
 11
309.48504797190719
 21
79.292265812220677
 31
0.0
  0
LINE
  5
37B
  8
0
  6
CONTINUOUS
 62
     7
 10
304.1094585960542
 20
82.36726581222068
 30
0.0
 11
304.1094585960542
 21
66.268689150688573
 31
0.0
  0
POLYLINE
  5
37C
  8
0
  6
CONTINUOUS
 62
     7
 66
     1
 10
0.0
 20
0.0
 30
0.0
  0
VERTEX
  5
5EC
  8
0
  6
CONTINUOUS
 62
     7
 10
291.28707442759628
 20
66.268689150688573
 30
0.0
  0
VERTEX
  5
5ED
  8
0
  6
CONTINUOUS
 62
     7
 10
291.29423915714187
 20
66.277469129950703
 30
0.0
  0
VERTEX
  5
5EE
  8
0
  6
CONTINUOUS
 62
     7
 10
291.31225939207587
 20
66.294995421105213
 30
0.0
  0
VERTEX
  5
5EF
  8
0
  6
CONTINUOUS
 62
     7
 10
291.33518872366881
 20
66.312465598726433
 30
0.0
  0
VERTEX
  5
5F0
  8
0
  6
CONTINUOUS
 62
     7
 10
291.34848893952449
 20
66.321175446182366
 30
0.0
  0
VERTEX
  5
5F1
  8
0
  6
CONTINUOUS
 62
     7
 10
291.36300952552227
 20
66.329866233015537
 30
0.0
  0
VERTEX
  5
5F2
  8
0
  6
CONTINUOUS
 62
     7
 10
291.39570041103229
 20
66.347183947633638
 30
0.0
  0
VERTEX
  5
5F3
  8
0
  6
CONTINUOUS
 62
     7
 10
291.43323624982958
 20
66.364405429984373
 30
0.0
  0
VERTEX
  5
5F4
  8
0
  6
CONTINUOUS
 62
     7
 10
291.4755881870982
 20
66.38151744144777
 30
0.0
  0
VERTEX
  5
5F5
  8
0
  6
CONTINUOUS
 62
     7
 10
291.5227236657567
 20
66.398506827557071
 30
0.0
  0
VERTEX
  5
5F6
  8
0
  6
CONTINUOUS
 62
     7
 10
291.57460645148569
 20
66.415360528110995
 30
0.0
  0
VERTEX
  5
5F7
  8
0
  6
CONTINUOUS
 62
     7
 10
291.60231576257928
 20
66.423732443239786
 30
0.0
  0
VERTEX
  5
5F8
  8
0
  6
CONTINUOUS
 62
     7
 10
291.63119666058242
 20
66.432065587213344
 30
0.0
  0
VERTEX
  5
5F9
  8
0
  6
CONTINUOUS
 62
     7
 10
291.6924507906204
 20
66.448609163232703
 30
0.0
  0
VERTEX
  5
5FA
  8
0
  6
CONTINUOUS
 62
     7
 10
291.7583217538903
 20
66.464978538674032
 30
0.0
  0
VERTEX
  5
5FB
  8
0
  6
CONTINUOUS
 62
     7
 10
291.82875891359851
 20
66.481161129955012
 30
0.0
  0
VERTEX
  5
5FC
  8
0
  6
CONTINUOUS
 62
     7
 10
291.90370812279252
 20
66.49714449707939
 30
0.0
  0
VERTEX
  5
5FD
  8
0
  6
CONTINUOUS
 62
     7
 10
291.98311176598457
 20
66.512916353199884
 30
0.0
  0
VERTEX
  5
5FE
  8
0
  6
CONTINUOUS
 62
     7
 10
292.02446505790817
 20
66.520719169197505
 30
0.0
  0
VERTEX
  5
5FF
  8
0
  6
CONTINUOUS
 62
     7
 10
292.06690880344348
 20
66.528464574063449
 30
0.0
  0
VERTEX
  5
600
  8
0
  6
CONTINUOUS
 62
     7
 10
292.15503481811658
 20
66.543777207331544
 30
0.0
  0
VERTEX
  5
601
  8
0
  6
CONTINUOUS
 62
     7
 10
292.24742206514929
 20
66.558842481768181
 30
0.0
  0
VERTEX
  5
602
  8
0
  6
CONTINUOUS
 62
     7
 10
292.29519158335148
 20
66.566278732663505
 30
0.0
  0
VERTEX
  5
603
  8
0
  6
CONTINUOUS
 62
     7
 10
292.343999523962
 20
66.573648816288795
 30
0.0
  0
VERTEX
  5
604
  8
0
  6
CONTINUOUS
 62
     7
 10
292.44469295284631
 20
66.588184828862993
 30
0.0
  0
VERTEX
  5
605
  8
0
  6
CONTINUOUS
 62
     7
 10
292.54942494603557
 20
66.602439345264131
 30
0.0
  0
VERTEX
  5
606
  8
0
  6
CONTINUOUS
 62
     7
 10
292.60328036436499
 20
66.609457609392649
 30
0.0
  0
VERTEX
  5
607
  8
0
  6
CONTINUOUS
 62
     7
 10
292.65811499320972
 20
66.616401407659325
 30
0.0
  0
VERTEX
  5
608
  8
0
  6
CONTINUOUS
 62
     7
 10
292.77067954138522
 20
66.630060283033004
 30
0.0
  0
VERTEX
  5
609
  8
0
  6
CONTINUOUS
 62
     7
 10
292.8870320591447
 20
66.643405471437674
 30
0.0
  0
VERTEX
  5
60A
  8
0
  6
CONTINUOUS
 62
     7
 10
293.00708310315599
 20
66.656426714065503
 30
0.0
  0
VERTEX
  5
60B
  8
0
  6
CONTINUOUS
 62
     7
 10
293.13074038692969
 20
66.669114001134574
 30
0.0
  0
VERTEX
  5
60C
  8
0
  6
CONTINUOUS
 62
     7
 10
293.25790885176201
 20
66.681457579583622
 30
0.0
  0
VERTEX
  5
60D
  8
0
  6
CONTINUOUS
 62
     7
 10
293.32277933114312
 20
66.687497502290285
 30
0.0
  0
VERTEX
  5
60E
  8
0
  6
CONTINUOUS
 62
     7
 10
293.38849073980907
 20
66.693447960569557
 30
0.0
  0
VERTEX
  5
60F
  8
0
  6
CONTINUOUS
 62
     7
 10
293.52238566923671
 20
66.70507592676168
 30
0.0
  0
VERTEX
  5
610
  8
0
  6
CONTINUOUS
 62
     7
 10
293.65949071138527
 20
66.716332539427412
 30
0.0
  0
VERTEX
  5
611
  8
0
  6
CONTINUOUS
 62
     7
 10
293.79970046989519
 20
66.727209145303689
 30
0.0
  0
VERTEX
  5
612
  8
0
  6
CONTINUOUS
 62
     7
 10
293.94290716172691
 20
66.737697383248914
 30
0.0
  0
VERTEX
  5
613
  8
0
  6
CONTINUOUS
 62
     7
 10
294.08900070001732
 20
66.747789190670517
 30
0.0
  0
VERTEX
  5
614
  8
0
  6
CONTINUOUS
 62
     7
 10
294.16309502527878
 20
66.75268399653929
 30
0.0
  0
VERTEX
  5
615
  8
0
  6
CONTINUOUS
 62
     7
 10
294.23786877870612
 20
66.757476809722732
 30
0.0
  0
VERTEX
  5
616
  8
0
  6
CONTINUOUS
 62
     7
 10
294.38939695886847
 20
66.766752793270371
 30
0.0
  0
VERTEX
  5
617
  8
0
  6
CONTINUOUS
 62
     7
 10
294.54346875668767
 20
66.775610010613605
 30
0.0
  0
VERTEX
  5
618
  8
0
  6
CONTINUOUS
 62
     7
 10
294.69996573299937
 20
66.784041652969563
 30
0.0
  0
VERTEX
  5
619
  8
0
  6
CONTINUOUS
 62
     7
 10
294.85876758433858
 20
66.792041238706346
 30
0.0
  0
VERTEX
  5
61A
  8
0
  6
CONTINUOUS
 62
     7
 10
295.01975223542053
 20
66.799602618325707
 30
0.0
  0
VERTEX
  5
61B
  8
0
  6
CONTINUOUS
 62
     7
 10
295.10102450092381
 20
66.803217151109578
 30
0.0
  0
VERTEX
  5
61C
  8
0
  6
CONTINUOUS
 62
     7
 10
295.18279593298303
 20
66.806719979190305
 30
0.0
  0
VERTEX
  5
61D
  8
0
  6
CONTINUOUS
 62
     7
 10
295.34777334091922
 20
66.813387849992054
 30
0.0
  0
VERTEX
  5
61E
  8
0
  6
CONTINUOUS
 62
     7
 10
295.51455763662671
 20
66.819601104958039
 30
0.0
  0
VERTEX
  5
61F
  8
0
  6
CONTINUOUS
 62
     7
 10
295.68302060849942
 20
66.825354967790872
 30
0.0
  0
VERTEX
  5
620
  8
0
  6
CONTINUOUS
 62
     7
 10
295.85303275448757
 20
66.830645015340323
 30
0.0
  0
VERTEX
  5
621
  8
0
  6
CONTINUOUS
 62
     7
 10
296.0244633816493
 20
66.835467181003551
 30
0.0
  0
VERTEX
  5
622
  8
0
  6
CONTINUOUS
 62
     7
 10
296.11066948319802
 20
66.837701635582846
 30
0.0
  0
VERTEX
  5
623
  8
0
  6
CONTINUOUS
 62
     7
 10
296.19718070661747
 20
66.839817757851179
 30
0.0
  0
VERTEX
  5
624
  8
0
  6
CONTINUOUS
 62
     7
 10
296.371051956906
 20
66.843693401476941
 30
0.0
  0
VERTEX
  5
625
  8
0
  6
CONTINUOUS
 62
     7
 10
296.5459434729749
 20
66.847091132568565
 30
0.0
  0
VERTEX
  5
626
  8
0
  6
CONTINUOUS
 62
     7
 10
296.72172081097818
 20
66.850008339198183
 30
0.0
  0
VERTEX
  5
627
  8
0
  6
CONTINUOUS
 62
     7
 10
296.8982488461146
 20
66.852442778829996
 30
0.0
  0
VERTEX
  5
628
  8
0
  6
CONTINUOUS
 62
     7
 10
297.07539187650178
 20
66.854392580044305
 30
0.0
  0
VERTEX
  5
629
  8
0
  6
CONTINUOUS
 62
     7
 10
297.16415147594472
 20
66.855185258263219
 30
0.0
  0
VERTEX
  5
62A
  8
0
  6
CONTINUOUS
 62
     7
 10
297.25301372749379
 20
66.855856243976135
 30
0.0
  0
VERTEX
  5
62B
  8
0
  6
CONTINUOUS
 62
     7
 10
297.43097785636218
 20
66.85683264546735
 30
0.0
  0
VERTEX
  5
62C
  8
0
  6
CONTINUOUS
 62
     7
 10
297.60914745726041
 20
66.857321033931669
 30
0.0
  0
VERTEX
  5
62D
  8
0
  6
CONTINUOUS
 62
     7
 10
297.69826651182518
 20
66.857382091290447
 30
0.0
  0
VERTEX
  5
62E
  8
0
  6
CONTINUOUS
 62
     7
 10
297.7873855663899
 20
66.857321033931669
 30
0.0
  0
VERTEX
  5
62F
  8
0
  6
CONTINUOUS
 62
     7
 10
297.96555516728819
 20
66.85683264546735
 30
0.0
  0
VERTEX
  5
630
  8
0
  6
CONTINUOUS
 62
     7
 10
298.14351929615663
 20
66.855856243976135
 30
0.0
  0
VERTEX
  5
631
  8
0
  6
CONTINUOUS
 62
     7
 10
298.2323815477057
 20
66.855185258263219
 30
0.0
  0
VERTEX
  5
632
  8
0
  6
CONTINUOUS
 62
     7
 10
298.32114114714852
 20
66.854392580044305
 30
0.0
  0
VERTEX
  5
633
  8
0
  6
CONTINUOUS
 62
     7
 10
298.49828417753582
 20
66.852442778829996
 30
0.0
  0
VERTEX
  5
634
  8
0
  6
CONTINUOUS
 62
     7
 10
298.67481221267218
 20
66.850008339198183
 30
0.0
  0
VERTEX
  5
635
  8
0
  6
CONTINUOUS
 62
     7
 10
298.85058955067552
 20
66.847091132568565
 30
0.0
  0
VERTEX
  5
636
  8
0
  6
CONTINUOUS
 62
     7
 10
299.02548106674431
 20
66.843693401476941
 30
0.0
  0
VERTEX
  5
637
  8
0
  6
CONTINUOUS
 62
     7
 10
299.19935231703278
 20
66.839817757851179
 30
0.0
  0
VERTEX
  5
638
  8
0
  6
CONTINUOUS
 62
     7
 10
299.2858635404524
 20
66.837701635582846
 30
0.0
  0
VERTEX
  5
639
  8
0
  6
CONTINUOUS
 62
     7
 10
299.37206964200112
 20
66.835467181003551
 30
0.0
  0
VERTEX
  5
63A
  8
0
  6
CONTINUOUS
 62
     7
 10
299.54350026916268
 20
66.830645015340323
 30
0.0
  0
VERTEX
  5
63B
  8
0
  6
CONTINUOUS
 62
     7
 10
299.713512415151
 20
66.825354967790872
 30
0.0
  0
VERTEX
  5
63C
  8
0
  6
CONTINUOUS
 62
     7
 10
299.8819753870236
 20
66.819601104958039
 30
0.0
  0
VERTEX
  5
63D
  8
0
  6
CONTINUOUS
 62
     7
 10
300.0487596827312
 20
66.813387849992054
 30
0.0
  0
VERTEX
  5
63E
  8
0
  6
CONTINUOUS
 62
     7
 10
300.21373709066739
 20
66.806719979190305
 30
0.0
  0
VERTEX
  5
63F
  8
0
  6
CONTINUOUS
 62
     7
 10
300.29550852272661
 20
66.803217151109578
 30
0.0
  0
VERTEX
  5
640
  8
0
  6
CONTINUOUS
 62
     7
 10
300.37678078822978
 20
66.799602618325707
 30
0.0
  0
VERTEX
  5
641
  8
0
  6
CONTINUOUS
 62
     7
 10
300.53776543931173
 20
66.792041238706332
 30
0.0
  0
VERTEX
  5
642
  8
0
  6
CONTINUOUS
 62
     7
 10
300.69656729065088
 20
66.784041652969563
 30
0.0
  0
VERTEX
  5
643
  8
0
  6
CONTINUOUS
 62
     7
 10
300.85306426696258
 20
66.775610010613605
 30
0.0
  0
VERTEX
  5
644
  8
0
  6
CONTINUOUS
 62
     7
 10
301.00713606478189
 20
66.766752793270371
 30
0.0
  0
VERTEX
  5
645
  8
0
  6
CONTINUOUS
 62
     7
 10
301.1586642449443
 20
66.757476809722732
 30
0.0
  0
VERTEX
  5
646
  8
0
  6
CONTINUOUS
 62
     7
 10
301.23343799837158
 20
66.75268399653929
 30
0.0
  0
VERTEX
  5
647
  8
0
  6
CONTINUOUS
 62
     7
 10
301.30753232363298
 20
66.747789190670517
 30
0.0
  0
VERTEX
  5
648
  8
0
  6
CONTINUOUS
 62
     7
 10
301.4536258619234
 20
66.737697383248914
 30
0.0
  0
VERTEX
  5
649
  8
0
  6
CONTINUOUS
 62
     7
 10
301.59683255375518
 20
66.727209145303689
 30
0.0
  0
VERTEX
  5
64A
  8
0
  6
CONTINUOUS
 62
     7
 10
301.73704231226509
 20
66.716332539427412
 30
0.0
  0
VERTEX
  5
64B
  8
0
  6
CONTINUOUS
 62
     7
 10
301.87414735441371
 20
66.70507592676168
 30
0.0
  0
VERTEX
  5
64C
  8
0
  6
CONTINUOUS
 62
     7
 10
302.00804228384118
 20
66.693447960569557
 30
0.0
  0
VERTEX
  5
64D
  8
0
  6
CONTINUOUS
 62
     7
 10
302.07375369250718
 20
66.687497502290285
 30
0.0
  0
VERTEX
  5
64E
  8
0
  6
CONTINUOUS
 62
     7
 10
302.13862417188841
 20
66.681457579583622
 30
0.0
  0
VERTEX
  5
64F
  8
0
  6
CONTINUOUS
 62
     7
 10
302.26579263672068
 20
66.669114001134574
 30
0.0
  0
VERTEX
  5
650
  8
0
  6
CONTINUOUS
 62
     7
 10
302.38944992049431
 20
66.656426714065503
 30
0.0
  0
VERTEX
  5
651
  8
0
  6
CONTINUOUS
 62
     7
 10
302.50950096450572
 20
66.643405471437674
 30
0.0
  0
VERTEX
  5
652
  8
0
  6
CONTINUOUS
 62
     7
 10
302.62585348226509
 20
66.630060283033004
 30
0.0
  0
VERTEX
  5
653
  8
0
  6
CONTINUOUS
 62
     7
 10
302.7384180304407
 20
66.616401407659325
 30
0.0
  0
VERTEX
  5
654
  8
0
  6
CONTINUOUS
 62
     7
 10
302.79325265928537
 20
66.609457609392649
 30
0.0
  0
VERTEX
  5
655
  8
0
  6
CONTINUOUS
 62
     7
 10
302.84710807761479
 20
66.602439345264131
 30
0.0
  0
VERTEX
  5
656
  8
0
  6
CONTINUOUS
 62
     7
 10
302.951840070804
 20
66.588184828862993
 30
0.0
  0
VERTEX
  5
657
  8
0
  6
CONTINUOUS
 62
     7
 10
303.05253349968831
 20
66.573648816288795
 30
0.0
  0
VERTEX
  5
658
  8
0
  6
CONTINUOUS
 62
     7
 10
303.10134144029882
 20
66.566278732663505
 30
0.0
  0
VERTEX
  5
659
  8
0
  6
CONTINUOUS
 62
     7
 10
303.14911095850113
 20
66.558842481768181
 30
0.0
  0
VERTEX
  5
65A
  8
0
  6
CONTINUOUS
 62
     7
 10
303.24149820553367
 20
66.543777207331544
 30
0.0
  0
VERTEX
  5
65B
  8
0
  6
CONTINUOUS
 62
     7
 10
303.32962422020688
 20
66.528464574063449
 30
0.0
  0
VERTEX
  5
65C
  8
0
  6
CONTINUOUS
 62
     7
 10
303.37206796574219
 20
66.520719169197505
 30
0.0
  0
VERTEX
  5
65D
  8
0
  6
CONTINUOUS
 62
     7
 10
303.41342125766579
 20
66.512916353199884
 30
0.0
  0
VERTEX
  5
65E
  8
0
  6
CONTINUOUS
 62
     7
 10
303.4928249008579
 20
66.49714449707939
 30
0.0
  0
VERTEX
  5
65F
  8
0
  6
CONTINUOUS
 62
     7
 10
303.5677741100518
 20
66.481161129955012
 30
0.0
  0
VERTEX
  5
660
  8
0
  6
CONTINUOUS
 62
     7
 10
303.63821126976012
 20
66.464978538674004
 30
0.0
  0
VERTEX
  5
661
  8
0
  6
CONTINUOUS
 62
     7
 10
303.70408223303002
 20
66.448609163232689
 30
0.0
  0
VERTEX
  5
662
  8
0
  6
CONTINUOUS
 62
     7
 10
303.76533636306789
 20
66.432065587213344
 30
0.0
  0
VERTEX
  5
663
  8
0
  6
CONTINUOUS
 62
     7
 10
303.79421726107108
 20
66.423732443239786
 30
0.0
  0
VERTEX
  5
664
  8
0
  6
CONTINUOUS
 62
     7
 10
303.82192657216473
 20
66.41536052811098
 30
0.0
  0
VERTEX
  5
665
  8
0
  6
CONTINUOUS
 62
     7
 10
303.87380935789372
 20
66.398506827557071
 30
0.0
  0
VERTEX
  5
666
  8
0
  6
CONTINUOUS
 62
     7
 10
303.92094483655222
 20
66.38151744144777
 30
0.0
  0
VERTEX
  5
667
  8
0
  6
CONTINUOUS
 62
     7
 10
303.96329677382067
 20
66.364405429984373
 30
0.0
  0
VERTEX
  5
668
  8
0
  6
CONTINUOUS
 62
     7
 10
304.00083261261801
 20
66.347183947633638
 30
0.0
  0
VERTEX
  5
669
  8
0
  6
CONTINUOUS
 62
     7
 10
304.03352349812809
 20
66.329866233015537
 30
0.0
  0
VERTEX
  5
66A
  8
0
  6
CONTINUOUS
 62
     7
 10
304.04804408412588
 20
66.321175446182366
 30
0.0
  0
VERTEX
  5
66B
  8
0
  6
CONTINUOUS
 62
     7
 10
304.0613442999815
 20
66.312465598726433
 30
0.0
  0
VERTEX
  5
66C
  8
0
  6
CONTINUOUS
 62
     7
 10
304.08427363157438
 20
66.294995421105213
 30
0.0
  0
VERTEX
  5
66D
  8
0
  6
CONTINUOUS
 62
     7
 10
304.10229386650838
 20
66.277469129950703
 30
0.0
  0
VERTEX
  5
66E
  8
0
  6
CONTINUOUS
 62
     7
 10
304.10945859605408
 20
66.268689150688573
 30
0.0
  0
SEQEND
  5
66F
  8
0
  6
CONTINUOUS
 62
     7
  0
LINE
  5
37D
  8
0
  6
CONTINUOUS
 62
     7
 10
304.10945859605408
 20
66.268689150688573
 30
0.0
 11
308.48187600323303
 21
60.40345072047694
 31
0.0
  0
LINE
  5
37E
  8
0
  6
CONTINUOUS
 62
     7
 10
304.84213018095301
 20
81.967265812220688
 30
0.0
 11
304.84213018095301
 21
82.36726581222068
 31
0.0
  0
LINE
  5
37F
  8
0
  6
CONTINUOUS
 62
     7
 10
290.5544028426973
 20
82.36726581222068
 30
0.0
 11
290.5544028426973
 21
81.967265812220688
 31
0.0
  0
LINE
  5
380
  8
0
  6
CONTINUOUS
 62
     7
 10
304.84213018095301
 20
82.36726581222068
 30
0.0
 11
290.5544028426973
 21
82.36726581222068
 31
0.0
  0
LINE
  5
381
  8
0
  6
CONTINUOUS
 62
     7
 10
291.28707442759628
 20
82.36726581222068
 30
0.0
 11
291.28707442759628
 21
66.268689150688573
 31
0.0
  0
LINE
  5
382
  8
0
  6
CONTINUOUS
 62
     7
 10
286.91465702041728
 20
60.403450720476933
 30
0.0
 11
291.28707442759628
 21
66.268689150688573
 31
0.0
  0
LINE
  5
383
  8
0
  6
CONTINUOUS
 62
     7
 10
308.67677965870791
 20
76.465489442112755
 30
0.0
 11
304.84213018095301
 21
81.967265812220688
 31
0.0
  0
LINE
  5
385
  8
0
  6
CONTINUOUS
 62
     7
 10
290.5544028426973
 20
81.967265812220688
 30
0.0
 11
286.71975336494251
 21
76.465489442112741
 31
0.0
  0
LINE
  5
386
  8
0
  6
CONTINUOUS
 62
     7
 10
305.19826651182518
 20
49.367265812220673
 30
0.0
 11
290.19826651182518
 21
49.367265812220673
 31
0.0
  0
LINE
  5
387
  8
0
  6
CONTINUOUS
 62
     7
 10
307.69826651182518
 20
49.567265812220683
 30
0.0
 11
287.69826651182518
 21
49.567265812220683
 31
0.0
  0
LINE
  5
388
  8
0
  6
CONTINUOUS
 62
     7
 10
309.87589780180048
 20
58.36726581222068
 30
0.0
 11
285.52063522184977
 21
58.36726581222068
 31
0.0
  0
LINE
  5
38A
  8
0
  6
CONTINUOUS
 62
     7
 10
307.91004797190732
 20
80.86726581222068
 30
0.0
 11
305.60987655164979
 21
80.86726581222068
 31
0.0
  0
LINE
  5
38B
  8
0
  6
CONTINUOUS
 62
     7
 10
289.78665647200057
 20
80.86726581222068
 30
0.0
 11
287.4864850517431
 21
80.86726581222068
 31
0.0
  0
POLYLINE
  5
38C
  8
0
  6
CONTINUOUS
 62
     7
 66
     1
 10
0.0
 20
0.0
 30
0.0
  0
VERTEX
  5
670
  8
0
  6
CONTINUOUS
 62
     7
 10
308.48187600323303
 20
60.403450720476933
 30
0.0
  0
VERTEX
  5
671
  8
0
  6
CONTINUOUS
 62
     7
 10
308.51571292233717
 20
63.651223159787087
 30
0.0
  0
VERTEX
  5
672
  8
0
  6
CONTINUOUS
 62
     7
 10
308.58157564603738
 20
69.444675712443853
 30
0.0
  0
VERTEX
  5
673
  8
0
  6
CONTINUOUS
 62
     7
 10
308.64544360399822
 20
74.341585347592257
 30
0.0
  0
VERTEX
  5
674
  8
0
  6
CONTINUOUS
 62
     7
 10
308.67677965870791
 20
76.465489442112755
 30
0.0
  0
SEQEND
  5
675
  8
0
  6
CONTINUOUS
 62
     7
  0
POLYLINE
  5
38E
  8
0
  6
CONTINUOUS
 62
     7
 66
     1
 10
0.0
 20
0.0
 30
0.0
  0
VERTEX
  5
676
  8
0
  6
CONTINUOUS
 62
     7
 10
286.71975336494251
 20
76.465489442112741
 30
0.0
  0
VERTEX
  5
677
  8
0
  6
CONTINUOUS
 62
     7
 10
286.75108941965198
 20
74.341585347608401
 30
0.0
  0
VERTEX
  5
678
  8
0
  6
CONTINUOUS
 62
     7
 10
286.8149573776127
 20
69.444675712473156
 30
0.0
  0
VERTEX
  5
679
  8
0
  6
CONTINUOUS
 62
     7
 10
286.88082010131302
 20
63.651223159803578
 30
0.0
  0
VERTEX
  5
67A
  8
0
  6
CONTINUOUS
 62
     7
 10
286.91465702041728
 20
60.403450720476933
 30
0.0
  0
SEQEND
  5
67B
  8
0
  6
CONTINUOUS
 62
     7
  0
POLYLINE
  5
38F
  8
0
  6
CONTINUOUS
 62
     7
 66
     1
 10
0.0
 20
0.0
 30
0.0
  0
VERTEX
  5
67C
  8
0
  6
CONTINUOUS
 62
     7
 10
286.91465702041728
 20
60.403450720476933
 30
0.0
  0
VERTEX
  5
67D
  8
0
  6
CONTINUOUS
 62
     7
 10
286.98215663583329
 20
60.412899913719947
 30
0.0
  0
VERTEX
  5
67E
  8
0
  6
CONTINUOUS
 62
     7
 10
287.11969302582258
 20
60.43161844239993
 30
0.0
  0
VERTEX
  5
67F
  8
0
  6
CONTINUOUS
 62
     7
 10
287.26057592560801
 20
60.450092233960703
 30
0.0
  0
VERTEX
  5
680
  8
0
  6
CONTINUOUS
 62
     7
 10
287.33225843014083
 20
60.459235523950838
 30
0.0
  0
VERTEX
  5
681
  8
0
  6
CONTINUOUS
 62
     7
 10
287.40476076717619
 20
60.468315444256582
 30
0.0
  0
VERTEX
  5
682
  8
0
  6
CONTINUOUS
 62
     7
 10
287.55220193795151
 20
60.486282308412768
 30
0.0
  0
VERTEX
  5
683
  8
0
  6
CONTINUOUS
 62
     7
 10
287.702852795225
 20
60.503987142649009
 30
0.0
  0
VERTEX
  5
684
  8
0
  6
CONTINUOUS
 62
     7
 10
287.85666568091028
 20
60.521424346077723
 30
0.0
  0
VERTEX
  5
685
  8
0
  6
CONTINUOUS
 62
     7
 10
288.01359193661978
 20
60.53858840247571
 30
0.0
  0
VERTEX
  5
686
  8
0
  6
CONTINUOUS
 62
     7
 10
288.17358191905782
 20
60.555473882029339
 30
0.0
  0
VERTEX
  5
687
  8
0
  6
CONTINUOUS
 62
     7
 10
288.25471002881778
 20
60.563810482723632
 30
0.0
  0
VERTEX
  5
688
  8
0
  6
CONTINUOUS
 62
     7
 10
288.33658501572501
 20
60.572075443052128
 30
0.0
  0
VERTEX
  5
689
  8
0
  6
CONTINUOUS
 62
     7
 10
288.50254966092962
 20
60.588387833674673
 30
0.0
  0
VERTEX
  5
68A
  8
0
  6
CONTINUOUS
 62
     7
 10
288.67142335210002
 20
60.604405893505998
 30
0.0
  0
VERTEX
  5
68B
  8
0
  6
CONTINUOUS
 62
     7
 10
288.84315266639408
 20
60.620124555266081
 30
0.0
  0
VERTEX
  5
68C
  8
0
  6
CONTINUOUS
 62
     7
 10
289.01768327759919
 20
60.635538846388847
 30
0.0
  0
VERTEX
  5
68D
  8
0
  6
CONTINUOUS
 62
     7
 10
289.19495997331842
 20
60.650643890595283
 30
0.0
  0
VERTEX
  5
68E
  8
0
  6
CONTINUOUS
 62
     7
 10
289.28461061097317
 20
60.658078947976392
 30
0.0
  0
VERTEX
  5
68F
  8
0
  6
CONTINUOUS
 62
     7
 10
289.37492667243617
 20
60.665434909435902
 30
0.0
  0
VERTEX
  5
690
  8
0
  6
CONTINUOUS
 62
     7
 10
289.55752644286042
 20
60.679907223802608
 30
0.0
  0
VERTEX
  5
691
  8
0
  6
CONTINUOUS
 62
     7
 10
289.74270151953232
 20
60.694056255408718
 30
0.0
  0
VERTEX
  5
692
  8
0
  6
CONTINUOUS
 62
     7
 10
289.83623652285752
 20
60.701008137387433
 30
0.0
  0
VERTEX
  5
693
  8
0
  6
CONTINUOUS
 62
     7
 10
289.9303933226999
 20
60.707877528237418
 30
0.0
  0
VERTEX
  5
694
  8
0
  6
CONTINUOUS
 62
     7
 10
290.12054247645051
 20
60.721366669957689
 30
0.0
  0
VERTEX
  5
695
  8
0
  6
CONTINUOUS
 62
     7
 10
290.3130888274934
 20
60.734519413307517
 30
0.0
  0
VERTEX
  5
696
  8
0
  6
CONTINUOUS
 62
     7
 10
290.41024194620991
 20
60.740968331136827
 30
0.0
  0
VERTEX
  5
697
  8
0
  6
CONTINUOUS
 62
     7
 10
290.5079714641895
 20
60.747331597443797
 30
0.0
  0
VERTEX
  5
698
  8
0
  6
CONTINUOUS
 62
     7
 10
290.70512873582061
 20
60.759799169258642
 30
0.0
  0
VERTEX
  5
699
  8
0
  6
CONTINUOUS
 62
     7
 10
290.90449827209261
 20
60.771918184661537
 30
0.0
  0
VERTEX
  5
69A
  8
0
  6
CONTINUOUS
 62
     7
 10
291.10601700286583
 20
60.783684809827093
 30
0.0
  0
VERTEX
  5
69B
  8
0
  6
CONTINUOUS
 62
     7
 10
291.30962117810731
 20
60.795095322407811
 30
0.0
  0
VERTEX
  5
69C
  8
0
  6
CONTINUOUS
 62
     7
 10
291.51524638805859
 20
60.806146112711701
 30
0.0
  0
VERTEX
  5
69D
  8
0
  6
CONTINUOUS
 62
     7
 10
291.61879657761699
 20
60.811535515067071
 30
0.0
  0
VERTEX
  5
69E
  8
0
  6
CONTINUOUS
 62
     7
 10
291.72282758361041
 20
60.816833684844148
 30
0.0
  0
VERTEX
  5
69F
  8
0
  6
CONTINUOUS
 62
     7
 10
291.93229909688199
 20
60.827154657813871
 30
0.0
  0
VERTEX
  5
6A0
  8
0
  6
CONTINUOUS
 62
     7
 10
292.14359466199409
 20
60.837105766602427
 30
0.0
  0
VERTEX
  5
6A1
  8
0
  6
CONTINUOUS
 62
     7
 10
292.3566474360328
 20
60.846683863197228
 30
0.0
  0
VERTEX
  5
6A2
  8
0
  6
CONTINUOUS
 62
     7
 10
292.57139002019471
 20
60.855885917587251
 30
0.0
  0
VERTEX
  5
6A3
  8
0
  6
CONTINUOUS
 62
     7
 10
292.7877544811081
 20
60.864709018721634
 30
0.0
  0
VERTEX
  5
6A4
  8
0
  6
CONTINUOUS
 62
     7
 10
292.89652354528261
 20
60.868977584870159
 30
0.0
  0
VERTEX
  5
6A5
  8
0
  6
CONTINUOUS
 62
     7
 10
293.00567237232451
 20
60.873150375430647
 30
0.0
  0
VERTEX
  5
6A6
  8
0
  6
CONTINUOUS
 62
     7
 10
293.22507475597058
 20
60.881207317308593
 30
0.0
  0
VERTEX
  5
6A7
  8
0
  6
CONTINUOUS
 62
     7
 10
293.44589222455721
 20
60.888877295558601
 30
0.0
  0
VERTEX
  5
6A8
  8
0
  6
CONTINUOUS
 62
     7
 10
293.6680549229356
 20
60.896157883798942
 30
0.0
  0
VERTEX
  5
6A9
  8
0
  6
CONTINUOUS
 62
     7
 10
293.89149257039668
 20
60.903046778830642
 30
0.0
  0
VERTEX
  5
6AA
  8
0
  6
CONTINUOUS
 62
     7
 10
294.11613448290399
 20
60.909541801366018
 30
0.0
  0
VERTEX
  5
6AB
  8
0
  6
CONTINUOUS
 62
     7
 10
294.2288848450039
 20
60.912640963472647
 30
0.0
  0
VERTEX
  5
6AC
  8
0
  6
CONTINUOUS
 62
     7
 10
294.3419095954539
 20
60.915640896718138
 30
0.0
  0
VERTEX
  5
6AD
  8
0
  6
CONTINUOUS
 62
     7
 10
294.56874648455761
 20
60.921342135450871
 30
0.0
  0
VERTEX
  5
6AE
  8
0
  6
CONTINUOUS
 62
     7
 10
294.79657339083548
 20
60.926643713989101
 30
0.0
  0
VERTEX
  5
6AF
  8
0
  6
CONTINUOUS
 62
     7
 10
295.0253182417178
 20
60.931543955189511
 30
0.0
  0
VERTEX
  5
6B0
  8
0
  6
CONTINUOUS
 62
     7
 10
295.25490867424509
 20
60.936041308870912
 30
0.0
  0
VERTEX
  5
6B1
  8
0
  6
CONTINUOUS
 62
     7
 10
295.48527205796012
 20
60.940134352304788
 30
0.0
  0
VERTEX
  5
6B2
  8
0
  6
CONTINUOUS
 62
     7
 10
295.60072084200368
 20
60.942028848038177
 30
0.0
  0
VERTEX
  5
6B3
  8
0
  6
CONTINUOUS
 62
     7
 10
295.71633551788369
 20
60.943821790665368
 30
0.0
  0
VERTEX
  5
6B4
  8
0
  6
CONTINUOUS
 62
     7
 10
295.94802595756931
 20
60.947102457439129
 30
0.0
  0
VERTEX
  5
6B5
  8
0
  6
CONTINUOUS
 62
     7
 10
296.1802700822264
 20
60.94997531479396
 30
0.0
  0
VERTEX
  5
6B6
  8
0
  6
CONTINUOUS
 62
     7
 10
296.41299442190768
 20
60.952439453907381
 30
0.0
  0
VERTEX
  5
6B7
  8
0
  6
CONTINUOUS
 62
     7
 10
296.64612535475078
 20
60.954494095254113
 30
0.0
  0
VERTEX
  5
6B8
  8
0
  6
CONTINUOUS
 62
     7
 10
296.87958913026807
 20
60.956138588852582
 30
0.0
  0
VERTEX
  5
6B9
  8
0
  6
CONTINUOUS
 62
     7
 10
296.99642275757219
 20
60.956806862600573
 30
0.0
  0
VERTEX
  5
6BA
  8
0
  6
CONTINUOUS
 62
     7
 10
297.1133118926781
 20
60.957372414470683
 30
0.0
  0
VERTEX
  5
6BB
  8
0
  6
CONTINUOUS
 62
     7
 10
297.34721970426949
 20
60.958195181790217
 30
0.0
  0
VERTEX
  5
6BC
  8
0
  6
CONTINUOUS
 62
     7
 10
297.58123856879092
 20
60.958606630530468
 30
0.0
  0
VERTEX
  5
6BD
  8
0
  6
CONTINUOUS
 62
     7
 10
297.69826651182518
 20
60.958658064673848
 30
0.0
  0
VERTEX
  5
6BE
  8
0
  6
CONTINUOUS
 62
     7
 10
297.8152944548595
 20
60.958606630530468
 30
0.0
  0
VERTEX
  5
6BF
  8
0
  6
CONTINUOUS
 62
     7
 10
298.04931331938081
 20
60.958195181790217
 30
0.0
  0
VERTEX
  5
6C0
  8
0
  6
CONTINUOUS
 62
     7
 10
298.28322113097221
 20
60.957372414470683
 30
0.0
  0
VERTEX
  5
6C1
  8
0
  6
CONTINUOUS
 62
     7
 10
298.40011026607817
 20
60.956806862600573
 30
0.0
  0
VERTEX
  5
6C2
  8
0
  6
CONTINUOUS
 62
     7
 10
298.51694389338229
 20
60.956138588852582
 30
0.0
  0
VERTEX
  5
6C3
  8
0
  6
CONTINUOUS
 62
     7
 10
298.75040766889958
 20
60.954494095254113
 30
0.0
  0
VERTEX
  5
6C4
  8
0
  6
CONTINUOUS
 62
     7
 10
298.98353860174262
 20
60.952439453907381
 30
0.0
  0
VERTEX
  5
6C5
  8
0
  6
CONTINUOUS
 62
     7
 10
299.21626294142391
 20
60.94997531479396
 30
0.0
  0
VERTEX
  5
6C6
  8
0
  6
CONTINUOUS
 62
     7
 10
299.44850706608111
 20
60.947102457439129
 30
0.0
  0
VERTEX
  5
6C7
  8
0
  6
CONTINUOUS
 62
     7
 10
299.68019750576673
 20
60.943821790665368
 30
0.0
  0
VERTEX
  5
6C8
  8
0
  6
CONTINUOUS
 62
     7
 10
299.79581218164662
 20
60.942028848038177
 30
0.0
  0
VERTEX
  5
6C9
  8
0
  6
CONTINUOUS
 62
     7
 10
299.91126096569019
 20
60.940134352304788
 30
0.0
  0
VERTEX
  5
6CA
  8
0
  6
CONTINUOUS
 62
     7
 10
300.14162434940522
 20
60.936041308870912
 30
0.0
  0
VERTEX
  5
6CB
  8
0
  6
CONTINUOUS
 62
     7
 10
300.37121478193251
 20
60.931543955189511
 30
0.0
  0
VERTEX
  5
6CC
  8
0
  6
CONTINUOUS
 62
     7
 10
300.59995963281477
 20
60.926643713989101
 30
0.0
  0
VERTEX
  5
6CD
  8
0
  6
CONTINUOUS
 62
     7
 10
300.8277865390927
 20
60.921342135450871
 30
0.0
  0
VERTEX
  5
6CE
  8
0
  6
CONTINUOUS
 62
     7
 10
301.05462342819641
 20
60.915640896718138
 30
0.0
  0
VERTEX
  5
6CF
  8
0
  6
CONTINUOUS
 62
     7
 10
301.1676481786464
 20
60.912640963472647
 30
0.0
  0
VERTEX
  5
6D0
  8
0
  6
CONTINUOUS
 62
     7
 10
301.28039854074632
 20
60.909541801366018
 30
0.0
  0
VERTEX
  5
6D1
  8
0
  6
CONTINUOUS
 62
     7
 10
301.50504045325363
 20
60.903046778830642
 30
0.0
  0
VERTEX
  5
6D2
  8
0
  6
CONTINUOUS
 62
     7
 10
301.72847810071482
 20
60.896157883798949
 30
0.0
  0
VERTEX
  5
6D3
  8
0
  6
CONTINUOUS
 62
     7
 10
301.95064079909321
 20
60.888877295558601
 30
0.0
  0
VERTEX
  5
6D4
  8
0
  6
CONTINUOUS
 62
     7
 10
302.17145826767972
 20
60.881207317308593
 30
0.0
  0
VERTEX
  5
6D5
  8
0
  6
CONTINUOUS
 62
     7
 10
302.39086065132591
 20
60.873150375430647
 30
0.0
  0
VERTEX
  5
6D6
  8
0
  6
CONTINUOUS
 62
     7
 10
302.50000947836782
 20
60.868977584870159
 30
0.0
  0
VERTEX
  5
6D7
  8
0
  6
CONTINUOUS
 62
     7
 10
302.60877854254221
 20
60.864709018721634
 30
0.0
  0
VERTEX
  5
6D8
  8
0
  6
CONTINUOUS
 62
     7
 10
302.82514300345571
 20
60.855885917587251
 30
0.0
  0
VERTEX
  5
6D9
  8
0
  6
CONTINUOUS
 62
     7
 10
303.0398855876175
 20
60.846683863197228
 30
0.0
  0
VERTEX
  5
6DA
  8
0
  6
CONTINUOUS
 62
     7
 10
303.25293836165622
 20
60.837105766602427
 30
0.0
  0
VERTEX
  5
6DB
  8
0
  6
CONTINUOUS
 62
     7
 10
303.46423392676837
 20
60.827154657813871
 30
0.0
  0
VERTEX
  5
6DC
  8
0
  6
CONTINUOUS
 62
     7
 10
303.6737054400399
 20
60.816833684844148
 30
0.0
  0
VERTEX
  5
6DD
  8
0
  6
CONTINUOUS
 62
     7
 10
303.77773644603332
 20
60.811535515067071
 30
0.0
  0
VERTEX
  5
6DE
  8
0
  6
CONTINUOUS
 62
     7
 10
303.88128663559178
 20
60.806146112711701
 30
0.0
  0
VERTEX
  5
6DF
  8
0
  6
CONTINUOUS
 62
     7
 10
304.086911845543
 20
60.795095322407811
 30
0.0
  0
VERTEX
  5
6E0
  8
0
  6
CONTINUOUS
 62
     7
 10
304.29051602078459
 20
60.783684809827093
 30
0.0
  0
VERTEX
  5
6E1
  8
0
  6
CONTINUOUS
 62
     7
 10
304.4920347515577
 20
60.771918184661537
 30
0.0
  0
VERTEX
  5
6E2
  8
0
  6
CONTINUOUS
 62
     7
 10
304.6914042878297
 20
60.759799169258642
 30
0.0
  0
VERTEX
  5
6E3
  8
0
  6
CONTINUOUS
 62
     7
 10
304.88856155946092
 20
60.747331597443797
 30
0.0
  0
VERTEX
  5
6E4
  8
0
  6
CONTINUOUS
 62
     7
 10
304.9862910774404
 20
60.740968331136827
 30
0.0
  0
VERTEX
  5
6E5
  8
0
  6
CONTINUOUS
 62
     7
 10
305.08344419615702
 20
60.734519413307517
 30
0.0
  0
VERTEX
  5
6E6
  8
0
  6
CONTINUOUS
 62
     7
 10
305.27599054719991
 20
60.721366669957689
 30
0.0
  0
VERTEX
  5
6E7
  8
0
  6
CONTINUOUS
 62
     7
 10
305.46613970095052
 20
60.707877528237418
 30
0.0
  0
VERTEX
  5
6E8
  8
0
  6
CONTINUOUS
 62
     7
 10
305.5602965007929
 20
60.701008137387433
 30
0.0
  0
VERTEX
  5
6E9
  8
0
  6
CONTINUOUS
 62
     7
 10
305.6538315041181
 20
60.694056255408718
 30
0.0
  0
VERTEX
  5
6EA
  8
0
  6
CONTINUOUS
 62
     7
 10
305.83900658078988
 20
60.679907223802608
 30
0.0
  0
VERTEX
  5
6EB
  8
0
  6
CONTINUOUS
 62
     7
 10
306.02160635121419
 20
60.665434909435909
 30
0.0
  0
VERTEX
  5
6EC
  8
0
  6
CONTINUOUS
 62
     7
 10
306.11192241267707
 20
60.658078947976392
 30
0.0
  0
VERTEX
  5
6ED
  8
0
  6
CONTINUOUS
 62
     7
 10
306.201573050332
 20
60.650643890595283
 30
0.0
  0
VERTEX
  5
6EE
  8
0
  6
CONTINUOUS
 62
     7
 10
306.37884974605112
 20
60.635538846388847
 30
0.0
  0
VERTEX
  5
6EF
  8
0
  6
CONTINUOUS
 62
     7
 10
306.55338035725629
 20
60.620124555266081
 30
0.0
  0
VERTEX
  5
6F0
  8
0
  6
CONTINUOUS
 62
     7
 10
306.7251096715504
 20
60.604405893505998
 30
0.0
  0
VERTEX
  5
6F1
  8
0
  6
CONTINUOUS
 62
     7
 10
306.8939833627208
 20
60.588387833674673
 30
0.0
  0
VERTEX
  5
6F2
  8
0
  6
CONTINUOUS
 62
     7
 10
307.05994800792541
 20
60.572075443052128
 30
0.0
  0
VERTEX
  5
6F3
  8
0
  6
CONTINUOUS
 62
     7
 10
307.14182299483269
 20
60.563810482723632
 30
0.0
  0
VERTEX
  5
6F4
  8
0
  6
CONTINUOUS
 62
     7
 10
307.2229511045926
 20
60.555473882029339
 30
0.0
  0
VERTEX
  5
6F5
  8
0
  6
CONTINUOUS
 62
     7
 10
307.38294108703047
 20
60.53858840247571
 30
0.0
  0
VERTEX
  5
6F6
  8
0
  6
CONTINUOUS
 62
     7
 10
307.53986734274008
 20
60.521424346077723
 30
0.0
  0
VERTEX
  5
6F7
  8
0
  6
CONTINUOUS
 62
     7
 10
307.69368022842542
 20
60.503987142649002
 30
0.0
  0
VERTEX
  5
6F8
  8
0
  6
CONTINUOUS
 62
     7
 10
307.84433108569891
 20
60.486282308412761
 30
0.0
  0
VERTEX
  5
6F9
  8
0
  6
CONTINUOUS
 62
     7
 10
307.99177225647412
 20
60.468315444256582
 30
0.0
  0
VERTEX
  5
6FA
  8
0
  6
CONTINUOUS
 62
     7
 10
308.06427459350959
 20
60.459235523950838
 30
0.0
  0
VERTEX
  5
6FB
  8
0
  6
CONTINUOUS
 62
     7
 10
308.13595709804241
 20
60.450092233960703
 30
0.0
  0
VERTEX
  5
6FC
  8
0
  6
CONTINUOUS
 62
     7
 10
308.27683999782778
 20
60.43161844239993
 30
0.0
  0
VERTEX
  5
6FD
  8
0
  6
CONTINUOUS
 62
     7
 10
308.41437638781707
 20
60.412899913719947
 30
0.0
  0
VERTEX
  5
6FE
  8
0
  6
CONTINUOUS
 62
     7
 10
308.48187600323308
 20
60.403450720476933
 30
0.0
  0
SEQEND
  5
6FF
  8
0
  6
CONTINUOUS
 62
     7
  0
LINE
  5
390
  8
0
  6
CONTINUOUS
 62
     7
 10
310.8734618520603
 20
59.437022285964801
 30
0.0
 11
284.52307117159012
 21
59.437022285964801
 31
0.0
  0
LINE
  5
392
  8
0
  6
CONTINUOUS
 62
     7
 10
309.48504797190719
 20
79.292265812220677
 30
0.0
 11
306.71145440961709
 21
79.292265812220677
 31
0.0
  0
LINE
  5
393
  8
0
  6
CONTINUOUS
 62
     7
 10
288.68507861403327
 20
79.292265812220677
 30
0.0
 11
285.91148505174323
 21
79.292265812220677
 31
0.0
  0
LINE
  5
3C1
  8
1
 10
297.69826651182518
 20
133.52072569878081
 30
0.0
 11
297.69826651182518
 21
42.729884336354637
 31
0.0
  0
CIRCLE
  5
3C5
  8
0
  6
CONTINUOUS
 62
     7
 10
212.31905600238301
 20
190.749401778991
 30
0.0
 40
7.75
  0
ARC
  5
3D0
  8
0
  6
CONTINUOUS
 62
     7
 10
148.31905600238301
 20
190.749401778991
 30
0.0
 40
13.177631289975309
 50
54.84146519331037
 51
305.1585348066896
  0
LINE
  5
3D3
  8
0
  6
CONTINUOUS
 62
     7
 10
153.125225474335
 20
201.72791492587379
 30
0.0
 11
208.75126065051421
 21
197.6293244767532
 31
0.0
  0
ARC
  5
3D5
  8
0
  6
CONTINUOUS
 62
     7
 10
214.64048457381159
 20
190.749401778991
 30
0.0
 40
6.4285714285714288
 50
296.56286626566327
 51
63.437133734338637
  0
LINE
  5
3D9
  8
0
  6
CONTINUOUS
 62
     7
 10
208.7512606505141
 20
183.8694790812288
 30
0.0
 11
153.125225474335
 21
179.7708886321083
 31
0.0
  0
CIRCLE
  5
3DF
  8
0
  6
CONTINUOUS
 62
     7
 10
148.31905600238301
 20
190.749401778991
 30
0.0
 40
10.211781460082049
  0
CIRCLE
  5
3E0
  8
0
  6
CONTINUOUS
 62
     7
 10
148.31905600238301
 20
190.749401778991
 30
0.0
 40
8.3061489868919054
  0
CIRCLE
  5
3E1
  8
0
  6
CONTINUOUS
 62
     7
 10
148.31905600238301
 20
190.749401778991
 30
0.0
 40
8.0
  0
POLYLINE
  5
3E3
  8
0
  6
CONTINUOUS
 62
     7
 66
     1
 10
0.0
 20
0.0
 30
0.0
  0
VERTEX
  5
700
  8
0
  6
CONTINUOUS
 62
     7
 10
153.125225474335
 20
201.72791492587379
 30
0.0
  0
VERTEX
  5
701
  8
0
  6
CONTINUOUS
 62
     7
 10
153.2419903487168
 20
201.67510748445349
 30
0.0
  0
VERTEX
  5
702
  8
0
  6
CONTINUOUS
 62
     7
 10
153.47379802804491
 20
201.56577342480841
 30
0.0
  0
VERTEX
  5
703
  8
0
  6
CONTINUOUS
 62
     7
 10
153.703221905487
 20
201.45152211771989
 30
0.0
  0
VERTEX
  5
704
  8
0
  6
CONTINUOUS
 62
     7
 10
153.81700728151131
 20
201.39256864093991
 30
0.0
  0
VERTEX
  5
705
  8
0
  6
CONTINUOUS
 62
     7
 10
153.93015768229941
 20
201.33240550315151
 30
0.0
  0
VERTEX
  5
706
  8
0
  6
CONTINUOUS
 62
     7
 10
154.15450219085761
 20
201.20847773289159
 30
0.0
  0
VERTEX
  5
707
  8
0
  6
CONTINUOUS
 62
     7
 10
154.37615344155759
 20
201.07979514593549
 30
0.0
  0
VERTEX
  5
708
  8
0
  6
CONTINUOUS
 62
     7
 10
154.59501066918151
 20
200.946416242873
 30
0.0
  0
VERTEX
  5
709
  8
0
  6
CONTINUOUS
 62
     7
 10
154.8109743787065
 20
200.80840165929371
 30
0.0
  0
VERTEX
  5
70A
  8
0
  6
CONTINUOUS
 62
     7
 10
155.02394639053651
 20
200.6658141382207
 30
0.0
  0
VERTEX
  5
70B
  8
0
  6
CONTINUOUS
 62
     7
 10
155.1292801993759
 20
200.59282570257031
 30
0.0
  0
VERTEX
  5
70C
  8
0
  6
CONTINUOUS
 62
     7
 10
155.233829885136
 20
200.5187185015877
 30
0.0
  0
VERTEX
  5
70D
  8
0
  6
CONTINUOUS
 62
     7
 10
155.44052944704481
 20
200.3671816207694
 30
0.0
  0
VERTEX
  5
70E
  8
0
  6
CONTINUOUS
 62
     7
 10
155.64395110825541
 20
200.21127238618161
 30
0.0
  0
VERTEX
  5
70F
  8
0
  6
CONTINUOUS
 62
     7
 10
155.84400239093171
 20
200.05106167596259
 30
0.0
  0
VERTEX
  5
710
  8
0
  6
CONTINUOUS
 62
     7
 10
156.04059234945069
 20
199.8866223237512
 30
0.0
  0
VERTEX
  5
711
  8
0
  6
CONTINUOUS
 62
     7
 10
156.23363161174731
 20
199.71802908557561
 30
0.0
  0
VERTEX
  5
712
  8
0
  6
CONTINUOUS
 62
     7
 10
156.3287922433253
 20
199.63219863781771
 30
0.0
  0
VERTEX
  5
713
  8
0
  6
CONTINUOUS
 62
     7
 10
156.42303241994389
 20
199.5453586058687
 30
0.0
  0
VERTEX
  5
714
  8
0
  6
CONTINUOUS
 62
     7
 10
156.60870867024619
 20
199.3686893826241
 30
0.0
  0
VERTEX
  5
715
  8
0
  6
CONTINUOUS
 62
     7
 10
156.79057595208681
 20
199.18810173171079
 30
0.0
  0
VERTEX
  5
716
  8
0
  6
CONTINUOUS
 62
     7
 10
156.8800553239831
 20
199.0963640826937
 30
0.0
  0
VERTEX
  5
717
  8
0
  6
CONTINUOUS
 62
     7
 10
156.96855158649939
 20
199.00367775036011
 30
0.0
  0
VERTEX
  5
718
  8
0
  6
CONTINUOUS
 62
     7
 10
157.14255466370571
 20
198.81550127984329
 30
0.0
  0
VERTEX
  5
719
  8
0
  6
CONTINUOUS
 62
     7
 10
157.31250607989739
 20
198.6236578673568
 30
0.0
  0
VERTEX
  5
71A
  8
0
  6
CONTINUOUS
 62
     7
 10
157.39593819785989
 20
198.5263882482825
 30
0.0
  0
VERTEX
  5
71B
  8
0
  6
CONTINUOUS
 62
     7
 10
157.4783285731985
 20
198.42823472713101
 30
0.0
  0
VERTEX
  5
71C
  8
0
  6
CONTINUOUS
 62
     7
 10
157.6399467587888
 20
198.22932070078201
 30
0.0
  0
VERTEX
  5
71D
  8
0
  6
CONTINUOUS
 62
     7
 10
157.7972871631751
 20
198.02700621692301
 30
0.0
  0
VERTEX
  5
71E
  8
0
  6
CONTINUOUS
 62
     7
 10
157.9502782575926
 20
197.82138325005431
 30
0.0
  0
VERTEX
  5
71F
  8
0
  6
CONTINUOUS
 62
     7
 10
158.0988504905234
 20
197.61254527875101
 30
0.0
  0
VERTEX
  5
720
  8
0
  6
CONTINUOUS
 62
     7
 10
158.24293631931479
 20
197.4005872431662
 30
0.0
  0
VERTEX
  5
721
  8
0
  6
CONTINUOUS
 62
     7
 10
158.3132762819539
 20
197.2934682591081
 30
0.0
  0
VERTEX
  5
722
  8
0
  6
CONTINUOUS
 62
     7
 10
158.38247024088531
 20
197.1856055018703
 30
0.0
  0
VERTEX
  5
723
  8
0
  6
CONTINUOUS
 62
     7
 10
158.51738882150309
 20
196.9676977880452
 30
0.0
  0
VERTEX
  5
724
  8
0
  6
CONTINUOUS
 62
     7
 10
158.64763072562349
 20
196.74696316505381
 30
0.0
  0
VERTEX
  5
725
  8
0
  6
CONTINUOUS
 62
     7
 10
158.77313674377319
 20
196.52350198140439
 30
0.0
  0
VERTEX
  5
726
  8
0
  6
CONTINUOUS
 62
     7
 10
158.89384981946691
 20
196.2974158251312
 30
0.0
  0
VERTEX
  5
727
  8
0
  6
CONTINUOUS
 62
     7
 10
159.0097150751468
 20
196.06880747761161
 30
0.0
  0
VERTEX
  5
728
  8
0
  6
CONTINUOUS
 62
     7
 10
159.065813223205
 20
195.95358991613131
 30
0.0
  0
VERTEX
  5
729
  8
0
  6
CONTINUOUS
 62
     7
 10
159.12067983712959
 20
195.83778086683989
 30
0.0
  0
VERTEX
  5
72A
  8
0
  6
CONTINUOUS
 62
     7
 10
159.2266936595534
 20
195.60444102018101
 30
0.0
  0
VERTEX
  5
72B
  8
0
  6
CONTINUOUS
 62
     7
 10
159.32770834731031
 20
195.3688940166235
 30
0.0
  0
VERTEX
  5
72C
  8
0
  6
CONTINUOUS
 62
     7
 10
159.423677977957
 20
195.13124693855499
 30
0.0
  0
VERTEX
  5
72D
  8
0
  6
CONTINUOUS
 62
     7
 10
159.51455892259111
 20
194.89160782308119
 30
0.0
  0
VERTEX
  5
72E
  8
0
  6
CONTINUOUS
 62
     7
 10
159.60030986568589
 20
194.650085612911
 30
0.0
  0
VERTEX
  5
72F
  8
0
  6
CONTINUOUS
 62
     7
 10
159.64124931276149
 20
194.5286526273571
 30
0.0
  0
VERTEX
  5
730
  8
0
  6
CONTINUOUS
 62
     7
 10
159.68089182387251
 20
194.40679010682999
 30
0.0
  0
VERTEX
  5
731
  8
0
  6
CONTINUOUS
 62
     7
 10
159.7562681636623
 20
194.1618319097845
 30
0.0
  0
VERTEX
  5
732
  8
0
  6
CONTINUOUS
 62
     7
 10
159.8264046181009
 20
193.9153223825993
 30
0.0
  0
VERTEX
  5
733
  8
0
  6
CONTINUOUS
 62
     7
 10
159.89126930234619
 20
193.6673735913518
 30
0.0
  0
VERTEX
  5
734
  8
0
  6
CONTINUOUS
 62
     7
 10
159.95083272816379
 20
193.41809825642559
 30
0.0
  0
VERTEX
  5
735
  8
0
  6
CONTINUOUS
 62
     7
 10
160.0050678173325
 20
193.1676097012662
 30
0.0
  0
VERTEX
  5
736
  8
0
  6
CONTINUOUS
 62
     7
 10
160.03017943576941
 20
193.0419460319024
 30
0.0
  0
VERTEX
  5
737
  8
0
  6
CONTINUOUS
 62
     7
 10
160.0539499139546
 20
192.91602180086301
 30
0.0
  0
VERTEX
  5
738
  8
0
  6
CONTINUOUS
 62
     7
 10
160.09745679566461
 20
192.66344892998049
 30
0.0
  0
VERTEX
  5
739
  8
0
  6
CONTINUOUS
 62
     7
 10
160.13556868373161
 20
192.4100059111625
 30
0.0
  0
VERTEX
  5
73A
  8
0
  6
CONTINUOUS
 62
     7
 10
160.16826825205129
 20
192.15580796253141
 30
0.0
  0
VERTEX
  5
73B
  8
0
  6
CONTINUOUS
 62
     7
 10
160.19554063502241
 20
191.9009706454099
 30
0.0
  0
VERTEX
  5
73C
  8
0
  6
CONTINUOUS
 62
     7
 10
160.21737343430459
 20
191.64560981178511
 30
0.0
  0
VERTEX
  5
73D
  8
0
  6
CONTINUOUS
 62
     7
 10
160.22624679163289
 20
191.51776934654939
 30
0.0
  0
VERTEX
  5
73E
  8
0
  6
CONTINUOUS
 62
     7
 10
160.23375672445519
 20
191.3898415516403
 30
0.0
  0
VERTEX
  5
73F
  8
0
  6
CONTINUOUS
 62
     7
 10
160.24468305744151
 20
191.1337821401799
 30
0.0
  0
VERTEX
  5
740
  8
0
  6
CONTINUOUS
 62
     7
 10
160.25014746602631
 20
190.87754798496891
 30
0.0
  0
VERTEX
  5
741
  8
0
  6
CONTINUOUS
 62
     7
 10
160.25083057532791
 20
190.749401778991
 30
0.0
  0
VERTEX
  5
742
  8
0
  6
CONTINUOUS
 62
     7
 10
160.25014746602631
 20
190.62125557301309
 30
0.0
  0
VERTEX
  5
743
  8
0
  6
CONTINUOUS
 62
     7
 10
160.24468305744151
 20
190.36502141780221
 30
0.0
  0
VERTEX
  5
744
  8
0
  6
CONTINUOUS
 62
     7
 10
160.23375672445519
 20
190.10896200634181
 30
0.0
  0
VERTEX
  5
745
  8
0
  6
CONTINUOUS
 62
     7
 10
160.22624679163289
 20
189.98103421143259
 30
0.0
  0
VERTEX
  5
746
  8
0
  6
CONTINUOUS
 62
     7
 10
160.21737343430459
 20
189.85319374619689
 30
0.0
  0
VERTEX
  5
747
  8
0
  6
CONTINUOUS
 62
     7
 10
160.19554063502241
 20
189.5978329125721
 30
0.0
  0
VERTEX
  5
748
  8
0
  6
CONTINUOUS
 62
     7
 10
160.16826825205129
 20
189.3429955954507
 30
0.0
  0
VERTEX
  5
749
  8
0
  6
CONTINUOUS
 62
     7
 10
160.13556868373161
 20
189.08879764681959
 30
0.0
  0
VERTEX
  5
74A
  8
0
  6
CONTINUOUS
 62
     7
 10
160.09745679566461
 20
188.83535462800151
 30
0.0
  0
VERTEX
  5
74B
  8
0
  6
CONTINUOUS
 62
     7
 10
160.0539499139546
 20
188.58278175711911
 30
0.0
  0
VERTEX
  5
74C
  8
0
  6
CONTINUOUS
 62
     7
 10
160.03017943576941
 20
188.4568575260796
 30
0.0
  0
VERTEX
  5
74D
  8
0
  6
CONTINUOUS
 62
     7
 10
160.0050678173325
 20
188.33119385671591
 30
0.0
  0
VERTEX
  5
74E
  8
0
  6
CONTINUOUS
 62
     7
 10
159.95083272816379
 20
188.08070530155649
 30
0.0
  0
VERTEX
  5
74F
  8
0
  6
CONTINUOUS
 62
     7
 10
159.89126930234619
 20
187.8314299666302
 30
0.0
  0
VERTEX
  5
750
  8
0
  6
CONTINUOUS
 62
     7
 10
159.8264046181009
 20
187.58348117538279
 30
0.0
  0
VERTEX
  5
751
  8
0
  6
CONTINUOUS
 62
     7
 10
159.7562681636623
 20
187.33697164819759
 30
0.0
  0
VERTEX
  5
752
  8
0
  6
CONTINUOUS
 62
     7
 10
159.68089182387251
 20
187.09201345115201
 30
0.0
  0
VERTEX
  5
753
  8
0
  6
CONTINUOUS
 62
     7
 10
159.64124931276149
 20
186.97015093062501
 30
0.0
  0
VERTEX
  5
754
  8
0
  6
CONTINUOUS
 62
     7
 10
159.60030986568589
 20
186.84871794507109
 30
0.0
  0
VERTEX
  5
755
  8
0
  6
CONTINUOUS
 62
     7
 10
159.51455892259111
 20
186.6071957349009
 30
0.0
  0
VERTEX
  5
756
  8
0
  6
CONTINUOUS
 62
     7
 10
159.423677977957
 20
186.36755661942709
 30
0.0
  0
VERTEX
  5
757
  8
0
  6
CONTINUOUS
 62
     7
 10
159.32770834731031
 20
186.12990954135859
 30
0.0
  0
VERTEX
  5
758
  8
0
  6
CONTINUOUS
 62
     7
 10
159.2266936595534
 20
185.89436253780099
 30
0.0
  0
VERTEX
  5
759
  8
0
  6
CONTINUOUS
 62
     7
 10
159.12067983712959
 20
185.66102269114219
 30
0.0
  0
VERTEX
  5
75A
  8
0
  6
CONTINUOUS
 62
     7
 10
159.065813223205
 20
185.54521364185081
 30
0.0
  0
VERTEX
  5
75B
  8
0
  6
CONTINUOUS
 62
     7
 10
159.0097150751468
 20
185.4299960803705
 30
0.0
  0
VERTEX
  5
75C
  8
0
  6
CONTINUOUS
 62
     7
 10
158.89384981946691
 20
185.2013877328508
 30
0.0
  0
VERTEX
  5
75D
  8
0
  6
CONTINUOUS
 62
     7
 10
158.77313674377319
 20
184.97530157657769
 30
0.0
  0
VERTEX
  5
75E
  8
0
  6
CONTINUOUS
 62
     7
 10
158.64763072562349
 20
184.75184039292819
 30
0.0
  0
VERTEX
  5
75F
  8
0
  6
CONTINUOUS
 62
     7
 10
158.51738882150309
 20
184.5311057699368
 30
0.0
  0
VERTEX
  5
760
  8
0
  6
CONTINUOUS
 62
     7
 10
158.38247024088531
 20
184.3131980561117
 30
0.0
  0
VERTEX
  5
761
  8
0
  6
CONTINUOUS
 62
     7
 10
158.31327628195379
 20
184.20533529887399
 30
0.0
  0
VERTEX
  5
762
  8
0
  6
CONTINUOUS
 62
     7
 10
158.24293631931479
 20
184.0982163148158
 30
0.0
  0
VERTEX
  5
763
  8
0
  6
CONTINUOUS
 62
     7
 10
158.0988504905234
 20
183.8862582792311
 30
0.0
  0
VERTEX
  5
764
  8
0
  6
CONTINUOUS
 62
     7
 10
157.9502782575926
 20
183.67742030792769
 30
0.0
  0
VERTEX
  5
765
  8
0
  6
CONTINUOUS
 62
     7
 10
157.7972871631751
 20
183.47179734105899
 30
0.0
  0
VERTEX
  5
766
  8
0
  6
CONTINUOUS
 62
     7
 10
157.6399467587888
 20
183.26948285719999
 30
0.0
  0
VERTEX
  5
767
  8
0
  6
CONTINUOUS
 62
     7
 10
157.4783285731985
 20
183.07056883085099
 30
0.0
  0
VERTEX
  5
768
  8
0
  6
CONTINUOUS
 62
     7
 10
157.39593819785989
 20
182.97241530969961
 30
0.0
  0
VERTEX
  5
769
  8
0
  6
CONTINUOUS
 62
     7
 10
157.31250607989739
 20
182.87514569062529
 30
0.0
  0
VERTEX
  5
76A
  8
0
  6
CONTINUOUS
 62
     7
 10
157.1425546637056
 20
182.6833022781388
 30
0.0
  0
VERTEX
  5
76B
  8
0
  6
CONTINUOUS
 62
     7
 10
156.96855158649939
 20
182.495125807622
 30
0.0
  0
VERTEX
  5
76C
  8
0
  6
CONTINUOUS
 62
     7
 10
156.8800553239831
 20
182.4024394752883
 30
0.0
  0
VERTEX
  5
76D
  8
0
  6
CONTINUOUS
 62
     7
 10
156.79057595208681
 20
182.31070182627121
 30
0.0
  0
VERTEX
  5
76E
  8
0
  6
CONTINUOUS
 62
     7
 10
156.60870867024619
 20
182.1301141753579
 30
0.0
  0
VERTEX
  5
76F
  8
0
  6
CONTINUOUS
 62
     7
 10
156.42303241994389
 20
181.95344495211339
 30
0.0
  0
VERTEX
  5
770
  8
0
  6
CONTINUOUS
 62
     7
 10
156.3287922433253
 20
181.86660492016441
 30
0.0
  0
VERTEX
  5
771
  8
0
  6
CONTINUOUS
 62
     7
 10
156.23363161174731
 20
181.78077447240639
 30
0.0
  0
VERTEX
  5
772
  8
0
  6
CONTINUOUS
 62
     7
 10
156.04059234945069
 20
181.61218123423089
 30
0.0
  0
VERTEX
  5
773
  8
0
  6
CONTINUOUS
 62
     7
 10
155.84400239093171
 20
181.4477418820195
 30
0.0
  0
VERTEX
  5
774
  8
0
  6
CONTINUOUS
 62
     7
 10
155.64395110825541
 20
181.28753117180051
 30
0.0
  0
VERTEX
  5
775
  8
0
  6
CONTINUOUS
 62
     7
 10
155.44052944704481
 20
181.13162193721271
 30
0.0
  0
VERTEX
  5
776
  8
0
  6
CONTINUOUS
 62
     7
 10
155.233829885136
 20
180.98008505639439
 30
0.0
  0
VERTEX
  5
777
  8
0
  6
CONTINUOUS
 62
     7
 10
155.12928019937581
 20
180.90597785541181
 30
0.0
  0
VERTEX
  5
778
  8
0
  6
CONTINUOUS
 62
     7
 10
155.02394639053651
 20
180.83298941976139
 30
0.0
  0
VERTEX
  5
779
  8
0
  6
CONTINUOUS
 62
     7
 10
154.81097437870639
 20
180.69040189868841
 30
0.0
  0
VERTEX
  5
77A
  8
0
  6
CONTINUOUS
 62
     7
 10
154.59501066918151
 20
180.552387315109
 30
0.0
  0
VERTEX
  5
77B
  8
0
  6
CONTINUOUS
 62
     7
 10
154.37615344155759
 20
180.41900841204659
 30
0.0
  0
VERTEX
  5
77C
  8
0
  6
CONTINUOUS
 62
     7
 10
154.15450219085761
 20
180.29032582509049
 30
0.0
  0
VERTEX
  5
77D
  8
0
  6
CONTINUOUS
 62
     7
 10
153.93015768229941
 20
180.16639805483061
 30
0.0
  0
VERTEX
  5
77E
  8
0
  6
CONTINUOUS
 62
     7
 10
153.8170072815112
 20
180.10623491704209
 30
0.0
  0
VERTEX
  5
77F
  8
0
  6
CONTINUOUS
 62
     7
 10
153.703221905487
 20
180.0472814402622
 30
0.0
  0
VERTEX
  5
780
  8
0
  6
CONTINUOUS
 62
     7
 10
153.47379802804491
 20
179.9330301331737
 30
0.0
  0
VERTEX
  5
781
  8
0
  6
CONTINUOUS
 62
     7
 10
153.2419903487168
 20
179.82369607352859
 30
0.0
  0
VERTEX
  5
782
  8
0
  6
CONTINUOUS
 62
     7
 10
153.125225474335
 20
179.7708886321083
 30
0.0
  0
SEQEND
  5
783
  8
0
  6
CONTINUOUS
 62
     7
  0
ARC
  5
3E6
  8
0
  6
CONTINUOUS
 62
     7
 10
148.31905600238301
 20
190.749401778991
 30
0.0
 40
13.17519534023514
 50
54.859138782977617
 51
305.1408612170224
  0
CIRCLE
  5
3E8
  8
0
  6
CONTINUOUS
 62
     7
 10
148.31905600238301
 20
190.749401778991
 30
0.0
 40
11.78678146008204
  0
LINE
  5
41F
  8
1
 10
53.810393062577297
 20
133.52072569878081
 30
0.0
 11
53.810393062577297
 21
42.729884336354637
 31
0.0
  0
LINE
  5
420
  8
0
  6
CONTINUOUS
 62
     7
 10
62.823580960369213
 20
79.292265812220677
 30
0.0
 11
42.023611602495258
 21
79.292265812220677
 31
0.0
  0
LINE
  5
421
  8
0
  6
CONTINUOUS
 62
     7
 10
65.597174522659344
 20
79.292265812220677
 30
0.0
 11
62.823580960369213
 21
79.292265812220677
 31
0.0
  0
LINE
  5
422
  8
0
  6
CONTINUOUS
 62
     7
 10
66.985588402812425
 20
59.437022285964801
 30
0.0
 11
40.635197722342177
 21
59.437022285964801
 31
0.0
  0
LINE
  5
426
  8
0
  6
CONTINUOUS
 62
     7
 10
45.898783022752689
 20
80.86726581222068
 30
0.0
 11
43.598611602495247
 21
80.86726581222068
 31
0.0
  0
LINE
  5
427
  8
0
  6
CONTINUOUS
 62
     7
 10
64.022174522659355
 20
80.86726581222068
 30
0.0
 11
45.898783022752689
 21
80.86726581222068
 31
0.0
  0
LINE
  5
428
  8
0
  6
CONTINUOUS
 62
     7
 10
65.988024352552614
 20
58.36726581222068
 30
0.0
 11
41.632761772601981
 21
58.36726581222068
 31
0.0
  0
LINE
  5
429
  8
0
  6
CONTINUOUS
 62
     7
 10
63.810393062577297
 20
49.567265812220683
 30
0.0
 11
43.810393062577297
 21
49.567265812220683
 31
0.0
  0
LINE
  5
42A
  8
0
  6
CONTINUOUS
 62
     7
 10
61.310393062577297
 20
49.367265812220673
 30
0.0
 11
46.310393062577297
 21
49.367265812220673
 31
0.0
  0
LINE
  5
42F
  8
0
  6
CONTINUOUS
 62
     7
 10
60.954256731705208
 20
82.36726581222068
 30
0.0
 11
46.666529393449387
 21
82.36726581222068
 31
0.0
  0
LINE
  5
430
  8
0
  6
CONTINUOUS
 62
     7
 10
46.666529393449359
 20
82.36726581222068
 30
0.0
 11
46.666529393449387
 21
81.967265812220688
 31
0.0
  0
LINE
  5
431
  8
0
  6
CONTINUOUS
 62
     7
 10
60.954256731705208
 20
81.967265812220688
 30
0.0
 11
60.954256731705208
 21
82.36726581222068
 31
0.0
  0
LINE
  5
435
  8
0
  6
CONTINUOUS
 62
     7
 10
66.985588402812454
 20
59.437022285964801
 30
0.0
 11
65.597174522659344
 21
79.292265812220677
 31
0.0
  0
LINE
  5
436
  8
0
  6
CONTINUOUS
 62
     7
 10
42.023611602495258
 20
79.292265812220677
 30
0.0
 11
40.635197722342149
 21
59.437022285964801
 31
0.0
  0
LINE
  5
437
  8
0
  6
CONTINUOUS
 62
     7
 10
65.597174522659344
 20
79.292265812220677
 30
0.0
 11
64.022174522659355
 21
80.86726581222068
 31
0.0
  0
LINE
  5
438
  8
0
  6
CONTINUOUS
 62
     7
 10
43.598611602495247
 20
80.86726581222068
 30
0.0
 11
42.023611602495258
 21
79.292265812220677
 31
0.0
  0
ARC
  5
439
  8
0
  6
CONTINUOUS
 62
     7
 10
41.632761772601981
 20
59.367265812220673
 30
0.0
 40
0.9999999999999975
 50
176.0
 51
270.0
  0
ARC
  5
43A
  8
0
  6
CONTINUOUS
 62
     7
 10
65.988024352552614
 20
59.367265812220673
 30
0.0
 40
0.9999999999999982
 50
270.0
 51
4.0000000000000151
  0
LINE
  5
43B
  8
0
  6
CONTINUOUS
 62
     7
 10
63.810393062577297
 20
49.567265812220683
 30
0.0
 11
63.810393062577297
 21
58.36726581222068
 31
0.0
  0
LINE
  5
43C
  8
0
  6
CONTINUOUS
 62
     7
 10
43.810393062577297
 20
58.36726581222068
 30
0.0
 11
43.810393062577297
 21
49.567265812220683
 31
0.0
  0
LINE
  5
43D
  8
0
  6
CONTINUOUS
 62
     7
 10
61.310393062577297
 20
49.367265812220673
 30
0.0
 11
61.310393062577297
 21
49.567265812220683
 31
0.0
  0
LINE
  5
43E
  8
0
  6
CONTINUOUS
 62
     7
 10
46.310393062577297
 20
49.567265812220683
 30
0.0
 11
46.310393062577297
 21
49.367265812220673
 31
0.0
  0
LINE
  5
43F
  8
0
  6
CONTINUOUS
 62
     7
 10
61.560393062577297
 20
119.61726581222059
 30
0.0
 11
46.060393062577297
 21
119.61726581222059
 31
0.0
  0
LINE
  5
440
  8
0
  6
CONTINUOUS
 62
     7
 10
61.560393062577297
 20
98.61726581222068
 30
0.0
 11
46.060393062577297
 21
98.61726581222068
 31
0.0
  0
LINE
  5
441
  8
0
  6
CONTINUOUS
 62
     7
 10
60.310393062577297
 20
97.36726581222068
 30
0.0
 11
47.310393062577297
 21
97.36726581222068
 31
0.0
  0
LINE
  5
442
  8
0
  6
CONTINUOUS
 62
     7
 10
60.310393062577297
 20
82.667265812220677
 30
0.0
 11
47.310393062577297
 21
82.667265812220677
 31
0.0
  0
ARC
  5
443
  8
0
  6
CONTINUOUS
 62
     7
 10
53.810393062577297
 20
119.61726581222059
 30
0.0
 40
7.7500000000000124
 50
0.0
 51
180.0
  0
LINE
  5
444
  8
0
  6
CONTINUOUS
 62
     7
 10
61.560393062577297
 20
98.61726581222068
 30
0.0
 11
61.560393062577297
 21
119.61726581222059
 31
0.0
  0
LINE
  5
445
  8
0
  6
CONTINUOUS
 62
     7
 10
46.060393062577297
 20
119.61726581222059
 30
0.0
 11
46.060393062577297
 21
98.61726581222068
 31
0.0
  0
ARC
  5
446
  8
0
  6
CONTINUOUS
 62
     7
 10
47.310393062577297
 20
98.617265812220666
 30
0.0
 40
1.2499999999999989
 50
180.0
 51
270.0
  0
ARC
  5
447
  8
0
  6
CONTINUOUS
 62
     7
 10
60.310393062577297
 20
98.61726581222068
 30
0.0
 40
1.25
 50
270.0
 51
0.0000008537736463
  0
LINE
  5
448
  8
0
  6
CONTINUOUS
 62
     7
 10
60.310393062577297
 20
82.667265812220677
 30
0.0
 11
60.310393062577297
 21
97.36726581222068
 31
0.0
  0
LINE
  5
449
  8
0
  6
CONTINUOUS
 62
     7
 10
47.310393062577297
 20
97.36726581222068
 30
0.0
 11
47.310393062577297
 21
82.667265812220677
 31
0.0
  0
LINE
  5
44A
  8
0
  6
CONTINUOUS
 62
     7
 10
58.685393062577297
 20
82.36726581222068
 30
0.0
 11
58.685393062577297
 21
82.667265812220677
 31
0.0
  0
LINE
  5
44B
  8
0
  6
CONTINUOUS
 62
     7
 10
48.935393062577297
 20
82.667265812220677
 30
0.0
 11
48.935393062577297
 21
82.36726581222068
 31
0.0
  0
LINE
  5
44C
  8
0
 10
46.666529393449387
 20
81.967265812220688
 30
0.0
 11
45.898783022752689
 21
80.86726581222068
 31
0.0
  0
LINE
  5
44D
  8
0
 10
60.954256731705208
 20
81.967265812220688
 30
0.0
 11
61.722003102401906
 21
80.86726581222068
 31
0.0
  0
LINE
  5
44E
  8
0
 10
46.666529393449387
 20
81.967265812220688
 30
0.0
 11
60.954256731705208
 21
81.967265812220688
 31
0.0
  0
LINE
  5
44F
  8
1
 10
212.31905600238301
 20
178.78004895916001
 30
0.0
 11
212.31905600238301
 21
201.26041975252309
 31
0.0
  0
LINE
  5
453
  8
1
 10
148.31905600238301
 20
174.32751157195111
 30
0.0
 11
148.31905600238301
 21
207.9415459114409
 31
0.0
  0
LINE
  5
454
  8
1
 10
226.82584147944311
 20
190.749401778991
 30
0.0
 11
130.78346659588709
 21
190.749401778991
 31
0.0
  0
LINE
  5
479
  8
0
  6
CONTINUOUS
 62
     7
 10
218.81905600238301
 20
97.36726581222068
 30
0.0
 11
205.81905600238309
 21
97.36726581222068
 31
0.0
  0
TEXT
  5
510
  8
0
 62
     3
 10
0.0
 20
0.0
 30
0.0
 40
10.0
  1
BCHN64R
  7
STANDARD1
  0
ENDSEC
  0
EOF
