  0
SECTION
  2
HEADER
  9
$ACADVER
  1
AC1009
  9
$INSBASE
 10
0.0
 20
0.0
 30
0.0
  9
$EXTMIN
 10
0.0
 20
-2.960436562073669
 30
0.0
  9
$EXTMAX
 10
696.88452720599719
 20
377.00000077137747
 30
0.0
  9
$LIMMIN
 10
0.0
 20
0.0
  9
$LIMMAX
 10
750.0
 20
540.0
  9
$ORTHOMODE
 70
     1
  9
$REGENMODE
 70
     1
  9
$FILLMODE
 70
     1
  9
$QTEXTMODE
 70
     0
  9
$MIRRTEXT
 70
     0
  9
$DRAGMODE
 70
     2
  9
$LTSCALE
 40
20.0
  9
$OSMODE
 70
  3071
  9
$ATTMODE
 70
     1
  9
$TEXTSIZE
 40
5.0
  9
$TRACEWID
 40
0.05
  9
$TEXTSTYLE
  7
STANDARD
  9
$CLAYER
  8
0
  9
$CELTYPE
  6
BYLAYER
  9
$CECOLOR
 62
   256
  9
$DIMSCALE
 40
2.0
  9
$DIMASZ
 40
3.0
  9
$DIMEXO
 40
2.0
  9
$DIMDLI
 40
0.38
  9
$DIMRND
 40
0.0
  9
$DIMDLE
 40
0.0
  9
$DIMEXE
 40
2.0
  9
$DIMTP
 40
0.0
  9
$DIMTM
 40
0.0
  9
$DIMTXT
 40
3.2000000000000002
  9
$DIMCEN
 40
0.0
  9
$DIMTSZ
 40
0.0
  9
$DIMTOL
 70
     0
  9
$DIMLIM
 70
     0
  9
$DIMTIH
 70
     0
  9
$DIMTOH
 70
     0
  9
$DIMSE1
 70
     0
  9
$DIMSE2
 70
     0
  9
$DIMTAD
 70
     1
  9
$DIMZIN
 70
     8
  9
$DIMBLK
  1

  9
$DIMASO
 70
     1
  9
$DIMSHO
 70
     0
  9
$DIMPOST
  1

  9
$DIMAPOST
  1

  9
$DIMALT
 70
     0
  9
$DIMALTD
 70
     2
  9
$DIMALTF
 40
25.399999999999999
  9
$DIMLFAC
 40
1.0
  9
$DIMTOFL
 70
     1
  9
$DIMTVP
 40
1.6000000000000001
  9
$DIMTIX
 70
     1
  9
$DIMSOXD
 70
     0
  9
$DIMSAH
 70
     0
  9
$DIMBLK1
  1

  9
$DIMBLK2
  1

  9
$DIMSTYLE
  2
STANDARD
  9
$DIMCLRD
 70
     0
  9
$DIMCLRE
 70
     0
  9
$DIMCLRT
 70
     0
  9
$DIMTFAC
 40
1.0
  9
$DIMGAP
 40
0.09
  9
$LUNITS
 70
     2
  9
$LUPREC
 70
     4
  9
$SKETCHINC
 40
0.1
  9
$FILLETRAD
 40
3.0
  9
$AUNITS
 70
     0
  9
$AUPREC
 70
     4
  9
$MENU
  1
E:\r13\win\SUPPORT\ACAD
  9
$ELEVATION
 40
0.0
  9
$PELEVATION
 40
0.0
  9
$THICKNESS
 40
0.0
  9
$LIMCHECK
 70
     0
  9
$BLIPMODE
 70
     0
  9
$CHAMFERA
 40
0.0
  9
$CHAMFERB
 40
0.0
  9
$SKPOLY
 70
     0
  9
$TDCREATE
 40
2449839.7905555558
  9
$TDUPDATE
 40
2456597.5934872339
  9
$TDINDWG
 40
0.0087687616
  9
$TDUSRTIMER
 40
0.0087687616
  9
$USRTIMER
 70
     1
  9
$ANGBASE
 50
0.0
  9
$ANGDIR
 70
     0
  9
$PDMODE
 70
     0
  9
$PDSIZE
 40
0.0
  9
$PLINEWID
 40
0.0
  9
$COORDS
 70
     1
  9
$SPLFRAME
 70
     0
  9
$SPLINETYPE
 70
     6
  9
$SPLINESEGS
 70
     8
  9
$ATTDIA
 70
     0
  9
$ATTREQ
 70
     1
  9
$HANDLING
 70
     1
  9
$HANDSEED
  5
48E
  9
$SURFTAB1
 70
     6
  9
$SURFTAB2
 70
     6
  9
$SURFTYPE
 70
     6
  9
$SURFU
 70
     6
  9
$SURFV
 70
     6
  9
$UCSNAME
  2

  9
$UCSORG
 10
0.0
 20
0.0
 30
0.0
  9
$UCSXDIR
 10
1.0
 20
0.0
 30
0.0
  9
$UCSYDIR
 10
0.0
 20
1.0
 30
0.0
  9
$PUCSNAME
  2

  9
$PUCSORG
 10
0.0
 20
0.0
 30
0.0
  9
$PUCSXDIR
 10
1.0
 20
0.0
 30
0.0
  9
$PUCSYDIR
 10
0.0
 20
1.0
 30
0.0
  9
$USERI1
 70
     0
  9
$USERI2
 70
     1
  9
$USERI3
 70
     1
  9
$USERI4
 70
     0
  9
$USERI5
 70
     0
  9
$USERR1
 40
0.0
  9
$USERR2
 40
0.0
  9
$USERR3
 40
0.0
  9
$USERR4
 40
0.0
  9
$USERR5
 40
0.0
  9
$WORLDVIEW
 70
     1
  9
$SHADEDGE
 70
     3
  9
$SHADEDIF
 70
    70
  9
$TILEMODE
 70
     1
  9
$MAXACTVP
 70
    16
  9
$PLIMCHECK
 70
     0
  9
$PEXTMIN
 10
1.0000000000000000E+020
 20
1.0000000000000000E+020
 30
1.0000000000000000E+020
  9
$PEXTMAX
 10
-1.0000000000000000E+020
 20
-1.0000000000000000E+020
 30
-1.0000000000000000E+020
  9
$PLIMMIN
 10
0.0
 20
0.0
  9
$PLIMMAX
 10
12.0
 20
9.0
  9
$UNITMODE
 70
     0
  9
$VISRETAIN
 70
     0
  9
$PLINEGEN
 70
     0
  9
$PSLTSCALE
 70
     0
  0
ENDSEC
  0
SECTION
  2
TABLES
  0
TABLE
  2
VPORT
 70
     1
  0
VPORT
  2
*ACTIVE
 70
     0
 10
0.0
 20
0.0
 11
1.0
 21
1.0
 12
390.03402345615979
 22
268.50860658393782
 13
0.0
 23
0.0
 14
20.0
 24
20.0
 15
20.0
 25
20.0
 16
0.0
 26
0.0
 36
1.0
 17
0.0
 27
0.0
 37
0.0
 40
547.85258761088789
 41
1.831871345029239
 42
50.0
 43
0.0
 44
0.0
 50
0.0
 51
0.0
 71
     0
 72
   500
 73
     1
 74
     0
 75
     0
 76
     0
 77
     0
 78
     2
  0
ENDTAB
  0
TABLE
  2
LTYPE
 70
     4
  0
LTYPE
  2
CONTINUOUS
 70
     0
  3
Solid Line
 72
    65
 73
     0
 40
0.0
  0
LTYPE
  2
CENTER
 70
     0
  3
____ _ ____ _ ____ _ ____ _ ____ _ ____ _ ____
 72
    65
 73
     4
 40
2.0
 49
1.25
 49
-0.25
 49
0.25
 49
-0.25
  0
LTYPE
  2
HIDDEN
 70
     0
  3
_ _ _ _ _ _ _ _ _ _ _ _ _ _ _ _ _ _ _ _ _ _ _
 72
    65
 73
     2
 40
0.375
 49
0.25
 49
-0.125
  0
LTYPE
  2
PHANTOM2
 70
     0
  3
___ _ _ ___ _ _ ___ _ _ ___ _ _
 72
    65
 73
     6
 40
1.25
 49
0.625
 49
-0.125
 49
0.125
 49
-0.125
 49
0.125
 49
-0.125
  0
ENDTAB
  0
TABLE
  2
LAYER
 70
     3
  0
LAYER
  2
0
 70
     0
 62
     7
  6
CONTINUOUS
  0
LAYER
  2
1
 70
     0
 62
     1
  6
CENTER
  0
LAYER
  2
2
 70
     0
 62
     2
  6
HIDDEN
  0
ENDTAB
  0
TABLE
  2
STYLE
 70
     2
  0
STYLE
  2
STANDARD
 70
     0
 40
0.0
 41
1.0
 50
0.0
 71
     0
 42
5.0
  3
TXT
  4
BIGFONT
  0
STYLE
  2
STANDARD1
 70
     0
 40
0.0
 41
1.0
 50
0.0
 71
     0
 42
3.0
  3
txt
  4

  0
ENDTAB
  0
TABLE
  2
VIEW
 70
     1
  0
VIEW
  2
ALL
 70
     0
 40
540.0
 10
441.98319327731087
 20
270.0
 41
0.0
 11
0.0
 21
0.0
 31
1.0
 12
0.0
 22
0.0
 32
0.0
 42
0.0
 43
0.0
 44
0.0
 50
0.0
 71
     0
  0
ENDTAB
  0
TABLE
  2
UCS
 70
     0
  0
ENDTAB
  0
TABLE
  2
APPID
 70
     6
  0
APPID
  2
ACAD
 70
     0
  0
APPID
  2
ACAD_EXEMPT_FROM_CAD_STANDARDS
 70
     0
  0
APPID
  2
ACAD_DSTYLE_DIMJAG
 70
     0
  0
APPID
  2
ACAD_DSTYLE_DIMTALN
 70
     0
  0
APPID
  2
ACAD_MLEADERVER
 70
     0
  0
APPID
  2
ACAD_NAV_VCDISPLAY
 70
     0
  0
ENDTAB
  0
TABLE
  2
DIMSTYLE
 70
     1
  0
DIMSTYLE
  2
STANDARD
 70
     0
  3

  4

  5

  6

  7

 40
1.0
 41
0.18
 42
0.0625
 43
0.38
 44
0.18
 45
0.0
 46
0.0
 47
0.0
 48
0.0
140
0.18
141
0.09
142
0.0
143
25.399999999999999
144
1.0
145
0.0
146
1.0
147
0.09
 71
     0
 72
     0
 73
     1
 74
     1
 75
     0
 76
     0
 77
     0
 78
     0
170
     0
171
     2
172
     0
173
     0
174
     0
175
     0
176
     0
177
     0
178
     0
  0
ENDTAB
  0
ENDSEC
  0
SECTION
  2
BLOCKS
  0
BLOCK
  8
0
  2
$MODEL_SPACE
 70
     0
 10
0.0
 20
0.0
 30
0.0
  3
$MODEL_SPACE
  1

  0
ENDBLK
  5
241
  8
0
  0
BLOCK
 67
     1
  8
0
  2
$PAPER_SPACE
 70
     0
 10
0.0
 20
0.0
 30
0.0
  3
$PAPER_SPACE
  1

  0
ENDBLK
  5
23F
 67
     1
  8
0
  0
ENDSEC
  0
SECTION
  2
ENTITIES
  0
LINE
  5
35
  8
0
 10
152.0
 20
151.0
 30
0.0
 11
151.0
 21
150.0
 31
0.0
  0
LINE
  5
36
  8
0
 10
152.0
 20
151.0
 30
0.0
 11
152.0
 21
160.0
 31
0.0
  0
LINE
  5
37
  8
0
 10
155.25
 20
160.0
 30
0.0
 11
124.75
 21
160.0
 31
0.0
  0
LINE
  5
38
  8
0
 10
128.0
 20
151.0
 30
0.0
 11
128.0
 21
160.0
 31
0.0
  0
LINE
  5
39
  8
0
 10
128.0
 20
151.0
 30
0.0
 11
129.0
 21
150.0
 31
0.0
  0
LINE
  5
3A
  8
0
 10
129.0
 20
150.0
 30
0.0
 11
151.0
 21
150.0
 31
0.0
  0
LINE
  5
3B
  8
0
 10
152.0
 20
151.0
 30
0.0
 11
128.0
 21
151.0
 31
0.0
  0
LINE
  5
3C
  8
0
 10
124.66268088722791
 20
161.19025702819729
 30
0.0
 11
249.6537201026388
 21
175.13662148389309
 31
0.0
  0
LINE
  5
3D
  8
0
 10
126.7499999999994
 20
190.80000000000001
 30
0.0
 11
124.75
 21
188.80000000000061
 31
0.0
  0
LINE
  5
3E
  8
0
 10
124.75
 20
188.80000000000061
 30
0.0
 11
122.99972861389701
 21
162.7816846458033
 31
0.0
  0
ARC
  5
3F
  8
0
 10
124.4963460753897
 20
162.6810060782968
 30
0.0
 40
1.5000000000000011
 50
176.15146871555891
 51
276.36661546787627
  0
LINE
  5
40
  8
0
 10
124.75
 20
160.0
 30
0.0
 11
124.75
 21
161.19999999999999
 31
0.0
  0
LINE
  5
41
  8
0
 10
250.0195146892363
 20
190.5209269421232
 30
0.0
 11
250.9837300340759
 21
176.73200509597291
 31
0.0
  0
ARC
  5
42
  8
0
 10
249.48738395868611
 20
176.6273703853567
 30
0.0
 40
1.5
 50
276.36666666666662
 51
3.9999999999999671
  0
LINE
  5
43
  8
0
 10
229.98048531076361
 20
190.5209269421232
 30
0.0
 11
229.9297097909614
 21
189.79480317942119
 31
0.0
  0
LINE
  5
44
  8
0
 10
153.2500000000006
 20
190.80000000000001
 30
0.0
 11
155.25
 21
188.80000000000061
 31
0.0
  0
LINE
  5
45
  8
0
 10
153.2500000000006
 20
190.80000000000001
 30
0.0
 11
126.7499999999994
 21
190.80000000000001
 31
0.0
  0
LINE
  5
46
  8
0
 10
155.25
 20
188.80000000000061
 30
0.0
 11
124.75
 21
188.80000000000069
 31
0.0
  0
LINE
  5
47
  8
0
 10
155.25
 20
188.80000000000061
 30
0.0
 11
155.3520643981181
 21
187.28278174587351
 31
0.0
  0
ARC
  5
48
  8
0
 10
156.84868185961079
 20
187.38346031338
 30
0.0
 40
1.5
 50
183.8485312844409
 51
273.06526358071551
  0
CIRCLE
  5
49
  8
0
 10
140.0
 20
350.00000077137679
 30
0.0
 40
15.25
  0
CIRCLE
  5
4A
  8
0
 10
140.0
 20
350.00000077137679
 30
0.0
 40
13.249999999998851
  0
LINE
  5
4B
  8
0
 10
141.02000000000001
 20
366.96937318169302
 30
0.0
 11
240.65999462462469
 21
360.98018324233311
 31
0.0
  0
LINE
  5
4C
  8
1
 10
140.0
 20
377.0000007713769
 30
0.0
 11
140.0
 21
323.00000077137662
 31
0.0
  0
LINE
  5
4D
  8
1
 10
112.9999999999997
 20
350.00000077137679
 30
0.0
 11
261.00000000000023
 21
350.00000077137679
 31
0.0
  0
LINE
  5
4E
  8
1
 10
239.99999999999989
 20
371.03790313852443
 30
0.0
 11
239.99999999999989
 21
328.9620984042291
 31
0.0
  0
LINE
  5
4F
  8
0
 10
240.52500000000001
 20
359.98621001212467
 30
0.0
 11
140.80062499999991
 21
365.22896986351742
 31
0.0
  0
LINE
  5
50
  8
0
 10
148.23504764036099
 20
362.83536170751609
 30
0.0
 11
173.63541663123101
 21
361.5000007713769
 31
0.0
  0
LINE
  5
51
  8
0
 10
148.23504764036099
 20
337.16463983523749
 30
0.0
 11
173.6354166312363
 21
338.5000007713769
 31
0.0
  0
LINE
  5
52
  8
0
 10
141.02000000000001
 20
333.03062836106062
 30
0.0
 11
240.65999462462469
 21
339.01981830042041
 31
0.0
  0
ARC
  5
53
  8
0
 10
140.0
 20
350.00000077137679
 30
0.0
 40
17.0
 50
86.560187232484765
 51
273.43981276751521
  0
LINE
  5
54
  8
0
 10
140.80062499999991
 20
183.01907149333479
 30
0.0
 11
240.5250000000012
 21
188.35931584897631
 31
0.0
  0
LINE
  5
55
  8
0
 10
230.27975452584161
 20
190.80000000000001
 30
0.0
 11
250.0
 21
190.7999999999999
 31
0.0
  0
LINE
  5
56
  8
0
 10
155.25
 20
160.0
 30
0.0
 11
155.57441529012809
 21
164.63935479269821
 31
0.0
  0
ARC
  5
57
  8
0
 10
140.10562019503149
 20
197.88160347069999
 30
0.0
 40
14.87877308305803
 50
272.67732676260601
 51
303.11885029500797
  0
LINE
  5
58
  8
1
 10
239.99999999999989
 20
163.99741315687791
 30
0.0
 11
240.0
 21
220.30000000000001
 31
0.0
  0
LINE
  5
59
  8
1
 10
140.0
 20
200.80000000000001
 30
0.0
 11
139.99999999999989
 21
140.0
 31
0.0
  0
ARC
  5
5A
  8
0
 10
249.7202454741583
 20
190.5
 30
0.0
 40
0.3
 50
3.9999999999999041
 51
90.0
  0
ARC
  5
5B
  8
0
 10
230.27975452584161
 20
190.5
 30
0.0
 40
0.3
 50
90.0
 51
175.99999999999901
  0
LINE
  5
5C
  8
0
 10
234.42827445555159
 20
190.0357015010058
 30
0.0
 11
148.23504764036099
 21
185.42005068349661
 31
0.0
  0
CIRCLE
  5
5D
  8
0
 10
140.0
 20
350.00000077137679
 30
0.0
 40
10.5
  0
LINE
  5
5E
  8
2
 10
127.4999999999999
 20
187.0
 30
0.0
 11
152.49999999999989
 21
187.0
 31
0.0
  0
LINE
  5
5F
  8
2
 10
127.4999999999999
 20
187.0
 30
0.0
 11
127.4999999999999
 21
160.0
 31
0.0
  0
LINE
  5
60
  8
2
 10
152.49999999999989
 20
187.0
 30
0.0
 11
152.49999999999989
 21
160.0
 31
0.0
  0
LINE
  5
61
  8
2
 10
129.49999999999989
 20
187.80000000000001
 30
0.0
 11
150.49999999999989
 21
187.80000000000001
 31
0.0
  0
LINE
  5
62
  8
2
 10
129.49999999999989
 20
187.80000000000001
 30
0.0
 11
129.49999999999989
 21
187.0
 31
0.0
  0
LINE
  5
63
  8
2
 10
150.49999999999989
 20
187.80000000000001
 30
0.0
 11
150.49999999999989
 21
187.0
 31
0.0
  0
LINE
  5
64
  8
2
 10
150.49999999999989
 20
187.80000000000001
 30
0.0
 11
150.70978043583051
 21
190.80000000000001
 31
0.0
  0
LINE
  5
65
  8
2
 10
129.49999999999989
 20
187.80000000000001
 30
0.0
 11
129.2902195641694
 21
190.80000000000001
 31
0.0
  0
CIRCLE
  5
66
  8
0
 10
140.0
 20
350.00000077137679
 30
0.0
 40
10.72376502684247
  0
ARC
  5
67
  8
0
 10
240.0
 20
350.0000007713769
 30
0.0
 40
11.0
 50
273.43978471822493
 51
86.560215281775086
  0
ARC
  5
68
  8
0
 10
240.0
 20
350.0000007713769
 30
0.0
 40
10.0
 50
211.78833061704799
 51
148.2116693829519
  0
LINE
  5
69
  8
0
 10
240.52500000000001
 20
340.01379153062879
 30
0.0
 11
140.80062499999991
 21
334.7710316792361
 31
0.0
  0
LINE
  5
6A
  8
0
 10
234.5
 20
210.7999999999999
 30
0.0
 11
249.0
 21
210.7999999999999
 31
0.0
  0
LINE
  5
6B
  8
0
 10
250.0
 20
190.7999999999999
 30
0.0
 11
250.0
 21
210.2999999999999
 31
0.0
  0
LINE
  5
6C
  8
0
 10
231.49999999999989
 20
190.80000000000001
 30
0.0
 11
231.5
 21
207.7999999999999
 31
0.0
  0
LINE
  5
6D
  8
0
 10
249.0
 20
210.80000000000001
 30
0.0
 11
250.0
 21
210.30000000000001
 31
0.0
  0
LINE
  5
6E
  8
0
 10
250.0
 20
210.2999999999999
 30
0.0
 11
232.84168760482231
 21
210.2999999999999
 31
0.0
  0
ARC
  5
6F
  8
0
 10
234.5
 20
207.7999999999999
 30
0.0
 40
3.0
 50
89.999999999999815
 51
179.9999999999998
  0
LINE
  5
70
  8
1
 10
151.0
 20
201.3000000000003
 30
0.0
 11
259.0
 21
201.2999999999999
 31
0.0
  0
CIRCLE
  5
71
  8
0
 10
239.99999999999989
 20
201.30000000000001
 30
0.0
 40
2.0
  0
ARC
  5
72
  8
0
 10
231.0
 20
196.25660731896309
 30
0.0
 40
0.5
 50
275.1944289077349
 51
359.9999999999996
  0
ARC
  5
73
  8
0
 10
231.0
 20
206.3433926810369
 30
0.0
 40
0.5
 50
0.0000000000003703
 51
84.805571092265197
  0
LINE
  5
74
  8
0
 10
247.53305523213029
 20
174.89999999999989
 30
0.0
 11
249.0
 21
174.89999999999989
 31
0.0
  0
LINE
  5
75
  8
0
 10
249.0
 20
174.89999999999989
 30
0.0
 11
249.0
 21
175.0636801045699
 31
0.0
  0
ARC
  5
76
  8
0
 10
225.0
 20
192.2649569337805
 30
0.0
 40
0.5
 50
274.1596422937123
 51
0.0
  0
ARC
  5
77
  8
0
 10
225.0
 20
210.33504306621961
 30
0.0
 40
0.5
 50
0.0
 51
85.840357706287193
  0
LINE
  5
78
  8
0
 10
198.0
 20
189.8000000000001
 30
0.0
 11
225.03626784788941
 21
191.7662740253011
 31
0.0
  0
LINE
  5
79
  8
0
 10
197.99999999999989
 20
212.8000000000001
 30
0.0
 11
225.0362705310956
 21
210.8337257795568
 31
0.0
  0
LINE
  5
7A
  8
0
 10
225.49999999999989
 20
193.80000000000001
 30
0.0
 11
226.00000000000011
 21
193.80000000000001
 31
0.0
  0
LINE
  5
7B
  8
0
 10
225.5
 20
208.80000000000001
 30
0.0
 11
226.00000000000011
 21
208.80000000000001
 31
0.0
  0
LINE
  5
7C
  8
0
 10
225.5
 20
192.2649569337805
 30
0.0
 11
225.49999999999989
 21
210.3350457636179
 31
0.0
  0
LINE
  5
7D
  8
0
 10
226.00000000000011
 20
193.80000000000001
 30
0.0
 11
226.00000000000011
 21
208.80000000000001
 31
0.0
  0
ARC
  5
7E
  8
0
 10
164.7071067811865
 20
190.30000000000021
 30
0.0
 40
0.5
 50
224.9999999999998
 51
269.99999999999977
  0
ARC
  5
7F
  8
0
 10
162.45634208012979
 20
192.55076470105701
 30
0.0
 40
0.5
 50
192.47599155936729
 51
224.99999999999889
  0
ARC
  5
80
  8
0
 10
162.4563420801295
 20
210.04923529894319
 30
0.0
 40
0.5
 50
134.9999999999977
 51
167.52400844063339
  0
ARC
  5
81
  8
0
 10
164.7071067811865
 20
212.30000000000021
 30
0.0
 40
0.5
 50
89.999999999999801
 51
134.99999999999989
  0
LINE
  5
82
  8
0
 10
164.49999999999989
 20
211.3857864376271
 30
0.0
 11
164.49999999999989
 21
191.21421356237329
 31
0.0
  0
LINE
  5
83
  8
0
 10
162.0000000000002
 20
208.8857864376273
 30
0.0
 11
161.9999999999998
 21
193.7142135623734
 31
0.0
  0
LINE
  5
84
  8
0
 10
198.0
 20
189.8000000000001
 30
0.0
 11
198.0
 21
212.8000000000001
 31
0.0
  0
ARC
  5
85
  8
0
 10
202.0000000000006
 20
201.3000000000001
 30
0.0
 40
41.000000000000568
 50
167.52400745123609
 51
192.4759915593647
  0
LINE
  5
86
  8
0
 10
162.10278868953651
 20
192.1972113104637
 30
0.0
 11
164.35355339059319
 21
189.94644660940691
 31
0.0
  0
LINE
  5
87
  8
0
 10
162.10278734083721
 20
210.40278734083731
 30
0.0
 11
164.35355339059319
 21
212.65355339059349
 31
0.0
  0
LINE
  5
88
  8
0
 10
164.7071067811865
 20
189.80000000000021
 30
0.0
 11
198.0
 21
189.8000000000001
 31
0.0
  0
LINE
  5
89
  8
0
 10
164.7071067811865
 20
212.80000000000021
 30
0.0
 11
197.99999999999989
 21
212.8000000000001
 31
0.0
  0
LINE
  5
8A
  8
0
 10
226.0
 20
207.30000000000001
 30
0.0
 11
231.0452678730212
 21
206.84133928427079
 31
0.0
  0
LINE
  5
8B
  8
0
 10
226.00000000000011
 20
195.30000000000001
 30
0.0
 11
231.0452678730212
 21
195.75866071572921
 31
0.0
  0
LINE
  5
8C
  8
0
 10
234.5
 20
342.87609734698788
 30
0.0
 11
234.5
 21
347.00000077137679
 31
0.0
  0
ARC
  5
8D
  8
0
 10
240.0
 20
350.0000007713769
 30
0.0
 40
9.0
 50
232.3301130356725
 51
127.6698869643277
  0
LINE
  5
8E
  8
0
 10
244.59999999999999
 20
353.00000077137679
 30
0.0
 11
244.59999999999999
 21
347.00000077137679
 31
0.0
  0
LINE
  5
8F
  8
0
 10
231.49999999999989
 20
353.00000077137668
 30
0.0
 11
244.59999999999999
 21
353.00000077137679
 31
0.0
  0
LINE
  5
90
  8
0
 10
231.5
 20
347.00000077137679
 30
0.0
 11
244.59999999999999
 21
347.00000077137679
 31
0.0
  0
ARC
  5
91
  8
0
 10
240.0
 20
350.0000007713769
 30
0.0
 40
5.5
 50
213.0557311508548
 51
146.94426884915609
  0
LINE
  5
92
  8
0
 10
234.5
 20
353.00000077137679
 30
0.0
 11
234.5
 21
357.12390419576491
 31
0.0
  0
LINE
  5
93
  8
0
 10
231.49999999999989
 20
355.2678276478054
 30
0.0
 11
231.49999999999989
 21
344.73217389494982
 31
0.0
  0
ARC
  5
94
  8
0
 10
240.0
 20
350.0000007713769
 30
0.0
 40
4.0
 50
311.40962210926989
 51
48.59037789069837
  0
LINE
  5
95
  8
0
 10
226.0
 20
356.00000077137679
 30
0.0
 11
231.04408828466799
 21
355.55349115364658
 31
0.0
  0
LINE
  5
96
  8
0
 10
226.0
 20
344.00000077137679
 30
0.0
 11
231.04408828466799
 21
344.446510389107
 31
0.0
  0
ARC
  5
97
  8
0
 10
231.0
 20
344.94456281923351
 30
0.0
 40
0.5
 50
275.05871511618108
 51
0.0
  0
ARC
  5
98
  8
0
 10
231.0
 20
355.05543872352013
 30
0.0
 40
0.5
 50
0.0
 51
84.941284883818525
  0
LINE
  5
99
  8
0
 10
164.7071067811865
 20
361.50000077137702
 30
0.0
 11
197.99999999999989
 21
361.50000077137679
 31
0.0
  0
LINE
  5
9A
  8
0
 10
164.7071067811865
 20
338.50000077137702
 30
0.0
 11
198.0
 21
338.50000077137679
 31
0.0
  0
LINE
  5
9B
  8
0
 10
162.10278868953631
 20
359.10278946091319
 30
0.0
 11
164.35355339059319
 21
361.35355416197029
 31
0.0
  0
LINE
  5
9C
  8
0
 10
162.10278868953651
 20
340.89721208184039
 30
0.0
 11
164.35355339059319
 21
338.64644738078368
 31
0.0
  0
ARC
  5
9D
  8
0
 10
202.0000000000006
 20
350.00000077137679
 30
0.0
 40
41.000000000000568
 50
167.5240084406353
 51
192.4759915593647
  0
LINE
  5
9E
  8
0
 10
198.0
 20
338.50000077137679
 30
0.0
 11
198.0
 21
361.5000007713769
 31
0.0
  0
LINE
  5
9F
  8
0
 10
162.0000000000002
 20
357.58578720900402
 30
0.0
 11
161.9999999999998
 21
342.41421433375018
 31
0.0
  0
LINE
  5
A0
  8
0
 10
164.49999999999989
 20
360.0857872090038
 30
0.0
 11
164.49999999999989
 21
339.91421433375001
 31
0.0
  0
ARC
  5
A1
  8
0
 10
164.7071067811865
 20
361.0000007713769
 30
0.0
 40
0.5
 50
89.999999999999801
 51
134.99999999999989
  0
ARC
  5
A2
  8
0
 10
162.4563420801295
 20
358.74923607032002
 30
0.0
 40
0.5
 50
134.9999999999977
 51
167.52400844063339
  0
ARC
  5
A3
  8
0
 10
162.45634208012979
 20
341.25076547243373
 30
0.0
 40
0.5
 50
192.47599155936729
 51
224.99999999999889
  0
ARC
  5
A4
  8
0
 10
164.7071067811865
 20
339.00000077137702
 30
0.0
 40
0.5
 50
224.9999999999998
 51
269.99999999999977
  0
LINE
  5
A5
  8
0
 10
226.00000000000011
 20
342.50000077137679
 30
0.0
 11
226.00000000000011
 21
357.50000077137679
 31
0.0
  0
LINE
  5
A6
  8
0
 10
225.5
 20
340.9649577051573
 30
0.0
 11
225.5
 21
359.03504383759628
 31
0.0
  0
LINE
  5
A7
  8
0
 10
225.5
 20
357.50000077137679
 30
0.0
 11
226.00000000000011
 21
357.50000077137679
 31
0.0
  0
LINE
  5
A8
  8
0
 10
225.49999999999989
 20
342.50000077137679
 30
0.0
 11
226.00000000000011
 21
342.50000077137679
 31
0.0
  0
LINE
  5
A9
  8
0
 10
197.99999999999989
 20
361.50000077137679
 30
0.0
 11
225.03626784788941
 21
359.53372674607567
 31
0.0
  0
LINE
  5
AA
  8
0
 10
198.0
 20
338.50000077137679
 30
0.0
 11
225.03626784788941
 21
340.46627479667779
 31
0.0
  0
ARC
  5
AB
  8
0
 10
225.0
 20
359.03504383759628
 30
0.0
 40
0.5
 50
0.0
 51
85.840357706287193
  0
ARC
  5
AC
  8
0
 10
225.0
 20
340.9649577051573
 30
0.0
 40
0.5
 50
274.1596422937123
 51
0.0
  0
LINE
  5
AD
  8
0
 10
225.5
 20
358.77334988592401
 30
0.0
 11
234.42827445554869
 21
358.30396816397518
 31
0.0
  0
LINE
  5
AE
  8
0
 10
225.5
 20
341.22665165682957
 30
0.0
 11
234.42827445555099
 21
341.69603337877862
 31
0.0
  0
LINE
  5
AF
  8
2
 10
135.99999999999989
 20
178.0
 30
0.0
 11
135.99999999999989
 21
151.0
 31
0.0
  0
LINE
  5
B0
  8
2
 10
143.99999999999989
 20
178.0
 30
0.0
 11
143.99999999999989
 21
151.0
 31
0.0
  0
LINE
  5
B1
  8
2
 10
135.99999999999989
 20
178.0
 30
0.0
 11
143.99999999999989
 21
178.0
 31
0.0
  0
LINE
  5
B2
  8
2
 10
135.99999999999989
 20
178.0
 30
0.0
 11
139.99999999999989
 21
180.30940107675849
 31
0.0
  0
LINE
  5
B3
  8
2
 10
143.99999999999989
 20
178.0
 30
0.0
 11
139.99999999999989
 21
180.30940107675849
 31
0.0
  0
LINE
  5
B4
  8
2
 10
135.99999999999989
 20
151.0
 30
0.0
 11
134.99999999999989
 21
150.0
 31
0.0
  0
LINE
  5
B5
  8
2
 10
143.99999999999989
 20
151.0
 30
0.0
 11
144.99999999999989
 21
150.0
 31
0.0
  0
LINE
  5
B6
  8
2
 10
135.99999999999989
 20
151.0
 30
0.0
 11
143.99999999999989
 21
151.0
 31
0.0
  0
LINE
  5
B7
  8
1
 10
679.99999999999977
 20
140.0
 30
0.0
 11
680.00000000000011
 21
286.39999999999969
 31
0.0
  0
LINE
  5
B8
  8
0
 10
670.00000000000023
 20
190.80000000000001
 30
0.0
 11
689.99999999999955
 21
190.80000000000001
 31
0.0
  0
LINE
  5
B9
  8
0
 10
693.25000000000068
 20
190.80000000000001
 30
0.0
 11
695.25
 21
188.80000000000061
 31
0.0
  0
LINE
  5
BA
  8
0
 10
664.74999999999989
 20
160.0
 30
0.0
 11
664.74999999999989
 21
162.90157844341809
 31
0.0
  0
LINE
  5
BB
  8
0
 10
695.25
 20
160.0
 30
0.0
 11
695.25
 21
162.90157844341809
 31
0.0
  0
LINE
  5
BC
  8
0
 10
695.25
 20
188.80000000000061
 30
0.0
 11
696.88452720599719
 21
164.5022570109245
 31
0.0
  0
LINE
  5
BD
  8
0
 10
692.0
 20
151.0
 30
0.0
 11
691.0
 21
150.0
 31
0.0
  0
LINE
  5
BE
  8
0
 10
692.0
 20
151.0
 30
0.0
 11
692.0
 21
160.0
 31
0.0
  0
LINE
  5
BF
  8
0
 10
695.25
 20
160.0
 30
0.0
 11
664.74999999999989
 21
160.0
 31
0.0
  0
LINE
  5
C0
  8
0
 10
668.0
 20
151.0
 30
0.0
 11
668.0
 21
160.0
 31
0.0
  0
LINE
  5
C1
  8
0
 10
668.0
 20
151.0
 30
0.0
 11
669.0
 21
150.0
 31
0.0
  0
LINE
  5
C2
  8
0
 10
669.0
 20
150.0
 30
0.0
 11
691.0
 21
150.0
 31
0.0
  0
LINE
  5
C3
  8
0
 10
692.0
 20
151.0
 30
0.0
 11
668.0
 21
151.0
 31
0.0
  0
LINE
  5
C4
  8
0
 10
666.74999999999932
 20
190.80000000000001
 30
0.0
 11
664.74999999999989
 21
188.80000000000061
 31
0.0
  0
LINE
  5
C5
  8
0
 10
664.74999999999989
 20
188.80000000000061
 30
0.0
 11
663.11547279400224
 21
164.50225701092461
 31
0.0
  0
LINE
  5
C6
  8
0
 10
693.25000000000068
 20
190.80000000000001
 30
0.0
 11
666.74999999999932
 21
190.80000000000001
 31
0.0
  0
LINE
  5
C7
  8
0
 10
695.25
 20
188.80000000000061
 30
0.0
 11
690.13985362388667
 21
188.80000000000061
 31
0.0
  0
ARC
  5
C8
  8
0
 10
689.72024547415845
 20
190.5
 30
0.0
 40
0.3
 50
3.9999999999999041
 51
90.0
  0
LINE
  5
C9
  8
0
 10
690.0195146892363
 20
190.5209269421232
 30
0.0
 11
691.05840491219124
 21
175.66410458628351
 31
0.0
  0
LINE
  5
CA
  8
0
 10
669.9804853107637
 20
190.5209269421232
 30
0.0
 11
668.94159508780865
 21
175.6641045862836
 31
0.0
  0
ARC
  5
CB
  8
0
 10
670.27975452584155
 20
190.5
 30
0.0
 40
0.3
 50
90.0
 51
176.00000000000011
  0
ARC
  5
CC
  8
0
 10
680.0
 20
137.656901469687
 30
0.0
 40
37.306651260320812
 50
77.360508933254778
 51
102.63949106674529
  0
LINE
  5
CD
  8
0
 10
669.86014637611345
 20
188.80000000000069
 30
0.0
 11
664.74999999999989
 21
188.80000000000069
 31
0.0
  0
LINE
  5
CE
  8
0
 10
669.81518461035455
 20
188.1570167935725
 30
0.0
 11
664.7710309078592
 21
183.01907149333479
 31
0.0
  0
LINE
  5
CF
  8
0
 10
670.43794116319839
 20
174.05946987566739
 30
0.0
 11
671.83671379240525
 21
174.05946987566739
 31
0.0
  0
ARC
  5
D0
  8
0
 10
670.43794116319839
 20
175.55946987566739
 30
0.0
 40
1.5
 50
176.00000000000011
 51
269.9999999999996
  0
ARC
  5
D1
  8
0
 10
689.56205883680138
 20
175.5594698756673
 30
0.0
 40
1.5
 50
269.99999999999972
 51
3.9999999999998912
  0
LINE
  5
D2
  8
0
 10
688.16328620759487
 20
174.0594698756673
 30
0.0
 11
689.56205883680138
 21
174.0594698756673
 31
0.0
  0
LINE
  5
D3
  8
0
 10
671.83671379240457
 20
174.05946987566739
 30
0.0
 11
665.9660003536128
 21
162.90157844341809
 31
0.0
  0
LINE
  5
D4
  8
0
 10
664.61209025549488
 20
162.90157844341809
 30
0.0
 11
665.9660003536128
 21
162.90157844341809
 31
0.0
  0
ARC
  5
D5
  8
0
 10
695.38790974450455
 20
164.40157844341809
 30
0.0
 40
1.5
 50
270.0
 51
3.8485312844399391
  0
ARC
  5
D6
  8
0
 10
664.61209025549488
 20
164.40157844341809
 30
0.0
 40
1.5
 50
176.15146871555899
 51
269.99999999999989
  0
ARC
  5
D7
  8
0
 10
680.00000000000011
 20
124.2302826867402
 30
0.0
 40
51.065942331172572
 50
80.847986693320962
 51
99.152013306679166
  0
LINE
  5
D8
  8
0
 10
668.44680303422047
 20
174.05946987566739
 30
0.0
 11
663.84942670603607
 21
165.32168587753861
 31
0.0
  0
LINE
  5
D9
  8
0
 10
691.55319696577953
 20
174.05946987566739
 30
0.0
 11
696.15057329396393
 21
165.32168587753861
 31
0.0
  0
LINE
  5
DA
  8
0
 10
688.16328620759543
 20
174.05946987566739
 30
0.0
 11
694.0339996463872
 21
162.90157844341809
 31
0.0
  0
LINE
  5
DB
  8
0
 10
694.0339996463872
 20
162.90157844341809
 30
0.0
 11
695.38790974450455
 21
162.90157844341809
 31
0.0
  0
LINE
  5
DC
  8
0
 10
690.18481538964534
 20
188.1570167935725
 30
0.0
 11
695.22896909214091
 21
183.01907149333479
 31
0.0
  0
LINE
  5
DD
  8
0
 10
453.24999922862207
 20
190.80000000000001
 30
0.0
 11
426.74999922862429
 21
190.80000000000001
 31
0.0
  0
LINE
  5
DE
  8
0
 10
455.2499992286231
 20
188.80000000000069
 30
0.0
 11
424.77103023648033
 21
188.80000000000069
 31
0.0
  0
LINE
  5
DF
  8
1
 10
439.99999922862321
 20
286.39999999999969
 30
0.0
 11
439.99999922862321
 21
140.0
 31
0.0
  0
ARC
  5
E0
  8
0
 10
439.99999922862321
 20
246.0249728832157
 30
0.0
 40
84.843966804918907
 50
259.3426199051263
 51
280.65811983696892
  0
LINE
  5
E1
  8
0
 10
424.77103023648033
 20
188.80000000000069
 30
0.0
 11
423.09022438496771
 21
164.2209732612688
 31
0.0
  0
LINE
  5
E2
  8
0
 10
455.2499992286231
 20
188.80000000000069
 30
0.0
 11
456.91091379044639
 21
164.2199625762492
 31
0.0
  0
LINE
  5
E3
  8
0
 10
426.74999922862429
 20
190.80000000000001
 30
0.0
 11
424.77103023648033
 21
188.80000000000069
 31
0.0
  0
LINE
  5
E4
  8
0
 10
453.24999922862207
 20
190.80000000000001
 30
0.0
 11
455.2499992286231
 21
188.80000000000069
 31
0.0
  0
ARC
  5
E5
  8
0
 10
424.58672938579969
 20
164.11863664766111
 30
0.0
 40
1.5
 50
176.0879905015403
 51
259.34261990512709
  0
ARC
  5
E6
  8
0
 10
455.4143265575596
 20
164.11883565421539
 30
0.0
 40
1.5
 50
280.65811983696801
 51
3.8656960456739902
  0
LINE
  5
E7
  8
0
 10
455.2499992286231
 20
160.0
 30
0.0
 11
424.74999922862321
 21
160.0
 31
0.0
  0
LINE
  5
E8
  8
0
 10
424.74999922862321
 20
162.56278861276789
 30
0.0
 11
424.74999922862321
 21
160.0
 31
0.0
  0
LINE
  5
E9
  8
0
 10
455.2499992286231
 20
162.56278861276789
 30
0.0
 11
455.2499992286231
 21
160.0
 31
0.0
  0
LINE
  5
EA
  8
0
 10
451.99999922862321
 20
151.0
 30
0.0
 11
427.9999992286231
 21
151.0
 31
0.0
  0
LINE
  5
EB
  8
0
 10
428.99999922862321
 20
150.0
 30
0.0
 11
450.99999922862321
 21
150.0
 31
0.0
  0
LINE
  5
EC
  8
0
 10
427.9999992286231
 20
151.0
 30
0.0
 11
428.99999922862321
 21
150.0
 31
0.0
  0
LINE
  5
ED
  8
0
 10
427.9999992286231
 20
151.0
 30
0.0
 11
427.9999992286231
 21
160.0
 31
0.0
  0
LINE
  5
EE
  8
0
 10
451.99999922862321
 20
151.0
 30
0.0
 11
451.99999922862321
 21
160.0
 31
0.0
  0
LINE
  5
EF
  8
0
 10
451.99999922862321
 20
151.0
 30
0.0
 11
450.99999922862321
 21
150.0
 31
0.0
  0
ARC
  5
F0
  8
0
 10
240.79033326969059
 20
201.24884977351391
 30
0.0
 40
12.892264600752361
 50
240.43051167949901
 51
268.82072309160111
  0
ARC
  5
F1
  8
0
 10
610.79033326969045
 20
201.24884977351391
 30
0.0
 40
12.892264600752361
 50
240.43051167949901
 51
268.82072309160111
  0
LINE
  5
F2
  8
2
 10
506.0
 20
151.0
 30
0.0
 11
514.0
 21
151.0
 31
0.0
  0
LINE
  5
F3
  8
2
 10
514.0
 20
151.0
 30
0.0
 11
515.0
 21
150.0
 31
0.0
  0
LINE
  5
F4
  8
2
 10
505.99999999999989
 20
151.0
 30
0.0
 11
504.99999999999989
 21
150.0
 31
0.0
  0
LINE
  5
F5
  8
2
 10
514.0
 20
178.0
 30
0.0
 11
510.0
 21
180.30940107675849
 31
0.0
  0
LINE
  5
F6
  8
2
 10
505.99999999999989
 20
178.0
 30
0.0
 11
510.0
 21
180.30940107675849
 31
0.0
  0
LINE
  5
F7
  8
2
 10
505.99999999999989
 20
178.0
 30
0.0
 11
514.0
 21
178.0
 31
0.0
  0
LINE
  5
F8
  8
2
 10
514.0
 20
178.0
 30
0.0
 11
514.0
 21
151.0
 31
0.0
  0
LINE
  5
F9
  8
2
 10
505.99999999999989
 20
178.0
 30
0.0
 11
505.99999999999989
 21
151.0
 31
0.0
  0
LINE
  5
FA
  8
0
 10
619.0
 20
174.89999999999989
 30
0.0
 11
619.0
 21
175.0636801045699
 31
0.0
  0
LINE
  5
FB
  8
0
 10
617.53305523213032
 20
174.89999999999989
 30
0.0
 11
619.0
 21
174.89999999999989
 31
0.0
  0
LINE
  5
FC
  8
0
  6
CONTINUOUS
 10
604.0
 20
211.39999999999961
 30
0.0
 11
604.0545454545454
 21
210.80000000000001
 31
0.0
  0
LINE
  5
FD
  8
0
  6
CONTINUOUS
 10
616.0
 20
211.39999999999969
 30
0.0
 11
615.94545454545437
 21
210.80000000000001
 31
0.0
  0
ARC
  5
FE
  8
0
  6
CONTINUOUS
 10
600.9649569337804
 20
212.39999999999969
 30
0.0
 40
0.5
 50
184.1596422937123
 51
270.0
  0
ARC
  5
FF
  8
0
  6
CONTINUOUS
 10
619.03504306621949
 20
212.39999999999969
 30
0.0
 40
0.5
 50
270.0
 51
355.84035770628719
  0
LINE
  5
100
  8
0
  6
CONTINUOUS
 10
598.5
 20
239.39999999999969
 30
0.0
 11
600.466274025301
 21
212.36373215211029
 31
0.0
  0
LINE
  5
101
  8
0
  6
CONTINUOUS
 10
621.49999999999989
 20
239.39999999999981
 30
0.0
 11
619.53372597469877
 21
212.36373215211029
 31
0.0
  0
LINE
  5
102
  8
0
  6
CONTINUOUS
 10
602.5
 20
211.89999999999969
 30
0.0
 11
602.5
 21
211.39999999999961
 31
0.0
  0
LINE
  5
103
  8
0
  6
CONTINUOUS
 10
617.49999999999989
 20
211.89999999999969
 30
0.0
 11
617.49999999999989
 21
211.39999999999961
 31
0.0
  0
LINE
  5
104
  8
0
  6
CONTINUOUS
 10
600.9649569337804
 20
211.89999999999969
 30
0.0
 11
619.03504306621949
 21
211.89999999999969
 31
0.0
  0
LINE
  5
105
  8
0
  6
CONTINUOUS
 10
602.5
 20
211.39999999999961
 30
0.0
 11
617.49999999999989
 21
211.39999999999961
 31
0.0
  0
ARC
  5
106
  8
0
  6
CONTINUOUS
 10
599.00000000000011
 20
272.6928932188132
 30
0.0
 40
0.5
 50
134.9999999999998
 51
179.9999999999998
  0
ARC
  5
107
  8
0
  6
CONTINUOUS
 10
601.25076470105694
 20
274.94365791986991
 30
0.0
 40
0.5
 50
102.4759915593673
 51
134.99999999999889
  0
ARC
  5
108
  8
0
  6
CONTINUOUS
 10
618.74923529894318
 20
274.94365791987008
 30
0.0
 40
0.5
 50
44.999999999997691
 51
77.524008440633409
  0
ARC
  5
109
  8
0
  6
CONTINUOUS
 10
621.00000000000023
 20
272.6928932188132
 30
0.0
 40
0.5
 50
359.99999999999977
 51
44.999999999999929
  0
LINE
  5
10A
  8
0
  6
CONTINUOUS
 10
620.08578643762701
 20
272.89999999999969
 30
0.0
 11
599.91421356237322
 21
272.89999999999969
 31
0.0
  0
LINE
  5
10B
  8
0
  6
CONTINUOUS
 10
617.58578643762723
 20
275.39999999999952
 30
0.0
 11
602.41421356237333
 21
275.39999999999992
 31
0.0
  0
LINE
  5
10C
  8
0
  6
CONTINUOUS
 10
598.5
 20
239.39999999999969
 30
0.0
 11
621.49999999999989
 21
239.39999999999969
 31
0.0
  0
ARC
  5
10D
  8
0
  6
CONTINUOUS
 10
610.0
 20
235.3999999999991
 30
0.0
 40
41.000000000000568
 50
77.524008440635285
 51
102.4759915593647
  0
LINE
  5
10E
  8
0
  6
CONTINUOUS
 10
600.89721131046372
 20
275.29721131046318
 30
0.0
 11
598.64644660940678
 21
273.04644660940647
 31
0.0
  0
LINE
  5
10F
  8
0
  6
CONTINUOUS
 10
619.10278868953651
 20
275.2972113104633
 30
0.0
 11
621.35355339059345
 21
273.04644660940642
 31
0.0
  0
LINE
  5
110
  8
0
  6
CONTINUOUS
 10
598.50000000000023
 20
272.6928932188132
 30
0.0
 11
598.5
 21
239.39999999999969
 31
0.0
  0
LINE
  5
111
  8
0
  6
CONTINUOUS
 10
621.50000000000023
 20
272.6928932188132
 30
0.0
 11
621.49999999999989
 21
239.39999999999981
 31
0.0
  0
CIRCLE
  5
112
  8
0
 10
610.0
 20
201.30000000000001
 30
0.0
 40
2.0
  0
ARC
  5
113
  8
0
 10
604.49999999999989
 20
207.7999999999999
 30
0.0
 40
3.0
 50
89.999999999999815
 51
179.9999999999998
  0
LINE
  5
114
  8
0
 10
620.0
 20
210.30000000000001
 30
0.0
 11
602.84168760482225
 21
210.30000000000001
 31
0.0
  0
LINE
  5
115
  8
0
 10
619.0
 20
210.80000000000001
 30
0.0
 11
620.0
 21
210.30000000000001
 31
0.0
  0
LINE
  5
116
  8
0
 10
601.49999999999977
 20
190.80000000000001
 30
0.0
 11
601.5
 21
207.7999999999999
 31
0.0
  0
LINE
  5
117
  8
0
 10
620.0
 20
190.7999999999999
 30
0.0
 11
620.0
 21
210.30000000000001
 31
0.0
  0
LINE
  5
118
  8
0
 10
604.49999999999989
 20
210.80000000000001
 30
0.0
 11
619.0
 21
210.80000000000001
 31
0.0
  0
LINE
  5
119
  8
2
 10
499.5
 20
187.80000000000001
 30
0.0
 11
499.29021956416938
 21
190.80000000000001
 31
0.0
  0
LINE
  5
11A
  8
2
 10
520.5
 20
187.80000000000001
 30
0.0
 11
520.70978043583045
 21
190.80000000000001
 31
0.0
  0
LINE
  5
11B
  8
2
 10
520.5
 20
187.80000000000001
 30
0.0
 11
520.5
 21
187.0
 31
0.0
  0
LINE
  5
11C
  8
2
 10
499.5
 20
187.80000000000001
 30
0.0
 11
499.5
 21
187.0
 31
0.0
  0
LINE
  5
11D
  8
2
 10
499.5
 20
187.80000000000001
 30
0.0
 11
520.5
 21
187.80000000000001
 31
0.0
  0
LINE
  5
11E
  8
2
 10
522.5
 20
187.0
 30
0.0
 11
522.5
 21
160.0
 31
0.0
  0
LINE
  5
11F
  8
2
 10
497.5
 20
187.0
 30
0.0
 11
497.5
 21
160.0
 31
0.0
  0
LINE
  5
120
  8
2
 10
497.5
 20
187.0
 30
0.0
 11
522.5
 21
187.0
 31
0.0
  0
LINE
  5
121
  8
0
 10
604.42827445555156
 20
190.0357015010058
 30
0.0
 11
518.23504764036102
 21
185.42005068349661
 31
0.0
  0
ARC
  5
122
  8
0
 10
600.27975452584155
 20
190.5
 30
0.0
 40
0.3
 50
90.0
 51
175.99999999999901
  0
ARC
  5
123
  8
0
 10
619.72024547415833
 20
190.5
 30
0.0
 40
0.3
 50
3.9999999999999041
 51
90.0
  0
LINE
  5
124
  8
1
 10
510.0
 20
200.80000000000001
 30
0.0
 11
510.0
 21
140.0
 31
0.0
  0
LINE
  5
125
  8
1
 10
610.0
 20
163.99741315687791
 30
0.0
 11
610.0
 21
286.39999999999981
 31
0.0
  0
ARC
  5
126
  8
0
 10
510.10562019503141
 20
197.88160347069999
 30
0.0
 40
14.87877308305803
 50
272.67732676260601
 51
303.11885029500797
  0
LINE
  5
127
  8
0
 10
525.25
 20
160.0
 30
0.0
 11
525.57441529012806
 21
164.63935479269821
 31
0.0
  0
LINE
  5
128
  8
0
 10
600.27975452584155
 20
190.80000000000001
 30
0.0
 11
620.0
 21
190.7999999999999
 31
0.0
  0
LINE
  5
129
  8
0
 10
510.80062499999991
 20
183.01907149333479
 30
0.0
 11
610.52500000000123
 21
188.35931584897631
 31
0.0
  0
ARC
  5
12A
  8
0
 10
526.84868185961079
 20
187.38346031338
 30
0.0
 40
1.5
 50
183.8485312844409
 51
273.06526358071551
  0
LINE
  5
12B
  8
0
 10
525.25
 20
188.80000000000061
 30
0.0
 11
525.35206439811805
 21
187.28278174587351
 31
0.0
  0
LINE
  5
12C
  8
0
 10
525.25
 20
188.80000000000061
 30
0.0
 11
494.74999999999989
 21
188.80000000000069
 31
0.0
  0
LINE
  5
12D
  8
0
 10
523.25000000000068
 20
190.80000000000001
 30
0.0
 11
496.74999999999937
 21
190.80000000000001
 31
0.0
  0
LINE
  5
12E
  8
0
 10
523.25000000000068
 20
190.80000000000001
 30
0.0
 11
525.25
 21
188.80000000000061
 31
0.0
  0
LINE
  5
12F
  8
0
 10
599.9804853107637
 20
190.5209269421232
 30
0.0
 11
599.9297097909614
 21
189.79480317942119
 31
0.0
  0
ARC
  5
130
  8
0
 10
619.48738395868611
 20
176.6273703853567
 30
0.0
 40
1.5
 50
276.36666666666662
 51
3.9999999999999671
  0
LINE
  5
131
  8
0
 10
620.0195146892363
 20
190.5209269421232
 30
0.0
 11
620.98373003407585
 21
176.73200509597291
 31
0.0
  0
LINE
  5
132
  8
0
 10
494.74999999999989
 20
160.0
 30
0.0
 11
494.74999999999989
 21
161.19999999999999
 31
0.0
  0
ARC
  5
133
  8
0
 10
494.49634607538968
 20
162.6810060782968
 30
0.0
 40
1.5000000000000011
 50
176.15146871555891
 51
276.36661546787627
  0
LINE
  5
134
  8
0
 10
494.74999999999989
 20
188.80000000000061
 30
0.0
 11
492.99972861389699
 21
162.7816846458033
 31
0.0
  0
LINE
  5
135
  8
0
 10
496.74999999999937
 20
190.80000000000001
 30
0.0
 11
494.74999999999989
 21
188.80000000000061
 31
0.0
  0
LINE
  5
136
  8
0
 10
494.66268088722791
 20
161.19025702819729
 30
0.0
 11
619.65372010263866
 21
175.13662148389309
 31
0.0
  0
LINE
  5
137
  8
0
 10
522.0
 20
151.0
 30
0.0
 11
498.0
 21
151.0
 31
0.0
  0
LINE
  5
138
  8
0
 10
499.0
 20
150.0
 30
0.0
 11
521.0
 21
150.0
 31
0.0
  0
LINE
  5
139
  8
0
 10
498.0
 20
151.0
 30
0.0
 11
499.0
 21
150.0
 31
0.0
  0
LINE
  5
13A
  8
0
 10
498.0
 20
151.0
 30
0.0
 11
498.0
 21
160.0
 31
0.0
  0
LINE
  5
13B
  8
0
 10
525.25
 20
160.0
 30
0.0
 11
494.74999999999989
 21
160.0
 31
0.0
  0
LINE
  5
13C
  8
0
 10
522.0
 20
151.0
 30
0.0
 11
522.0
 21
160.0
 31
0.0
  0
LINE
  5
13D
  8
0
 10
522.0
 20
151.0
 30
0.0
 11
521.0
 21
150.0
 31
0.0
  0
LINE
  5
13E
  8
0
 10
71.99999922862321
 20
151.0
 30
0.0
 11
70.99999922862321
 21
150.0
 31
0.0
  0
LINE
  5
13F
  8
0
 10
71.99999922862321
 20
151.0
 30
0.0
 11
71.99999922862321
 21
160.0
 31
0.0
  0
LINE
  5
140
  8
0
 10
47.99999922862321
 20
151.0
 30
0.0
 11
47.99999922862321
 21
160.0
 31
0.0
  0
LINE
  5
141
  8
0
 10
47.99999922862321
 20
151.0
 30
0.0
 11
48.99999922862321
 21
150.0
 31
0.0
  0
LINE
  5
142
  8
0
 10
48.99999922862321
 20
150.0
 30
0.0
 11
70.99999922862321
 21
150.0
 31
0.0
  0
LINE
  5
143
  8
0
 10
71.99999922862321
 20
151.0
 30
0.0
 11
47.99999922862321
 21
151.0
 31
0.0
  0
LINE
  5
144
  8
0
 10
75.24999922862321
 20
162.56278861276789
 30
0.0
 11
75.24999922862321
 21
160.0
 31
0.0
  0
LINE
  5
145
  8
0
 10
44.74999922862321
 20
162.56278861276789
 30
0.0
 11
44.74999922862321
 21
160.0
 31
0.0
  0
LINE
  5
146
  8
0
 10
75.24999922862321
 20
160.0
 30
0.0
 11
44.74999922862321
 21
160.0
 31
0.0
  0
ARC
  5
147
  8
0
 10
75.414326557559605
 20
164.11883565421539
 30
0.0
 40
1.5
 50
280.65811983696801
 51
3.8656960456739902
  0
ARC
  5
148
  8
0
 10
44.586729385799792
 20
164.11863664766111
 30
0.0
 40
1.5
 50
176.0879905015403
 51
259.34261990512709
  0
LINE
  5
149
  8
0
 10
73.24999922862213
 20
190.80000000000001
 30
0.0
 11
75.24999922862321
 21
188.80000000000069
 31
0.0
  0
LINE
  5
14A
  8
0
 10
46.749999228624283
 20
190.80000000000001
 30
0.0
 11
44.771030236480328
 21
188.80000000000069
 31
0.0
  0
LINE
  5
14B
  8
0
 10
75.24999922862321
 20
188.80000000000069
 30
0.0
 11
76.910913790446443
 21
164.2199625762492
 31
0.0
  0
LINE
  5
14C
  8
0
 10
44.771030236480328
 20
188.80000000000069
 30
0.0
 11
43.090224384967769
 21
164.2209732612688
 31
0.0
  0
ARC
  5
14D
  8
0
 10
59.99999922862321
 20
246.0249728832157
 30
0.0
 40
84.843966804918907
 50
259.3426199051263
 51
280.65811983696892
  0
LINE
  5
14E
  8
1
 10
59.99999922862321
 20
222.80000000000021
 30
0.0
 11
59.999999228623203
 21
140.0
 31
0.0
  0
LINE
  5
14F
  8
0
 10
75.24999922862321
 20
188.80000000000069
 30
0.0
 11
44.771030236480328
 21
188.80000000000069
 31
0.0
  0
LINE
  5
150
  8
0
 10
73.24999922862213
 20
190.80000000000001
 30
0.0
 11
46.749999228624283
 21
190.80000000000001
 31
0.0
  0
LINE
  5
151
  8
0
 10
320.18481538964528
 20
188.1570167935725
 30
0.0
 11
325.22896909214091
 21
183.01907149333479
 31
0.0
  0
LINE
  5
152
  8
0
 10
324.0339996463872
 20
162.90157844341809
 30
0.0
 11
325.38790974450461
 21
162.90157844341809
 31
0.0
  0
LINE
  5
153
  8
0
 10
318.16328620759538
 20
174.05946987566739
 30
0.0
 11
324.0339996463872
 21
162.90157844341809
 31
0.0
  0
LINE
  5
154
  8
0
 10
321.55319696577948
 20
174.05946987566739
 30
0.0
 11
326.15057329396387
 21
165.32168587753861
 31
0.0
  0
LINE
  5
155
  8
0
 10
298.44680303422052
 20
174.05946987566739
 30
0.0
 11
293.84942670603613
 21
165.32168587753861
 31
0.0
  0
ARC
  5
156
  8
0
 10
310.00000000000011
 20
124.2302826867402
 30
0.0
 40
51.065942331172572
 50
80.847986693320962
 51
99.152013306679166
  0
ARC
  5
157
  8
0
 10
294.61209025549499
 20
164.40157844341809
 30
0.0
 40
1.5
 50
176.15146871555899
 51
269.99999999999989
  0
ARC
  5
158
  8
0
 10
325.38790974450461
 20
164.40157844341809
 30
0.0
 40
1.5
 50
270.0
 51
3.8485312844399391
  0
LINE
  5
159
  8
0
 10
294.61209025549499
 20
162.90157844341809
 30
0.0
 11
295.9660003536128
 21
162.90157844341809
 31
0.0
  0
LINE
  5
15A
  8
0
 10
301.83671379240451
 20
174.05946987566739
 30
0.0
 11
295.9660003536128
 21
162.90157844341809
 31
0.0
  0
LINE
  5
15B
  8
0
 10
318.16328620759492
 20
174.0594698756673
 30
0.0
 11
319.5620588368015
 21
174.0594698756673
 31
0.0
  0
ARC
  5
15C
  8
0
 10
319.5620588368015
 20
175.5594698756673
 30
0.0
 40
1.5
 50
269.99999999999972
 51
3.9999999999998912
  0
ARC
  5
15D
  8
0
 10
300.4379411631985
 20
175.55946987566739
 30
0.0
 40
1.5
 50
176.00000000000011
 51
269.9999999999996
  0
LINE
  5
15E
  8
0
 10
300.4379411631985
 20
174.05946987566739
 30
0.0
 11
301.83671379240531
 21
174.05946987566739
 31
0.0
  0
LINE
  5
15F
  8
0
 10
299.81518461035472
 20
188.1570167935725
 30
0.0
 11
294.77103090785931
 21
183.01907149333479
 31
0.0
  0
LINE
  5
160
  8
0
 10
299.86014637611351
 20
188.80000000000069
 30
0.0
 11
294.75
 21
188.80000000000069
 31
0.0
  0
ARC
  5
161
  8
0
 10
310.0
 20
137.656901469687
 30
0.0
 40
37.306651260320812
 50
77.360508933254778
 51
102.63949106674529
  0
ARC
  5
162
  8
0
 10
300.27975452584172
 20
190.5
 30
0.0
 40
0.3
 50
90.0
 51
176.00000000000011
  0
LINE
  5
163
  8
0
 10
299.9804853107637
 20
190.5209269421232
 30
0.0
 11
298.94159508780882
 21
175.6641045862836
 31
0.0
  0
LINE
  5
164
  8
0
 10
320.0195146892363
 20
190.5209269421232
 30
0.0
 11
321.05840491219129
 21
175.66410458628351
 31
0.0
  0
ARC
  5
165
  8
0
 10
319.7202454741585
 20
190.5
 30
0.0
 40
0.3
 50
3.9999999999999041
 51
90.0
  0
LINE
  5
166
  8
0
 10
325.25
 20
188.80000000000061
 30
0.0
 11
320.13985362388672
 21
188.80000000000061
 31
0.0
  0
LINE
  5
167
  8
0
 10
323.25000000000068
 20
190.80000000000001
 30
0.0
 11
296.74999999999932
 21
190.80000000000001
 31
0.0
  0
LINE
  5
168
  8
0
 10
294.75
 20
188.80000000000061
 30
0.0
 11
293.11547279400219
 21
164.50225701092461
 31
0.0
  0
LINE
  5
169
  8
0
 10
296.74999999999932
 20
190.80000000000001
 30
0.0
 11
294.75
 21
188.80000000000061
 31
0.0
  0
LINE
  5
16A
  8
0
 10
322.0
 20
151.0
 30
0.0
 11
298.0
 21
151.0
 31
0.0
  0
LINE
  5
16B
  8
0
 10
299.0
 20
150.0
 30
0.0
 11
321.0
 21
150.0
 31
0.0
  0
LINE
  5
16C
  8
0
 10
298.0
 20
151.0
 30
0.0
 11
299.0
 21
150.0
 31
0.0
  0
LINE
  5
16D
  8
0
 10
298.0
 20
151.0
 30
0.0
 11
298.0
 21
160.0
 31
0.0
  0
LINE
  5
16E
  8
0
 10
325.25
 20
160.0
 30
0.0
 11
294.75
 21
160.0
 31
0.0
  0
LINE
  5
16F
  8
0
 10
322.0
 20
151.0
 30
0.0
 11
322.0
 21
160.0
 31
0.0
  0
LINE
  5
170
  8
0
 10
322.0
 20
151.0
 30
0.0
 11
321.0
 21
150.0
 31
0.0
  0
LINE
  5
171
  8
0
 10
325.25
 20
188.80000000000061
 30
0.0
 11
326.8845272059973
 21
164.5022570109245
 31
0.0
  0
LINE
  5
172
  8
0
 10
325.25
 20
160.0
 30
0.0
 11
325.25
 21
162.90157844341809
 31
0.0
  0
LINE
  5
173
  8
0
 10
294.75
 20
160.0
 30
0.0
 11
294.75
 21
162.90157844341809
 31
0.0
  0
LINE
  5
174
  8
0
 10
323.25000000000068
 20
190.80000000000001
 30
0.0
 11
325.25
 21
188.80000000000061
 31
0.0
  0
LINE
  5
175
  8
0
 10
300.00000000000023
 20
190.80000000000001
 30
0.0
 11
319.99999999999972
 21
190.80000000000001
 31
0.0
  0
LINE
  5
176
  8
1
 10
310.0
 20
140.0
 30
0.0
 11
310.0
 21
222.7999999999999
 31
0.0
  0
ARC
  5
177
  8
0
 10
59.999999228623203
 20
201.3000000000003
 30
0.0
 40
11.49999999999994
 50
294.07061462256138
 51
245.92938537743871
  0
CIRCLE
  5
178
  8
0
 10
59.999999228623203
 20
201.3000000000003
 30
0.0
 40
8.9999999999999272
  0
LINE
  5
179
  8
1
 10
38.49999922862326
 20
201.3000000000003
 30
0.0
 11
81.499999228623153
 21
201.3000000000003
 31
0.0
  0
LINE
  5
17A
  8
0
 10
677.82334198355272
 20
174.89999999999989
 30
0.0
 11
682.17665801644728
 21
174.89999999999989
 31
0.0
  0
LINE
  5
17B
  8
0
 10
300.5
 20
210.80000000000001
 30
0.0
 11
319.5
 21
210.80000000000001
 31
0.0
  0
LINE
  5
17C
  8
0
 10
299.99999999999989
 20
190.80000000000001
 30
0.0
 11
300.0
 21
210.30000000000001
 31
0.0
  0
LINE
  5
17D
  8
0
 10
319.99999999999989
 20
190.80000000000001
 30
0.0
 11
320.00000000000011
 21
210.2999999999999
 31
0.0
  0
LINE
  5
17E
  8
0
 10
300.5
 20
210.80000000000001
 30
0.0
 11
300.0
 21
210.30000000000001
 31
0.0
  0
LINE
  5
17F
  8
0
 10
319.5
 20
210.80000000000001
 30
0.0
 11
320.0
 21
210.30000000000001
 31
0.0
  0
LINE
  5
180
  8
0
 10
300.0
 20
210.30000000000001
 30
0.0
 11
320.0
 21
210.2999999999999
 31
0.0
  0
LINE
  5
181
  8
1
 10
288.49999999999977
 20
201.2999999999999
 30
0.0
 11
331.50000000000028
 21
201.2999999999999
 31
0.0
  0
ARC
  5
182
  8
0
 10
310.0
 20
201.2999999999999
 30
0.0
 40
11.500000000000171
 50
330.4081542060519
 51
29.591845793947812
  0
ARC
  5
184
  8
0
 10
310.0
 20
201.2999999999999
 30
0.0
 40
11.500000000000171
 50
55.698847243207183
 51
124.3011527567928
  0
ARC
  5
185
  8
0
 10
310.00000000000011
 20
201.2999999999999
 30
0.0
 40
11.500000000000171
 50
150.40815420605219
 51
209.59184579394821
  0
LINE
  5
186
  8
0
 10
307.82334198354607
 20
174.89999999999989
 30
0.0
 11
312.17665801645728
 21
174.89999999999989
 31
0.0
  0
CIRCLE
  5
187
  8
0
 10
510.0
 20
350.00000077137679
 30
0.0
 40
15.25
  0
CIRCLE
  5
188
  8
0
 10
510.0
 20
350.00000077137679
 30
0.0
 40
13.249999999998851
  0
LINE
  5
189
  8
0
 10
511.01999999999992
 20
366.96937318169302
 30
0.0
 11
607.31194086073594
 21
361.18142903720349
 31
0.0
  0
LINE
  5
18A
  8
1
 10
509.99999999999989
 20
377.00000077137747
 30
0.0
 11
510.0
 21
323.00000077137611
 31
0.0
  0
LINE
  5
18B
  8
1
 10
483.0
 20
350.00000077137679
 30
0.0
 11
631.5
 21
350.00000077137679
 31
0.0
  0
LINE
  5
18C
  8
0
 10
604.85392329998149
 20
360.28435270027921
 30
0.0
 11
510.80062499999991
 21
365.22896986351742
 31
0.0
  0
LINE
  5
18D
  8
0
 10
518.23504764036102
 20
362.83536170751609
 30
0.0
 11
602.17003721599144
 21
358.42268934457388
 31
0.0
  0
LINE
  5
18E
  8
0
 10
518.23504764036102
 20
337.16463983523749
 30
0.0
 11
602.17003721599144
 21
341.57731219817958
 31
0.0
  0
LINE
  5
18F
  8
0
 10
511.01999999999992
 20
333.03062836106062
 30
0.0
 11
607.31194086074436
 21
338.81857250555049
 31
0.0
  0
ARC
  5
190
  8
0
 10
510.0
 20
350.00000077137679
 30
0.0
 40
17.0
 50
86.560187232484765
 51
273.43981276751521
  0
CIRCLE
  5
191
  8
0
 10
510.0
 20
350.00000077137679
 30
0.0
 40
10.5
  0
CIRCLE
  5
192
  8
0
 10
510.0
 20
350.00000077137679
 30
0.0
 40
10.72376502684247
  0
LINE
  5
193
  8
0
 10
604.8539232999766
 20
339.71564884247402
 30
0.0
 11
510.80062499999991
 21
334.7710316792361
 31
0.0
  0
CIRCLE
  5
194
  8
0
  6
CONTINUOUS
 10
610.0
 20
350.0000007713769
 30
0.0
 40
11.5
  0
LINE
  5
195
  8
0
 10
670.49999999999989
 20
210.80000000000001
 30
0.0
 11
689.49999999999966
 21
210.80000000000001
 31
0.0
  0
LINE
  5
196
  8
0
 10
669.99999999999989
 20
190.80000000000001
 30
0.0
 11
669.99999999999989
 21
210.30000000000001
 31
0.0
  0
LINE
  5
197
  8
0
 10
689.99999999999977
 20
190.80000000000001
 30
0.0
 11
689.99999999999977
 21
210.30000000000001
 31
0.0
  0
LINE
  5
198
  8
0
 10
670.49999999999989
 20
210.80000000000001
 30
0.0
 11
669.99999999999989
 21
210.30000000000001
 31
0.0
  0
LINE
  5
199
  8
0
 10
689.49999999999966
 20
210.80000000000001
 30
0.0
 11
689.99999999999966
 21
210.30000000000001
 31
0.0
  0
LINE
  5
19A
  8
0
 10
669.99999999999989
 20
210.30000000000001
 30
0.0
 11
689.99999999999966
 21
210.30000000000001
 31
0.0
  0
LINE
  5
19B
  8
0
  6
CONTINUOUS
 10
691.50000000000023
 20
272.69289321881308
 30
0.0
 11
691.5
 21
239.39999999999969
 31
0.0
  0
LINE
  5
19C
  8
0
  6
CONTINUOUS
 10
668.50000000000023
 20
272.69289321881308
 30
0.0
 11
668.5
 21
239.39999999999961
 31
0.0
  0
LINE
  5
19D
  8
0
  6
CONTINUOUS
 10
689.10278868953651
 20
275.29721131046318
 30
0.0
 11
691.35355339059345
 21
273.0464466094063
 31
0.0
  0
LINE
  5
19E
  8
0
  6
CONTINUOUS
 10
670.8972113104636
 20
275.29721131046313
 30
0.0
 11
668.64644660940689
 21
273.04644660940642
 31
0.0
  0
ARC
  5
19F
  8
0
  6
CONTINUOUS
 10
680.0
 20
235.39999999999901
 30
0.0
 40
41.000000000000568
 50
77.524008440635285
 51
102.4759915593647
  0
LINE
  5
1A0
  8
0
  6
CONTINUOUS
 10
668.5
 20
239.39999999999961
 30
0.0
 11
691.5
 21
239.39999999999961
 31
0.0
  0
LINE
  5
1A1
  8
0
  6
CONTINUOUS
 10
687.58578643762723
 20
275.39999999999941
 30
0.0
 11
672.41421356237333
 21
275.39999999999969
 31
0.0
  0
LINE
  5
1A2
  8
0
  6
CONTINUOUS
 10
690.08578643762701
 20
272.89999999999958
 30
0.0
 11
669.91421356237311
 21
272.89999999999958
 31
0.0
  0
ARC
  5
1A3
  8
0
  6
CONTINUOUS
 10
691.00000000000023
 20
272.69289321881308
 30
0.0
 40
0.5
 50
359.99999999999977
 51
44.999999999999929
  0
ARC
  5
1A4
  8
0
  6
CONTINUOUS
 10
688.74923529894318
 20
274.94365791987002
 30
0.0
 40
0.5
 50
44.999999999997691
 51
77.524008440633409
  0
ARC
  5
1A5
  8
0
  6
CONTINUOUS
 10
671.25076470105694
 20
274.94365791986979
 30
0.0
 40
0.5
 50
102.4759915593673
 51
134.99999999999889
  0
ARC
  5
1A6
  8
0
  6
CONTINUOUS
 10
669.00000000000023
 20
272.69289321881308
 30
0.0
 40
0.5
 50
134.9999999999998
 51
179.9999999999998
  0
LINE
  5
1A7
  8
0
  6
CONTINUOUS
 10
672.5
 20
211.39999999999949
 30
0.0
 11
687.5
 21
211.39999999999949
 31
0.0
  0
LINE
  5
1A8
  8
0
  6
CONTINUOUS
 10
670.9649569337804
 20
211.89999999999961
 30
0.0
 11
689.03504306621949
 21
211.89999999999961
 31
0.0
  0
LINE
  5
1A9
  8
0
  6
CONTINUOUS
 10
687.5
 20
211.89999999999961
 30
0.0
 11
687.5
 21
211.39999999999949
 31
0.0
  0
LINE
  5
1AA
  8
0
  6
CONTINUOUS
 10
672.5
 20
211.89999999999961
 30
0.0
 11
672.5
 21
211.39999999999949
 31
0.0
  0
LINE
  5
1AB
  8
0
  6
CONTINUOUS
 10
691.5
 20
239.39999999999969
 30
0.0
 11
689.53372597469877
 21
212.3637321521102
 31
0.0
  0
LINE
  5
1AC
  8
0
  6
CONTINUOUS
 10
668.5
 20
239.39999999999961
 30
0.0
 11
670.46627402530089
 21
212.3637321521102
 31
0.0
  0
ARC
  5
1AD
  8
0
  6
CONTINUOUS
 10
689.03504306621949
 20
212.39999999999961
 30
0.0
 40
0.5
 50
270.0
 51
355.84035770628719
  0
ARC
  5
1AE
  8
0
  6
CONTINUOUS
 10
670.9649569337804
 20
212.39999999999961
 30
0.0
 40
0.5
 50
184.1596422937123
 51
270.0
  0
LINE
  5
1AF
  8
0
  6
CONTINUOUS
 10
674.0
 20
211.39999999999949
 30
0.0
 11
674.0545454545454
 21
210.80000000000001
 31
0.0
  0
LINE
  5
1B0
  8
0
  6
CONTINUOUS
 10
686.0
 20
211.39999999999961
 30
0.0
 11
685.94545454545448
 21
210.80000000000001
 31
0.0
  0
LINE
  5
1B1
  8
1
 10
617.0
 20
201.30000000000001
 30
0.0
 11
603.0
 21
201.30000000000001
 31
0.0
  0
LINE
  5
1B2
  8
0
  6
CONTINUOUS
 10
445.9999992286231
 20
211.39999999999961
 30
0.0
 11
445.94545377407758
 21
210.80000000000001
 31
0.0
  0
LINE
  5
1B3
  8
0
  6
CONTINUOUS
 10
433.9999992286231
 20
211.39999999999949
 30
0.0
 11
434.0545446831685
 21
210.80000000000001
 31
0.0
  0
ARC
  5
1B4
  8
0
  6
CONTINUOUS
 10
430.9649561624035
 20
212.39999999999961
 30
0.0
 40
0.5
 50
184.1596422937123
 51
270.0
  0
ARC
  5
1B5
  8
0
  6
CONTINUOUS
 10
449.03504229484258
 20
212.39999999999961
 30
0.0
 40
0.5
 50
270.0
 51
355.84035770628719
  0
LINE
  5
1B6
  8
0
  6
CONTINUOUS
 10
428.4999992286231
 20
239.39999999999961
 30
0.0
 11
430.4662732539241
 21
212.3637321521102
 31
0.0
  0
LINE
  5
1B7
  8
0
  6
CONTINUOUS
 10
451.4999992286231
 20
239.39999999999969
 30
0.0
 11
449.53372520332198
 21
212.3637321521102
 31
0.0
  0
LINE
  5
1B8
  8
0
  6
CONTINUOUS
 10
432.4999992286231
 20
211.89999999999961
 30
0.0
 11
432.4999992286231
 21
211.39999999999949
 31
0.0
  0
LINE
  5
1B9
  8
0
  6
CONTINUOUS
 10
447.4999992286231
 20
211.89999999999961
 30
0.0
 11
447.4999992286231
 21
211.39999999999949
 31
0.0
  0
LINE
  5
1BA
  8
0
  6
CONTINUOUS
 10
430.9649561624035
 20
211.89999999999961
 30
0.0
 11
449.03504229484258
 21
211.89999999999961
 31
0.0
  0
LINE
  5
1BB
  8
0
  6
CONTINUOUS
 10
432.4999992286231
 20
211.39999999999949
 30
0.0
 11
447.4999992286231
 21
211.39999999999949
 31
0.0
  0
ARC
  5
1BC
  8
0
  6
CONTINUOUS
 10
428.99999922862332
 20
272.69289321881308
 30
0.0
 40
0.5
 50
134.9999999999998
 51
179.9999999999998
  0
ARC
  5
1BD
  8
0
  6
CONTINUOUS
 10
431.25076392968009
 20
274.94365791986979
 30
0.0
 40
0.5
 50
102.4759915593673
 51
134.99999999999889
  0
ARC
  5
1BE
  8
0
  6
CONTINUOUS
 10
448.74923452756627
 20
274.94365791987002
 30
0.0
 40
0.5
 50
44.999999999997691
 51
77.524008440633409
  0
ARC
  5
1BF
  8
0
  6
CONTINUOUS
 10
450.99999922862338
 20
272.69289321881308
 30
0.0
 40
0.5
 50
359.99999999999977
 51
44.999999999999929
  0
LINE
  5
1C0
  8
0
  6
CONTINUOUS
 10
450.0857856662501
 20
272.89999999999958
 30
0.0
 11
429.91421279099637
 21
272.89999999999958
 31
0.0
  0
LINE
  5
1C1
  8
0
  6
CONTINUOUS
 10
447.58578566625039
 20
275.39999999999941
 30
0.0
 11
432.41421279099637
 21
275.39999999999969
 31
0.0
  0
LINE
  5
1C2
  8
0
  6
CONTINUOUS
 10
428.4999992286231
 20
239.39999999999961
 30
0.0
 11
451.4999992286231
 21
239.39999999999961
 31
0.0
  0
ARC
  5
1C3
  8
0
  6
CONTINUOUS
 10
439.99999922862321
 20
235.39999999999901
 30
0.0
 40
41.000000000000568
 50
77.524008440635285
 51
102.4759915593647
  0
LINE
  5
1C4
  8
0
  6
CONTINUOUS
 10
430.89721053908693
 20
275.29721131046313
 30
0.0
 11
428.64644583802999
 21
273.04644660940642
 31
0.0
  0
LINE
  5
1C5
  8
0
  6
CONTINUOUS
 10
449.10278791815961
 20
275.29721131046318
 30
0.0
 11
451.3535526192166
 21
273.0464466094063
 31
0.0
  0
LINE
  5
1C6
  8
0
  6
CONTINUOUS
 10
428.49999922862332
 20
272.69289321881308
 30
0.0
 11
428.4999992286231
 21
239.39999999999961
 31
0.0
  0
LINE
  5
1C7
  8
0
  6
CONTINUOUS
 10
451.49999922862338
 20
272.69289321881308
 30
0.0
 11
451.4999992286231
 21
239.39999999999969
 31
0.0
  0
LINE
  5
1C8
  8
0
 10
449.49999922862293
 20
210.80000000000001
 30
0.0
 11
449.99999922862293
 21
210.30000000000001
 31
0.0
  0
LINE
  5
1C9
  8
0
 10
430.49999922862298
 20
210.80000000000001
 30
0.0
 11
429.99999922862298
 21
210.30000000000001
 31
0.0
  0
LINE
  5
1CA
  8
0
 10
449.99999922862298
 20
190.80000000000001
 30
0.0
 11
449.99999922862293
 21
210.2999999999999
 31
0.0
  0
LINE
  5
1CB
  8
0
 10
429.99999922862298
 20
190.80000000000001
 30
0.0
 11
429.99999922862298
 21
210.30000000000001
 31
0.0
  0
LINE
  5
1CC
  8
0
 10
430.49999922862298
 20
210.80000000000001
 30
0.0
 11
437.00000077137679
 21
210.80000000000001
 31
0.0
  0
LINE
  5
1CD
  8
0
 10
429.99999922862338
 20
190.80000000000001
 30
0.0
 11
449.99999922862281
 21
190.80000000000001
 31
0.0
  0
LINE
  5
1CE
  8
0
 10
437.00000077137668
 20
210.80000000000001
 30
0.0
 11
437.00000077137679
 21
197.2999999999999
 31
0.0
  0
LINE
  5
1CF
  8
0
 10
443.00000077137679
 20
210.80000000000001
 30
0.0
 11
443.00000077137668
 21
197.2999999999999
 31
0.0
  0
LINE
  5
1D0
  8
0
 10
437.00000077137679
 20
197.30000000000001
 30
0.0
 11
443.00000077137668
 21
197.2999999999999
 31
0.0
  0
LINE
  5
1D1
  8
0
 10
443.00000077137679
 20
210.80000000000001
 30
0.0
 11
449.49999922862293
 21
210.80000000000001
 31
0.0
  0
LINE
  5
1D2
  8
0
 10
434.73217235219659
 20
207.2999999999999
 30
0.0
 11
434.73217235219659
 21
190.80000000000001
 31
0.0
  0
LINE
  5
1D3
  8
0
 10
445.26782610504938
 20
207.30000000000001
 30
0.0
 11
445.26782610504938
 21
190.80000000000001
 31
0.0
  0
LINE
  5
1D4
  8
0
 10
449.99999922862293
 20
210.30000000000001
 30
0.0
 11
448.26782610504938
 21
210.30000000000001
 31
0.0
  0
LINE
  5
1D5
  8
0
 10
429.99999922862298
 20
210.30000000000001
 30
0.0
 11
431.7321723521967
 21
210.30000000000001
 31
0.0
  0
ARC
  5
1D6
  8
0
 10
431.7321723521967
 20
207.2999999999999
 30
0.0
 40
3.0
 50
0.0
 51
90.0
  0
ARC
  5
1D7
  8
0
 10
448.26782610504938
 20
207.30000000000001
 30
0.0
 40
3.0
 50
90.0
 51
179.99999999999989
  0
ARC
  5
1D8
  8
0
 10
440.0000007713769
 20
201.2999999999999
 30
0.0
 40
4.0
 50
221.40962210926989
 51
318.59037789069839
  0
LINE
  5
1D9
  8
0
 10
443.00000077137679
 20
205.89999999999961
 30
0.0
 11
437.00000077137679
 21
205.89999999999949
 31
0.0
  0
LINE
  5
3CA
  8
1
 10
610.0
 20
371.5000007713769
 30
0.0
 11
610.0
 21
328.5000007713769
 31
0.0
  0
TEXT
  5
428
  8
0
 62
     3
 10
0.0
 20
0.0
 30
0.0
 40
10.0
  1
BCH100F
  7
STANDARD1
  0
ENDSEC
  0
EOF
