  0
SECTION
  2
HEADER
  9
$ACADVER
  1
AC1009
  9
$INSBASE
 10
0.0
 20
0.0
 30
0.0
  9
$EXTMIN
 10
0.0
 20
-1.4802182810368341
 30
0.0
  9
$EXTMAX
 10
170.0
 20
86.0
 30
0.0
  9
$LIMMIN
 10
0.0
 20
0.0
  9
$LIMMAX
 10
187.5
 20
135.0
  9
$ORTHOMODE
 70
     1
  9
$REGENMODE
 70
     1
  9
$FILLMODE
 70
     1
  9
$QTEXTMODE
 70
     0
  9
$MIRRTEXT
 70
     0
  9
$DRAGMODE
 70
     2
  9
$LTSCALE
 40
5.0
  9
$OSMODE
 70
    37
  9
$ATTMODE
 70
     1
  9
$TEXTSIZE
 40
2.5000000000000488
  9
$TRACEWID
 40
0.05
  9
$TEXTSTYLE
  7
STANDARD
  9
$CLAYER
  8
0
  9
$CELTYPE
  6
BYLAYER
  9
$CECOLOR
 62
   256
  9
$DIMSCALE
 40
0.5
  9
$DIMASZ
 40
3.0
  9
$DIMEXO
 40
2.0
  9
$DIMDLI
 40
0.38
  9
$DIMRND
 40
0.0
  9
$DIMDLE
 40
0.0
  9
$DIMEXE
 40
2.0
  9
$DIMTP
 40
0.0
  9
$DIMTM
 40
0.0
  9
$DIMTXT
 40
3.2000000000000002
  9
$DIMCEN
 40
0.0
  9
$DIMTSZ
 40
0.0
  9
$DIMTOL
 70
     0
  9
$DIMLIM
 70
     0
  9
$DIMTIH
 70
     0
  9
$DIMTOH
 70
     0
  9
$DIMSE1
 70
     0
  9
$DIMSE2
 70
     0
  9
$DIMTAD
 70
     1
  9
$DIMZIN
 70
     0
  9
$DIMBLK
  1

  9
$DIMASO
 70
     0
  9
$DIMSHO
 70
     0
  9
$DIMPOST
  1

  9
$DIMAPOST
  1

  9
$DIMALT
 70
     0
  9
$DIMALTD
 70
     2
  9
$DIMALTF
 40
25.3999999999999986
  9
$DIMLFAC
 40
1.0
  9
$DIMTOFL
 70
     1
  9
$DIMTVP
 40
1.6000000000000001
  9
$DIMTIX
 70
     1
  9
$DIMSOXD
 70
     0
  9
$DIMSAH
 70
     0
  9
$DIMBLK1
  1

  9
$DIMBLK2
  1

  9
$DIMSTYLE
  2
STANDARD
  9
$DIMCLRD
 70
     0
  9
$DIMCLRE
 70
     0
  9
$DIMCLRT
 70
     0
  9
$DIMTFAC
 40
1.0
  9
$DIMGAP
 40
0.09
  9
$LUNITS
 70
     2
  9
$LUPREC
 70
     1
  9
$SKETCHINC
 40
0.1
  9
$FILLETRAD
 40
0.4
  9
$AUNITS
 70
     0
  9
$AUPREC
 70
     0
  9
$MENU
  1
E:\r13\win\SUPPORT\ACAD
  9
$ELEVATION
 40
0.0
  9
$PELEVATION
 40
0.0
  9
$THICKNESS
 40
0.0
  9
$LIMCHECK
 70
     0
  9
$BLIPMODE
 70
     0
  9
$CHAMFERA
 40
0.0
  9
$CHAMFERB
 40
0.0
  9
$SKPOLY
 70
     0
  9
$TDCREATE
 40
2449840.6215393519960344
  9
$TDUPDATE
 40
2460864.3914814819581807
  9
$TDINDWG
 40
0.0879674769
  9
$TDUSRTIMER
 40
0.0879674769
  9
$USRTIMER
 70
     1
  9
$ANGBASE
 50
0.0
  9
$ANGDIR
 70
     0
  9
$PDMODE
 70
     0
  9
$PDSIZE
 40
0.0
  9
$PLINEWID
 40
0.0
  9
$COORDS
 70
     1
  9
$SPLFRAME
 70
     0
  9
$SPLINETYPE
 70
     6
  9
$SPLINESEGS
 70
     8
  9
$ATTDIA
 70
     1
  9
$ATTREQ
 70
     1
  9
$HANDLING
 70
     1
  9
$HANDSEED
  5
11CB
  9
$SURFTAB1
 70
     6
  9
$SURFTAB2
 70
     6
  9
$SURFTYPE
 70
     6
  9
$SURFU
 70
     6
  9
$SURFV
 70
     6
  9
$UCSNAME
  2

  9
$UCSORG
 10
0.0
 20
0.0
 30
0.0
  9
$UCSXDIR
 10
1.0
 20
0.0
 30
0.0
  9
$UCSYDIR
 10
0.0
 20
1.0
 30
0.0
  9
$PUCSNAME
  2

  9
$PUCSORG
 10
0.0
 20
0.0
 30
0.0
  9
$PUCSXDIR
 10
1.0
 20
0.0
 30
0.0
  9
$PUCSYDIR
 10
0.0
 20
1.0
 30
0.0
  9
$USERI1
 70
     0
  9
$USERI2
 70
     1
  9
$USERI3
 70
     0
  9
$USERI4
 70
     0
  9
$USERI5
 70
     0
  9
$USERR1
 40
0.0
  9
$USERR2
 40
0.0
  9
$USERR3
 40
0.0
  9
$USERR4
 40
0.0
  9
$USERR5
 40
0.0
  9
$WORLDVIEW
 70
     1
  9
$SHADEDGE
 70
     3
  9
$SHADEDIF
 70
    70
  9
$TILEMODE
 70
     1
  9
$MAXACTVP
 70
    16
  9
$PLIMCHECK
 70
     0
  9
$PEXTMIN
 10
1.0000000000000000E+20
 20
1.0000000000000000E+20
 30
1.0000000000000000E+20
  9
$PEXTMAX
 10
-1.0000000000000000E+20
 20
-1.0000000000000000E+20
 30
-1.0000000000000000E+20
  9
$PLIMMIN
 10
0.0
 20
0.0
  9
$PLIMMAX
 10
12.0
 20
9.0
  9
$UNITMODE
 70
     0
  9
$VISRETAIN
 70
     0
  9
$PLINEGEN
 70
     0
  9
$PSLTSCALE
 70
     0
  0
ENDSEC
  0
SECTION
  2
TABLES
  0
TABLE
  2
VPORT
 70
     1
  0
VPORT
  2
*ACTIVE
 70
     0
 10
0.0
 20
0.0
 11
1.0
 21
1.0
 12
201.7898383371824025
 22
85.9220496747730209
 13
0.0
 23
0.0
 14
5.0
 24
5.0
 15
5.0
 25
5.0
 16
0.0
 26
0.0
 36
1.0
 17
0.0
 27
0.0
 37
0.0
 40
171.8440993495460134
 41
2.3485221674876842
 42
50.0
 43
0.0
 44
0.0
 50
0.0
 51
0.0
 71
     0
 72
   500
 73
     1
 74
     0
 75
     0
 76
     0
 77
     0
 78
     2
  0
ENDTAB
  0
TABLE
  2
LTYPE
 70
     3
  0
LTYPE
  2
CONTINUOUS
 70
     0
  3
Solid Line
 72
    65
 73
     0
 40
0.0
  0
LTYPE
  2
CENTER
 70
     0
  3
____ _ ____ _ ____ _ ____ _ ____ _ ____ _ ____
 72
    65
 73
     4
 40
2.0
 49
1.25
 49
-0.25
 49
0.25
 49
-0.25
  0
LTYPE
  2
HIDDEN
 70
     0
  3
_ _ _ _ _ _ _ _ _ _ _ _ _ _ _ _ _ _ _ _ _ _ _
 72
    65
 73
     2
 40
0.375
 49
0.25
 49
-0.125
  0
ENDTAB
  0
TABLE
  2
LAYER
 70
     5
  0
LAYER
  2
0
 70
     0
 62
     7
  6
CONTINUOUS
  0
LAYER
  2
1
 70
     0
 62
     1
  6
CENTER
  0
LAYER
  2
2
 70
     0
 62
     2
  6
HIDDEN
  0
LAYER
  2
3
 70
     0
 62
     3
  6
CONTINUOUS
  0
LAYER
  2
DEFPOINTS
 70
     0
 62
     7
  6
CONTINUOUS
  0
ENDTAB
  0
TABLE
  2
STYLE
 70
     2
  0
STYLE
  2
STANDARD
 70
     0
 40
0.0
 41
1.0
 50
0.0
 71
     0
 42
2.5000000000000488
  3
TXT
  4
BIGFONT
  0
STYLE
  2
STANDARD1
 70
     0
 40
0.0
 41
1.0
 50
0.0
 71
     0
 42
3.0
  3
txt
  4

  0
ENDTAB
  0
TABLE
  2
VIEW
 70
     1
  0
VIEW
  2
ALL
 70
     0
 40
135.0
 10
110.4957983193277045
 20
67.5
 41
0.0
 11
0.0
 21
0.0
 31
1.0
 12
0.0
 22
0.0
 32
0.0
 42
0.0
 43
0.0
 44
0.0
 50
0.0
 71
     0
  0
ENDTAB
  0
TABLE
  2
UCS
 70
     0
  0
ENDTAB
  0
TABLE
  2
APPID
 70
     6
  0
APPID
  2
ACAD
 70
     0
  0
APPID
  2
ACAD_MLEADERVER
 70
     0
  0
APPID
  2
ACAD_EXEMPT_FROM_CAD_STANDARDS
 70
     0
  0
APPID
  2
ACAD_NAV_VCDISPLAY
 70
     0
  0
APPID
  2
ACAD_DSTYLE_DIMJAG
 70
     0
  0
APPID
  2
ACAD_DSTYLE_DIMTALN
 70
     0
  0
ENDTAB
  0
TABLE
  2
DIMSTYLE
 70
     1
  0
DIMSTYLE
  2
STANDARD
 70
     0
  3

  4

  5

  6

  7

 40
1.0
 41
0.18
 42
0.0625
 43
0.38
 44
0.18
 45
0.0
 46
0.0
 47
0.0
 48
0.0
140
0.18
141
0.09
142
0.0
143
25.3999999999999986
144
1.0
145
0.0
146
1.0
147
0.09
 71
     0
 72
     0
 73
     1
 74
     1
 75
     0
 76
     0
 77
     0
 78
     0
170
     0
171
     2
172
     0
173
     0
174
     0
175
     0
176
     0
177
     0
178
     0
  0
ENDTAB
  0
ENDSEC
  0
SECTION
  2
BLOCKS
  0
BLOCK
  8
0
  2
$MODEL_SPACE
 70
     0
 10
0.0
 20
0.0
 30
0.0
  3
$MODEL_SPACE
  1

  0
ENDBLK
  5
E4
  8
0
  0
BLOCK
 67
     1
  8
0
  2
$PAPER_SPACE
 70
     0
 10
0.0
 20
0.0
 30
0.0
  3
$PAPER_SPACE
  1

  0
ENDBLK
  5
E2
 67
     1
  8
0
  0
ENDSEC
  0
SECTION
  2
ENTITIES
  0
TEXT
  5
1D8
  8
0
 62
     3
 10
0.0
 20
0.0
 30
0.0
 40
5.0
  1
BCFN8X50-S
  7
STANDARD1
  0
LINE
  5
9D0
  8
0
 10
67.0
 20
43.0
 30
0.0
 11
66.5
 21
42.5
 31
0.0
  0
LINE
  5
9D1
  8
0
 10
66.5
 20
30.5
 30
0.0
 11
67.0
 21
30.0
 31
0.0
  0
LINE
  5
9D2
  8
0
 10
74.5
 20
43.0
 30
0.0
 11
67.0
 21
43.0
 31
0.0
  0
LINE
  5
9D3
  8
0
 10
67.0
 20
30.0
 30
0.0
 11
74.5
 21
30.0
 31
0.0
  0
LINE
  5
9D4
  8
0
 10
122.2000000000000028
 20
40.4999999999999929
 30
0.0
 11
75.1000000000000227
 21
40.4999999999999929
 31
0.0
  0
LINE
  5
9D5
  8
0
 10
75.1000000000000227
 20
32.5
 30
0.0
 11
122.2000000000000028
 21
32.5
 31
0.0
  0
LINE
  5
9D6
  8
0
 10
122.2000000000000028
 20
32.5
 30
0.0
 11
123.0999999999999943
 21
33.4000000000000128
 31
0.0
  0
LINE
  5
9D7
  8
0
 10
123.0999999999999943
 20
39.6000000000000085
 30
0.0
 11
122.2000000000000028
 21
40.4999999999999929
 31
0.0
  0
LINE
  5
9D8
  8
0
 10
124.0
 20
39.6000000000000085
 30
0.0
 11
123.0999999999999943
 21
39.6000000000000085
 31
0.0
  0
LINE
  5
9D9
  8
0
 10
123.0999999999999943
 20
33.4000000000000128
 30
0.0
 11
124.0
 21
33.4000000000000128
 31
0.0
  0
LINE
  5
9DC
  8
0
 10
67.0
 20
43.0
 30
0.0
 11
67.0
 21
30.0
 31
0.0
  0
LINE
  5
9DD
  8
0
 10
66.5
 20
42.5
 30
0.0
 11
66.5
 21
30.5
 31
0.0
  0
LINE
  5
9DE
  8
0
 10
74.5
 20
36.5
 30
0.0
 11
74.5
 21
43.0
 31
0.0
  0
LINE
  5
9DF
  8
0
 10
74.5
 20
30.0
 30
0.0
 11
74.5
 21
36.5
 31
0.0
  0
LINE
  5
9E0
  8
0
 10
122.2000000000000028
 20
40.4999999999999929
 30
0.0
 11
122.2000000000000028
 21
32.5
 31
0.0
  0
LINE
  5
9E1
  8
0
 10
123.0999999999999943
 20
39.6000000000000085
 30
0.0
 11
123.0999999999999943
 21
33.4000000000000128
 31
0.0
  0
LINE
  5
9E2
  8
0
 10
124.0
 20
39.6000000000000085
 30
0.0
 11
124.0
 21
33.4000000000000128
 31
0.0
  0
CIRCLE
  5
9F9
  8
0
 10
161.0
 20
36.5
 30
0.0
 40
3.099999999999993
  0
CIRCLE
  5
9FA
  8
0
 10
161.0
 20
36.5
 30
0.0
 40
2.75
  0
CIRCLE
  5
9FB
  8
0
 10
161.0
 20
36.5
 30
0.0
 40
4.0
  0
CIRCLE
  5
9FC
  8
0
 10
161.0
 20
36.5
 30
0.0
 40
6.5
  0
CIRCLE
  5
9FE
  8
0
 10
30.0
 20
36.5
 30
0.0
 40
6.5
  0
CIRCLE
  5
9FF
  8
0
 10
30.0
 20
36.5
 30
0.0
 40
6.0
  0
LINE
  5
A00
  8
0
 10
30.0
 20
39.9641016152000006
 30
0.0
 11
33.0
 21
38.2320508075999896
 31
0.0
  0
LINE
  5
A01
  8
0
 10
27.0
 20
38.2320508075999896
 30
0.0
 11
30.0
 21
39.9641016152000006
 31
0.0
  0
LINE
  5
A02
  8
0
 10
27.0
 20
34.7679491924999979
 30
0.0
 11
27.0
 21
38.2320508075999896
 31
0.0
  0
LINE
  5
A03
  8
0
 10
30.0
 20
33.0358983849000012
 30
0.0
 11
27.0
 21
34.7679491924999979
 31
0.0
  0
LINE
  5
A04
  8
0
 10
33.0
 20
34.7679491924999979
 30
0.0
 11
30.0
 21
33.0358983849000012
 31
0.0
  0
LINE
  5
A05
  8
0
 10
33.0
 20
38.2320508075999896
 30
0.0
 11
33.0
 21
34.7679491924999979
 31
0.0
  0
LINE
  5
B8E
  8
1
 10
64.0
 20
36.5
 30
0.0
 11
127.0
 21
36.4999999999999929
 31
0.0
  0
ARC
  5
B90
  8
2
 10
122.9188611698998983
 20
36.5
 30
0.0
 40
2.750000000000008
 50
66.8498921997784947
 51
293.1501078002212921
  0
LINE
  5
B92
  8
1
 10
122.9188611698998983
 20
40.7500000000000071
 30
0.0
 11
122.9188611698998983
 21
32.2499999999999929
 31
0.0
  0
LINE
  5
BF5
  8
2
 10
71.5
 20
39.9641016152000006
 30
0.0
 11
66.5
 21
39.9641016152000006
 31
0.0
  0
LINE
  5
BF6
  8
2
 10
71.5
 20
33.0358983849000012
 30
0.0
 11
66.5
 21
33.0358983849000012
 31
0.0
  0
LINE
  5
BF7
  8
2
 10
71.4999999999999432
 20
39.9641016152000006
 30
0.0
 11
71.5000000000000568
 21
33.0358983849000012
 31
0.0
  0
LINE
  5
BF8
  8
2
 10
73.2320508075688394
 20
36.5
 30
0.0
 11
71.5
 21
39.9641016152000006
 31
0.0
  0
LINE
  5
BF9
  8
2
 10
71.5000000000000568
 20
33.0358983849000012
 30
0.0
 11
73.2320508075688394
 21
36.5
 31
0.0
  0
LINE
  5
BFA
  8
2
 10
71.5
 20
38.2320508075999896
 30
0.0
 11
66.5
 21
38.2320508075999896
 31
0.0
  0
ARC
  5
BFB
  8
0
 10
75.1000000000000227
 20
31.9000000000000092
 30
0.0
 40
0.6000000000000015
 50
90.0
 51
180.0
  0
ARC
  5
BFC
  8
0
 10
75.1000000000000227
 20
41.0999999999999872
 30
0.0
 40
0.6000000000000015
 50
180.0
 51
270.0
  0
POINT
  5
BFD
  8
2
 10
66.5
 20
36.5
 30
0.0
  0
LINE
  5
BFF
  8
0
 10
67.0
 20
86.0
 30
0.0
 11
66.5
 21
85.5
 31
0.0
  0
LINE
  5
C00
  8
0
 10
66.5
 20
73.5
 30
0.0
 11
67.0
 21
73.0
 31
0.0
  0
LINE
  5
C01
  8
0
 10
74.5
 20
86.0
 30
0.0
 11
67.0
 21
86.0
 31
0.0
  0
LINE
  5
C02
  8
0
 10
67.0
 20
73.0
 30
0.0
 11
74.5
 21
73.0
 31
0.0
  0
LINE
  5
C03
  8
0
 10
122.2000000000000028
 20
83.4999999999999858
 30
0.0
 11
75.1000000000000227
 21
83.4999999999999858
 31
0.0
  0
LINE
  5
C04
  8
0
 10
75.1000000000000227
 20
75.5
 30
0.0
 11
122.2000000000000028
 21
75.5
 31
0.0
  0
LINE
  5
C05
  8
0
 10
122.2000000000000028
 20
75.5
 30
0.0
 11
123.0999999999999943
 21
76.4000000000000057
 31
0.0
  0
LINE
  5
C06
  8
0
 10
123.0999999999999943
 20
82.6000000000000369
 30
0.0
 11
122.2000000000000028
 21
83.4999999999999858
 31
0.0
  0
LINE
  5
C07
  8
0
 10
124.0
 20
82.6000000000000369
 30
0.0
 11
123.0999999999999943
 21
82.6000000000000369
 31
0.0
  0
LINE
  5
C08
  8
0
 10
123.0999999999999943
 20
76.4000000000000057
 30
0.0
 11
124.0
 21
76.4000000000000057
 31
0.0
  0
LINE
  5
C0B
  8
0
 10
67.0
 20
86.0
 30
0.0
 11
67.0
 21
73.0
 31
0.0
  0
LINE
  5
C0C
  8
0
 10
66.5
 20
85.5
 30
0.0
 11
66.5
 21
73.5
 31
0.0
  0
LINE
  5
C0D
  8
0
 10
74.5
 20
79.5
 30
0.0
 11
74.5
 21
86.0
 31
0.0
  0
LINE
  5
C0E
  8
0
 10
74.5
 20
73.0
 30
0.0
 11
74.5
 21
79.5
 31
0.0
  0
LINE
  5
C0F
  8
0
 10
122.2000000000000028
 20
83.4999999999999858
 30
0.0
 11
122.2000000000000028
 21
75.5
 31
0.0
  0
LINE
  5
C10
  8
0
 10
123.0999999999999943
 20
82.6000000000000369
 30
0.0
 11
123.0999999999999943
 21
76.4000000000000057
 31
0.0
  0
LINE
  5
C11
  8
0
 10
124.0
 20
82.6000000000000369
 30
0.0
 11
124.0
 21
76.4000000000000057
 31
0.0
  0
LINE
  5
C13
  8
1
 10
64.0
 20
79.5
 30
0.0
 11
127.0
 21
79.4999999999999858
 31
0.0
  0
ARC
  5
C14
  8
2
 10
122.9188611698998983
 20
79.5
 30
0.0
 40
2.750000000000008
 50
66.8498921997784947
 51
293.1501078002212921
  0
LINE
  5
C15
  8
1
 10
122.9188611698998983
 20
83.75
 30
0.0
 11
122.9188611698998983
 21
75.2499999999999858
 31
0.0
  0
LINE
  5
C16
  8
2
 10
71.5
 20
82.5
 30
0.0
 11
66.5
 21
82.5
 31
0.0
  0
LINE
  5
C17
  8
2
 10
71.5
 20
76.5
 30
0.0
 11
66.5
 21
76.5
 31
0.0
  0
LINE
  5
C18
  8
2
 10
71.5
 20
82.5
 30
0.0
 11
71.5
 21
76.5
 31
0.0
  0
LINE
  5
C19
  8
2
 10
73.2320508075688394
 20
79.5
 30
0.0
 11
71.5
 21
82.5
 31
0.0
  0
LINE
  5
C1A
  8
2
 10
71.5
 20
76.5
 30
0.0
 11
73.2320508075688394
 21
79.5
 31
0.0
  0
LINE
  5
C1B
  8
2
 10
71.5
 20
79.5
 30
0.0
 11
66.5
 21
79.5
 31
0.0
  0
ARC
  5
C1C
  8
0
 10
75.1000000000000227
 20
74.9000000000000057
 30
0.0
 40
0.6000000000000015
 50
90.0
 51
180.0
  0
ARC
  5
C1D
  8
0
 10
75.1000000000000227
 20
84.0999999999999943
 30
0.0
 40
0.6000000000000015
 50
180.0
 51
270.0
  0
POINT
  5
C1E
  8
2
 10
66.5
 20
79.5
 30
0.0
  0
LINE
  5
C20
  8
1
 10
39.0
 20
36.5
 30
0.0
 11
21.0
 21
36.5
 31
0.0
  0
LINE
  5
C21
  8
1
 10
30.0
 20
45.4999999999999929
 30
0.0
 11
30.0
 21
27.5
 31
0.0
  0
LINE
  5
C27
  8
2
 10
71.5
 20
34.7679491924999979
 30
0.0
 11
66.5
 21
34.7679491924999979
 31
0.0
  0
LINE
  5
C31
  8
0
 10
96.5
 20
32.5
 30
0.0
 11
96.5
 21
40.4999999999999929
 31
0.0
  0
LINE
  5
C33
  8
3
 10
96.5
 20
33.1764999999999191
 30
0.0
 11
95.328267628679896
 21
32.5000000000000284
 31
0.0
  0
LINE
  5
C34
  8
3
 10
96.5
 20
39.8235000000001378
 30
0.0
 11
95.328267628679896
 21
40.4999999999999929
 31
0.0
  0
LINE
  5
C35
  8
3
 10
96.5
 20
39.8235000000000809
 30
0.0
 11
122.876499999999993
 21
39.8235000000000028
 31
0.0
  0
LINE
  5
C36
  8
3
 10
96.5
 20
33.1764999999998906
 30
0.0
 11
122.8764999999998935
 21
33.1764999999998906
 31
0.0
  0
LINE
  5
C38
  8
0
 10
96.5
 20
75.5
 30
0.0
 11
96.5
 21
83.4999999999999858
 31
0.0
  0
LINE
  5
C39
  8
3
 10
96.5
 20
76.1764999999999191
 30
0.0
 11
95.328267628679896
 21
75.5000000000000284
 31
0.0
  0
LINE
  5
C3A
  8
3
 10
96.5
 20
82.8235000000001236
 30
0.0
 11
95.328267628679896
 21
83.4999999999999858
 31
0.0
  0
LINE
  5
C3B
  8
3
 10
96.4999999999999858
 20
82.8235000000000809
 30
0.0
 11
122.876499999999993
 21
82.8234999999999957
 31
0.0
  0
LINE
  5
C3C
  8
3
 10
96.5
 20
76.1764999999998906
 30
0.0
 11
122.8764999999998935
 21
76.1764999999998906
 31
0.0
  0
LINE
  5
C45
  8
1
 10
170.0
 20
36.5
 30
0.0
 11
152.0
 21
36.5
 31
0.0
  0
LINE
  5
C46
  8
1
 10
161.0
 20
45.4999999999999929
 30
0.0
 11
161.0
 21
27.5
 31
0.0
  0
CIRCLE
  5
C49
  8
3
 10
161.0
 20
36.5
 30
0.0
 40
3.3235000000000952
  0
ARC
  5
1029
  8
0
 10
161.8060879867483095
 20
37.4469832517087582
 30
0.0
 40
1.90469972250024
 50
129.2878577787438985
 51
135.5332896731630967
  0
ARC
  5
102A
  8
0
 10
160.9409358546000135
 20
35.0841657601000065
 30
0.0
 40
3.7299277958892909
 50
97.6130868625985499
 51
107.899297457261298
  0
ARC
  5
102B
  8
0
 10
160.7551044630181138
 20
35.6710579587901719
 30
0.0
 40
3.114281762241137
 50
107.9657476955654971
 51
114.7179751108414933
  0
ARC
  5
102C
  8
0
 10
160.0408022577483962
 20
38.2473504433957032
 30
0.0
 40
0.639927045845742
 50
156.7458791569702043
 51
193.3124569653546985
  0
ARC
  5
102D
  8
0
 10
160.5778362118070959
 20
35.4674230083731175
 30
0.0
 40
2.8767199084503341
 50
113.7755919600166976
 51
120.4832323212968959
  0
ARC
  5
102E
  8
0
 10
159.1778792760840133
 20
37.3608914433548875
 30
0.0
 40
0.5886255711091993
 50
95.7881625349220656
 51
107.589443974077497
  0
ARC
  5
102F
  8
0
 10
162.0433908329717951
 20
36.7046452527089002
 30
0.0
 40
3.2778303995957341
 50
158.198671009058188
 51
159.468815887906203
  0
ARC
  5
1030
  8
0
 10
160.2179751665935896
 20
36.0393023604998319
 30
0.0
 40
2.200465563462386
 50
124.432233581679796
 51
131.0005874740758998
  0
ARC
  5
1031
  8
0
 10
159.6895747681739124
 20
37.7652561246757017
 30
0.0
 40
0.9175753144444101
 50
184.078204173045691
 51
202.5128810357662985
  0
ARC
  5
1032
  8
0
 10
162.5940228335882125
 20
36.5479856512654422
 30
0.0
 40
3.850726030203504
 50
167.0043650997986902
 51
169.8774980532514007
  0
ARC
  5
1033
  8
0
 10
159.9237372376767041
 20
35.8889248958344211
 30
0.0
 40
1.743556021793303
 50
129.9899077041289956
 51
144.5570162158948051
  0
ARC
  5
1034
  8
0
 10
159.7297324927139073
 20
37.3809491995408507
 30
0.0
 40
1.317388188405636
 50
201.4123715656371871
 51
221.2828898856442947
  0
ARC
  5
1035
  8
0
 10
162.9580492340998887
 20
36.5
 30
0.0
 40
4.2182992539819706
 50
179.8401807576996134
 51
180.1598192423003013
  0
ARC
  5
1036
  8
0
 10
159.729568593632905
 20
35.6191506393772315
 30
0.0
 40
1.3171991535717951
 50
138.7156698101545089
 51
158.589068738573701
  0
ARC
  5
1037
  8
0
 10
159.9247552000300061
 20
37.112015326554527
 30
0.0
 40
1.7449305853607491
 50
215.4487524615502139
 51
230.0043236360409082
  0
ARC
  5
1038
  8
0
 10
162.596874649831193
 20
36.452597619794247
 30
0.0
 40
3.8536359682574162
 50
190.1235869466567863
 51
192.9945499002955955
  0
ARC
  5
1039
  8
0
 10
159.6890694049862134
 20
35.2348632967308788
 30
0.0
 40
0.9170627416424874
 50
157.4819221829532978
 51
175.9269926172007104
  0
ARC
  5
103A
  8
0
 10
160.218640737529995
 20
36.9615582792744988
 30
0.0
 40
2.2015517506107449
 50
229.001034645949801
 51
235.566144334289703
  0
ARC
  5
103B
  8
0
 10
163.1226487540311041
 20
36.7132402358595584
 30
0.0
 40
4.4351135660204921
 50
200.6969020752362951
 51
201.6356110278032077
  0
ARC
  5
103C
  8
0
 10
159.1777394001404957
 20
35.6384324560262513
 30
0.0
 40
0.5879388151356452
 50
252.4036391276725055
 51
264.2187543633299924
  0
ARC
  5
103D
  8
0
 10
160.5758770727161107
 20
37.5287533379441598
 30
0.0
 40
2.8724309358613529
 50
239.5117541635663088
 51
246.2294215248033993
  0
ARC
  5
103E
  8
0
 10
160.0406395337415972
 20
34.7526354035680995
 30
0.0
 40
0.6397719553715988
 50
166.6829539975362877
 51
203.2587098801373884
  0
ARC
  5
103F
  8
0
 10
160.7644752997107105
 20
37.3529252072344775
 30
0.0
 40
3.139986320489788
 50
245.3096940871787126
 51
252.0065831369998079
  0
ARC
  5
1040
  8
0
 10
160.9400583678597059
 20
37.9107415982030815
 30
0.0
 40
3.7247637974578138
 50
252.0883887979902056
 51
262.3899136975231272
  0
ARC
  5
1041
  8
0
 10
161.7103371938821965
 20
35.448195105991303
 30
0.0
 40
1.7629563994844839
 50
224.2153613199523932
 51
230.963491254340596
  0
ARC
  5
1042
  8
0
 10
160.0501596122776107
 20
35.2280861427770873
 30
0.0
 40
1.2740168727499039
 50
295.5678820315349071
 51
305.2137516830405275
  0
ARC
  5
1043
  8
0
 10
161.0000000000499938
 20
38.3438110732855719
 30
0.0
 40
4.1621723889177202
 50
267.036187427608013
 51
272.9638125723918733
  0
ARC
  5
1044
  8
0
 10
161.9489991649647891
 20
35.2266517859522494
 30
0.0
 40
1.272359928536293
 50
234.779952681733306
 51
244.4384135766327972
  0
ARC
  5
1045
  8
0
 10
160.3140916829748051
 20
35.4214519853099219
 30
0.0
 40
1.7267994510731559
 50
308.9657758146800006
 51
315.8553716110320124
  0
ARC
  5
1046
  8
0
 10
161.0600056682218906
 20
37.9104588481849873
 30
0.0
 40
3.7244750575695291
 50
277.6096859103147949
 51
287.9120115940718847
  0
ARC
  5
1047
  8
0
 10
161.2348696496819116
 20
37.3546017048968082
 30
0.0
 40
3.1417831759781678
 50
287.9953340941149236
 51
294.6883886818973792
  0
ARC
  5
1048
  8
0
 10
161.9591260978828018
 20
34.7526557880797995
 30
0.0
 40
0.6399953306738757
 50
336.7478989070859825
 51
13.3104371868289793
  0
ARC
  5
1049
  8
0
 10
161.3988125518912966
 20
37.5781516007396732
 30
0.0
 40
2.9278423803731011
 50
293.8342175962367833
 51
300.4246067308911847
  0
ARC
  5
104A
  8
0
 10
162.8220481347105988
 20
35.6394594220393301
 30
0.0
 40
0.5889819693674631
 50
275.7917457306425035
 51
287.5858607783071079
  0
ARC
  5
104B
  8
0
 10
156.0437907034070975
 20
37.8103865327055075
 30
0.0
 40
7.4736045857392988
 50
338.5552131491496084
 51
339.1122737478269755
  0
ARC
  5
104C
  8
0
 10
161.7798940265867031
 20
36.9634529521151833
 30
0.0
 40
2.2039429663954602
 50
304.4374210253519095
 51
310.9953999666598179
  0
ARC
  5
104D
  8
0
 10
162.3102266793474939
 20
35.2346969559158083
 30
0.0
 40
0.9177767016662985
 50
4.0802443454591479
 51
22.5108408544081904
  0
ARC
  5
104E
  8
0
 10
159.3994301400302049
 20
36.4533533848634903
 30
0.0
 40
3.857406490808216
 50
347.0068535709323214
 51
349.8750096402237091
  0
ARC
  5
104F
  8
0
 10
162.0753544403945909
 20
37.1119140592172201
 30
0.0
 40
1.7447825361020479
 50
309.9950554820352977
 51
324.5518684203826751
  0
ARC
  5
1050
  8
0
 10
162.2706822529939075
 20
35.6193034424687767
 30
0.0
 40
1.3169098383604461
 50
21.4087260756499305
 51
41.2865353645375492
  0
ARC
  5
1051
  8
0
 10
159.0419507635000116
 20
36.5
 30
0.0
 40
4.2182992564172483
 50
359.8401807577998284
 51
0.1598192422002015
  0
ARC
  5
1052
  8
0
 10
162.2706766072433027
 20
37.3806999968528686
 30
0.0
 40
1.3169163499723631
 50
318.7135142736706825
 51
338.5912242733210178
  0
ARC
  5
1053
  8
0
 10
162.0748665264013084
 20
35.8876352885176573
 30
0.0
 40
1.7454413756807381
 50
35.4508937644759925
 51
50.0021823155224183
  0
ARC
  5
1054
  8
0
 10
159.5631011442926024
 20
36.5801216133877176
 30
0.0
 40
3.6904019946991191
 50
10.0600784738990505
 51
13.05805831494453
  0
ARC
  5
1055
  8
0
 10
162.3121179118950863
 20
37.764856131126912
 30
0.0
 40
0.9158585161270378
 50
337.4696898037857977
 51
355.9392249873765763
  0
ARC
  5
1056
  8
0
 10
161.7844063109795911
 20
36.0423818082057323
 30
0.0
 40
2.1965790985859561
 50
48.9935953693827315
 51
55.5735836026485828
  0
ARC
  5
1057
  8
0
 10
159.5048870873457929
 20
36.5297397938410597
 30
0.0
 40
3.7622059166363688
 50
20.6129509843648506
 51
21.7195621186635393
  0
ARC
  5
1058
  8
0
 10
162.8216923178692923
 20
37.3588207110423411
 30
0.0
 40
0.5907289909999788
 50
72.4316407443801609
 51
84.1907527466130148
  0
ARC
  5
1059
  8
0
 10
161.4229430701005867
 20
35.4689439337460897
 30
0.0
 40
2.8750138917413679
 50
59.5147752561148522
 51
66.2264004470985981
  0
ARC
  5
105A
  8
0
 10
161.9583709311768871
 20
38.247278530758841
 30
0.0
 40
0.6407151338421445
 50
346.7108259170248061
 51
23.2308379890622696
  0
ARC
  5
105B
  8
0
 10
161.2234396266981946
 20
35.6161449743793028
 30
0.0
 40
3.1731371891657658
 50
65.3447156943777259
 51
71.9715615007311698
  0
ARC
  5
105C
  8
0
 10
161.0590641453999865
 20
35.0841657601000065
 30
0.0
 40
3.729927795890128
 50
72.100702543389005
 51
82.3869131374014643
  0
ARC
  5
105D
  8
0
 10
160.1157559132799122
 20
37.3614231161124195
 30
0.0
 40
2.020420701255762
 50
44.6457283609754683
 51
50.5331241932222923
  0
ARC
  5
105E
  8
0
 10
162.0202039167737098
 20
37.6519380723291306
 30
0.0
 40
1.412659884901583
 50
116.0421813747733069
 51
124.7394523275703051
  0
ARC
  5
105F
  8
0
 10
161.0000000000003979
 20
34.9439335547869376
 30
0.0
 40
3.8748412137616302
 50
86.8161931335219634
 51
93.1838068664910821
  0
ARC
  5
1060
  8
0
 10
160.0685275406630126
 20
37.8032327328228135
 30
0.0
 40
1.237841441612457
 50
54.6449512514465283
 51
64.5734150462258896
  0
LINE
  5
1061
  8
0
 10
159.2719999999999914
 20
37.2999999999999972
 30
0.0
 11
159.5279999999999916
 21
37.2999999999999972
 31
0.0
  0
LINE
  5
1062
  8
0
 10
159.7999999999998977
 20
37.0280000000000129
 30
0.0
 11
159.5279999999999916
 21
37.2999999999999972
 31
0.0
  0
LINE
  5
1063
  8
0
 10
160.0720000000000027
 20
37.2999999999999972
 30
0.0
 11
159.7999999999998977
 21
37.0280000000000129
 31
0.0
  0
LINE
  5
1064
  8
0
 10
160.0720000000000027
 20
37.2999999999999972
 30
0.0
 11
160.3279999999998893
 21
37.2999999999999972
 31
0.0
  0
LINE
  5
1065
  8
0
 10
160.5999999999999943
 20
37.0280000000000129
 30
0.0
 11
160.3279999999998893
 21
37.2999999999999972
 31
0.0
  0
LINE
  5
1066
  8
0
 10
160.8719999999999004
 20
37.2999999999999972
 30
0.0
 11
160.5999999999999943
 21
37.0280000000000129
 31
0.0
  0
LINE
  5
1067
  8
0
 10
160.8719999999999004
 20
37.2999999999999972
 30
0.0
 11
161.1279999999999859
 21
37.2999999999999972
 31
0.0
  0
LINE
  5
1068
  8
0
 10
161.4000000000000057
 20
37.0280000000000129
 30
0.0
 11
161.1279999999999859
 21
37.2999999999999972
 31
0.0
  0
LINE
  5
1069
  8
0
 10
161.671999999999997
 20
37.2999999999999972
 30
0.0
 11
161.4000000000000057
 21
37.0280000000000129
 31
0.0
  0
LINE
  5
106A
  8
0
 10
161.671999999999997
 20
37.2999999999999972
 30
0.0
 11
161.9279999999999973
 21
37.2999999999999972
 31
0.0
  0
LINE
  5
106B
  8
0
 10
162.1999999999999886
 20
37.0280000000000129
 30
0.0
 11
161.9279999999999973
 21
37.2999999999999972
 31
0.0
  0
LINE
  5
106C
  8
0
 10
162.4720000000000084
 20
37.2999999999999972
 30
0.0
 11
162.1999999999999886
 21
37.0280000000000129
 31
0.0
  0
LINE
  5
106D
  8
0
 10
162.4720000000000084
 20
37.2999999999999972
 30
0.0
 11
162.727999999999895
 21
37.2999999999999972
 31
0.0
  0
LINE
  5
106E
  8
0
 10
163.0
 20
37.0280000000000129
 30
0.0
 11
162.727999999999895
 21
37.2999999999999972
 31
0.0
  0
LINE
  5
106F
  8
0
 10
163.1967636875999119
 20
37.2247636876000101
 30
0.0
 11
163.0
 21
37.0280000000000129
 31
0.0
  0
LINE
  5
1070
  8
0
 10
158.5032743783000058
 20
36.9000000000000128
 30
0.0
 11
163.496725621699909
 21
36.9000000000000128
 31
0.0
  0
LINE
  5
1071
  8
0
 10
159.0
 20
37.0280000000000129
 30
0.0
 11
158.8032363124000028
 21
37.2247636876000101
 31
0.0
  0
LINE
  5
1072
  8
0
 10
159.2719999999999914
 20
37.2999999999999972
 30
0.0
 11
159.0
 21
37.0280000000000129
 31
0.0
  0
LINE
  5
1073
  8
0
 10
158.5032743783000058
 20
36.0999999999999872
 30
0.0
 11
163.496725621699909
 21
36.0999999999999872
 31
0.0
  0
LINE
  5
1074
  8
0
 10
163.0
 20
35.9719999999999871
 30
0.0
 11
163.1967636875999119
 21
35.7752363124999988
 31
0.0
  0
LINE
  5
1075
  8
0
 10
162.727999999999895
 20
35.7000000000000028
 30
0.0
 11
163.0
 21
35.9719999999999871
 31
0.0
  0
LINE
  5
1076
  8
0
 10
162.4720000000000084
 20
35.7000000000000028
 30
0.0
 11
162.727999999999895
 21
35.7000000000000028
 31
0.0
  0
LINE
  5
1077
  8
0
 10
162.1999999999999886
 20
35.9719999999999871
 30
0.0
 11
162.4720000000000084
 21
35.7000000000000028
 31
0.0
  0
LINE
  5
1078
  8
0
 10
161.9279999999999973
 20
35.7000000000000028
 30
0.0
 11
162.1999999999999886
 21
35.9719999999999871
 31
0.0
  0
LINE
  5
1079
  8
0
 10
161.671999999999997
 20
35.7000000000000028
 30
0.0
 11
161.9279999999999973
 21
35.7000000000000028
 31
0.0
  0
LINE
  5
107A
  8
0
 10
161.4000000000000057
 20
35.9719999999999871
 30
0.0
 11
161.671999999999997
 21
35.7000000000000028
 31
0.0
  0
LINE
  5
107B
  8
0
 10
161.1279999999999859
 20
35.7000000000000028
 30
0.0
 11
161.4000000000000057
 21
35.9719999999999871
 31
0.0
  0
LINE
  5
107C
  8
0
 10
160.8719999999999004
 20
35.7000000000000028
 30
0.0
 11
161.1279999999999859
 21
35.7000000000000028
 31
0.0
  0
LINE
  5
107D
  8
0
 10
160.5999999999999943
 20
35.9719999999999871
 30
0.0
 11
160.8719999999999004
 21
35.7000000000000028
 31
0.0
  0
LINE
  5
107E
  8
0
 10
160.3279999999998893
 20
35.7000000000000028
 30
0.0
 11
160.5999999999999943
 21
35.9719999999999871
 31
0.0
  0
LINE
  5
107F
  8
0
 10
160.0720000000000027
 20
35.7000000000000028
 30
0.0
 11
160.3279999999998893
 21
35.7000000000000028
 31
0.0
  0
LINE
  5
1080
  8
0
 10
159.7999999999998977
 20
35.9719999999999871
 30
0.0
 11
160.0720000000000027
 21
35.7000000000000028
 31
0.0
  0
LINE
  5
1081
  8
0
 10
159.5279999999999916
 20
35.7000000000000028
 30
0.0
 11
159.7999999999998977
 21
35.9719999999999871
 31
0.0
  0
LINE
  5
1082
  8
0
 10
159.2719999999999914
 20
35.7000000000000028
 30
0.0
 11
159.5279999999999916
 21
35.7000000000000028
 31
0.0
  0
LINE
  5
1083
  8
0
 10
159.0
 20
35.9719999999999871
 30
0.0
 11
159.2719999999999914
 21
35.7000000000000028
 31
0.0
  0
LINE
  5
1084
  8
0
 10
158.8032363124000028
 20
35.7752363124999988
 30
0.0
 11
159.0
 21
35.9719999999999871
 31
0.0
  0
LINE
  5
1085
  8
0
 10
159.2719999999999914
 20
36.5
 30
0.0
 11
159.5279999999999916
 21
36.5
 31
0.0
  0
LINE
  5
1086
  8
0
 10
159.7999999999998977
 20
36.2280000000000015
 30
0.0
 11
159.5279999999999916
 21
36.5
 31
0.0
  0
LINE
  5
1087
  8
0
 10
160.0720000000000027
 20
36.5
 30
0.0
 11
159.7999999999998977
 21
36.2280000000000015
 31
0.0
  0
LINE
  5
1088
  8
0
 10
160.0720000000000027
 20
36.5
 30
0.0
 11
160.3279999999998893
 21
36.5
 31
0.0
  0
LINE
  5
1089
  8
0
 10
160.5999999999999943
 20
36.2280000000000015
 30
0.0
 11
160.3279999999998893
 21
36.5
 31
0.0
  0
LINE
  5
108A
  8
0
 10
160.8719999999999004
 20
36.5
 30
0.0
 11
160.5999999999999943
 21
36.2280000000000015
 31
0.0
  0
LINE
  5
108B
  8
0
 10
160.8719999999999004
 20
36.5
 30
0.0
 11
161.1279999999999859
 21
36.5
 31
0.0
  0
LINE
  5
108C
  8
0
 10
161.4000000000000057
 20
36.2280000000000015
 30
0.0
 11
161.1279999999999859
 21
36.5
 31
0.0
  0
LINE
  5
108D
  8
0
 10
161.671999999999997
 20
36.5
 30
0.0
 11
161.4000000000000057
 21
36.2280000000000015
 31
0.0
  0
LINE
  5
108E
  8
0
 10
161.671999999999997
 20
36.5
 30
0.0
 11
161.9279999999999973
 21
36.5
 31
0.0
  0
LINE
  5
108F
  8
0
 10
162.1999999999999886
 20
36.2280000000000015
 30
0.0
 11
161.9279999999999973
 21
36.5
 31
0.0
  0
LINE
  5
1090
  8
0
 10
162.4720000000000084
 20
36.5
 30
0.0
 11
162.1999999999999886
 21
36.2280000000000015
 31
0.0
  0
LINE
  5
1091
  8
0
 10
162.4720000000000084
 20
36.5
 30
0.0
 11
162.727999999999895
 21
36.5
 31
0.0
  0
LINE
  5
1092
  8
0
 10
163.0
 20
36.2280000000000015
 30
0.0
 11
162.727999999999895
 21
36.5
 31
0.0
  0
LINE
  5
1093
  8
0
 10
163.2602336095000055
 20
36.4882336095000213
 30
0.0
 11
163.0
 21
36.2280000000000015
 31
0.0
  0
LINE
  5
1094
  8
0
 10
159.0
 20
36.2280000000000015
 30
0.0
 11
158.7397663905485956
 21
36.4882336094898818
 31
0.0
  0
LINE
  5
1095
  8
0
 10
159.2719999999999914
 20
36.5
 30
0.0
 11
159.0
 21
36.2280000000000015
 31
0.0
  0
LINE
  5
1096
  8
0
 10
163.0
 20
36.7720000000000127
 30
0.0
 11
163.2602336094550139
 21
36.5117663905294023
 31
0.0
  0
LINE
  5
1097
  8
0
 10
162.727999999999895
 20
36.5
 30
0.0
 11
163.0
 21
36.7720000000000127
 31
0.0
  0
LINE
  5
1098
  8
0
 10
162.1999999999999886
 20
36.7720000000000127
 30
0.0
 11
162.4720000000000084
 21
36.5
 31
0.0
  0
LINE
  5
1099
  8
0
 10
161.9279999999999973
 20
36.5
 30
0.0
 11
162.1999999999999886
 21
36.7720000000000127
 31
0.0
  0
LINE
  5
109A
  8
0
 10
161.4000000000000057
 20
36.7720000000000127
 30
0.0
 11
161.671999999999997
 21
36.5
 31
0.0
  0
LINE
  5
109B
  8
0
 10
161.1279999999999859
 20
36.5
 30
0.0
 11
161.4000000000000057
 21
36.7720000000000127
 31
0.0
  0
LINE
  5
109C
  8
0
 10
160.5999999999999943
 20
36.7720000000000127
 30
0.0
 11
160.8719999999999004
 21
36.5
 31
0.0
  0
LINE
  5
109D
  8
0
 10
160.3279999999998893
 20
36.5
 30
0.0
 11
160.5999999999999943
 21
36.7720000000000127
 31
0.0
  0
LINE
  5
109E
  8
0
 10
159.7999999999998977
 20
36.7720000000000127
 30
0.0
 11
160.0720000000000027
 21
36.5
 31
0.0
  0
LINE
  5
109F
  8
0
 10
159.5279999999999916
 20
36.5
 30
0.0
 11
159.7999999999998977
 21
36.7720000000000127
 31
0.0
  0
LINE
  5
10A0
  8
0
 10
159.0
 20
36.7720000000000127
 30
0.0
 11
159.2719999999999914
 21
36.5
 31
0.0
  0
LINE
  5
10A1
  8
0
 10
158.7397663905485956
 20
36.5117663905101324
 30
0.0
 11
159.0
 21
36.7720000000000127
 31
0.0
  0
LINE
  5
10A2
  8
0
 10
159.452861082499993
 20
38.5
 30
0.0
 11
162.547138917500007
 21
38.5
 31
0.0
  0
LINE
  5
10A3
  8
0
 10
162.4720000000000084
 20
38.1000000000000014
 30
0.0
 11
162.5819292019999125
 21
38.1000000000000014
 31
0.0
  0
LINE
  5
10A4
  8
0
 10
162.1999999999999886
 20
38.3719999999999999
 30
0.0
 11
162.4720000000000084
 21
38.1000000000000014
 31
0.0
  0
LINE
  5
10A5
  8
0
 10
161.9279999999999973
 20
38.1000000000000014
 30
0.0
 11
162.1999999999999886
 21
38.3719999999999999
 31
0.0
  0
LINE
  5
10A6
  8
0
 10
161.671999999999997
 20
38.1000000000000014
 30
0.0
 11
161.9279999999999973
 21
38.1000000000000014
 31
0.0
  0
LINE
  5
10A7
  8
0
 10
161.4000000000000057
 20
38.3719999999999999
 30
0.0
 11
161.671999999999997
 21
38.1000000000000014
 31
0.0
  0
LINE
  5
10A8
  8
0
 10
161.1279999999999859
 20
38.1000000000000014
 30
0.0
 11
161.4000000000000057
 21
38.3719999999999999
 31
0.0
  0
LINE
  5
10A9
  8
0
 10
160.8719999999999004
 20
38.1000000000000014
 30
0.0
 11
161.1279999999999859
 21
38.1000000000000014
 31
0.0
  0
LINE
  5
10AA
  8
0
 10
160.5999999999999943
 20
38.3719999999999999
 30
0.0
 11
160.8719999999999004
 21
38.1000000000000014
 31
0.0
  0
LINE
  5
10AB
  8
0
 10
160.3279999999998893
 20
38.1000000000000014
 30
0.0
 11
160.5999999999999943
 21
38.3719999999999999
 31
0.0
  0
LINE
  5
10AC
  8
0
 10
160.0720000000000027
 20
38.1000000000000014
 30
0.0
 11
160.3279999999998893
 21
38.1000000000000014
 31
0.0
  0
LINE
  5
10AD
  8
0
 10
159.7999999999998977
 20
38.3719999999999999
 30
0.0
 11
160.0720000000000027
 21
38.1000000000000014
 31
0.0
  0
LINE
  5
10AE
  8
0
 10
159.5279999999999916
 20
38.1000000000000014
 30
0.0
 11
159.7999999999998977
 21
38.3719999999999999
 31
0.0
  0
LINE
  5
10AF
  8
0
 10
159.4180707980999046
 20
38.1000000000000014
 30
0.0
 11
159.5279999999999916
 21
38.1000000000000014
 31
0.0
  0
LINE
  5
10B0
  8
0
 10
163.0
 20
35.4279999999999973
 30
0.0
 11
163.0
 21
35.9719999999999871
 31
0.0
  0
LINE
  5
10B1
  8
0
 10
163.0
 20
35.4279999999999973
 30
0.0
 11
162.727999999999895
 21
35.7000000000000028
 31
0.0
  0
LINE
  5
10B2
  8
0
 10
163.0
 20
36.2280000000000015
 30
0.0
 11
163.0
 21
36.7720000000000127
 31
0.0
  0
LINE
  5
10B3
  8
0
 10
158.7743228379000016
 20
35.2999999999999972
 30
0.0
 11
163.225677162199986
 21
35.2999999999999972
 31
0.0
  0
LINE
  5
10B4
  8
0
 10
163.0
 20
35.171999999999997
 30
0.0
 11
163.0262365153000133
 21
35.145763484699998
 31
0.0
  0
LINE
  5
10B5
  8
0
 10
162.8814840541998876
 20
35.0534840541999984
 30
0.0
 11
163.0
 21
35.171999999999997
 31
0.0
  0
LINE
  5
10B6
  8
0
 10
162.4720000000000084
 20
34.9000000000000128
 30
0.0
 11
162.5819292019999125
 21
34.9000000000000128
 31
0.0
  0
LINE
  5
10B7
  8
0
 10
162.1999999999999886
 20
35.171999999999997
 30
0.0
 11
162.4720000000000084
 21
34.9000000000000128
 31
0.0
  0
LINE
  5
10B8
  8
0
 10
161.9279999999999973
 20
34.9000000000000128
 30
0.0
 11
162.1999999999999886
 21
35.171999999999997
 31
0.0
  0
LINE
  5
10B9
  8
0
 10
161.671999999999997
 20
34.9000000000000128
 30
0.0
 11
161.9279999999999973
 21
34.9000000000000128
 31
0.0
  0
LINE
  5
10BA
  8
0
 10
161.4000000000000057
 20
35.171999999999997
 30
0.0
 11
161.671999999999997
 21
34.9000000000000128
 31
0.0
  0
LINE
  5
10BB
  8
0
 10
161.1279999999999859
 20
34.9000000000000128
 30
0.0
 11
161.4000000000000057
 21
35.171999999999997
 31
0.0
  0
LINE
  5
10BC
  8
0
 10
160.8719999999999004
 20
34.9000000000000128
 30
0.0
 11
161.1279999999999859
 21
34.9000000000000128
 31
0.0
  0
LINE
  5
10BD
  8
0
 10
160.5999999999999943
 20
35.171999999999997
 30
0.0
 11
160.8719999999999004
 21
34.9000000000000128
 31
0.0
  0
LINE
  5
10BE
  8
0
 10
160.3279999999998893
 20
34.9000000000000128
 30
0.0
 11
160.5999999999999943
 21
35.171999999999997
 31
0.0
  0
LINE
  5
10BF
  8
0
 10
160.0720000000000027
 20
34.9000000000000128
 30
0.0
 11
160.3279999999998893
 21
34.9000000000000128
 31
0.0
  0
LINE
  5
10C0
  8
0
 10
159.7999999999998977
 20
35.171999999999997
 30
0.0
 11
160.0720000000000027
 21
34.9000000000000128
 31
0.0
  0
LINE
  5
10C1
  8
0
 10
159.5279999999999916
 20
34.9000000000000128
 30
0.0
 11
159.7999999999998977
 21
35.171999999999997
 31
0.0
  0
LINE
  5
10C2
  8
0
 10
159.4180707980999046
 20
34.9000000000000128
 30
0.0
 11
159.5279999999999916
 21
34.9000000000000128
 31
0.0
  0
LINE
  5
10C3
  8
0
 10
159.0
 20
35.171999999999997
 30
0.0
 11
159.1185159457999987
 21
35.0534840541999984
 31
0.0
  0
LINE
  5
10C4
  8
0
 10
158.9737634846999867
 20
35.145763484699998
 30
0.0
 11
159.0
 21
35.171999999999997
 31
0.0
  0
LINE
  5
10C5
  8
0
 10
159.7999999999998977
 20
35.4279999999999973
 30
0.0
 11
159.5279999999999916
 21
35.7000000000000028
 31
0.0
  0
LINE
  5
10C6
  8
0
 10
160.0720000000000027
 20
35.7000000000000028
 30
0.0
 11
159.7999999999998977
 21
35.4279999999999973
 31
0.0
  0
LINE
  5
10C7
  8
0
 10
160.5999999999999943
 20
35.4279999999999973
 30
0.0
 11
160.3279999999998893
 21
35.7000000000000028
 31
0.0
  0
LINE
  5
10C8
  8
0
 10
160.8719999999999004
 20
35.7000000000000028
 30
0.0
 11
160.5999999999999943
 21
35.4279999999999973
 31
0.0
  0
LINE
  5
10C9
  8
0
 10
161.4000000000000057
 20
35.4279999999999973
 30
0.0
 11
161.1279999999999859
 21
35.7000000000000028
 31
0.0
  0
LINE
  5
10CA
  8
0
 10
161.671999999999997
 20
35.7000000000000028
 30
0.0
 11
161.4000000000000057
 21
35.4279999999999973
 31
0.0
  0
LINE
  5
10CB
  8
0
 10
162.1999999999999886
 20
35.4279999999999973
 30
0.0
 11
161.9279999999999973
 21
35.7000000000000028
 31
0.0
  0
LINE
  5
10CC
  8
0
 10
162.4720000000000084
 20
35.7000000000000028
 30
0.0
 11
162.1999999999999886
 21
35.4279999999999973
 31
0.0
  0
LINE
  5
10CD
  8
0
 10
163.158075320800009
 20
35.5860753208000133
 30
0.0
 11
163.0
 21
35.4279999999999973
 31
0.0
  0
LINE
  5
10CE
  8
0
 10
159.0
 20
35.4279999999999973
 30
0.0
 11
158.8419246792998933
 21
35.5860753208000133
 31
0.0
  0
LINE
  5
10CF
  8
0
 10
159.2719999999999914
 20
35.7000000000000028
 30
0.0
 11
159.0
 21
35.4279999999999973
 31
0.0
  0
LINE
  5
10D0
  8
0
 10
158.7743228379000016
 20
37.7000000000000028
 30
0.0
 11
163.225677162199986
 21
37.7000000000000028
 31
0.0
  0
LINE
  5
10D1
  8
0
 10
163.0
 20
37.5720000000000027
 30
0.0
 11
163.158075320800009
 21
37.4139246793000098
 31
0.0
  0
LINE
  5
10D2
  8
0
 10
162.727999999999895
 20
37.2999999999999972
 30
0.0
 11
163.0
 21
37.5720000000000027
 31
0.0
  0
LINE
  5
10D3
  8
0
 10
162.1999999999999886
 20
37.5720000000000027
 30
0.0
 11
162.4720000000000084
 21
37.2999999999999972
 31
0.0
  0
LINE
  5
10D4
  8
0
 10
161.9279999999999973
 20
37.2999999999999972
 30
0.0
 11
162.1999999999999886
 21
37.5720000000000027
 31
0.0
  0
LINE
  5
10D5
  8
0
 10
161.4000000000000057
 20
37.5720000000000027
 30
0.0
 11
161.671999999999997
 21
37.2999999999999972
 31
0.0
  0
LINE
  5
10D6
  8
0
 10
161.1279999999999859
 20
37.2999999999999972
 30
0.0
 11
161.4000000000000057
 21
37.5720000000000027
 31
0.0
  0
LINE
  5
10D7
  8
0
 10
160.5999999999999943
 20
37.5720000000000027
 30
0.0
 11
160.8719999999999004
 21
37.2999999999999972
 31
0.0
  0
LINE
  5
10D8
  8
0
 10
160.3279999999998893
 20
37.2999999999999972
 30
0.0
 11
160.5999999999999943
 21
37.5720000000000027
 31
0.0
  0
LINE
  5
10D9
  8
0
 10
159.7999999999998977
 20
37.5720000000000027
 30
0.0
 11
160.0720000000000027
 21
37.2999999999999972
 31
0.0
  0
LINE
  5
10DA
  8
0
 10
159.5279999999999916
 20
37.2999999999999972
 30
0.0
 11
159.7999999999998977
 21
37.5720000000000027
 31
0.0
  0
LINE
  5
10DB
  8
0
 10
159.0
 20
37.5720000000000027
 30
0.0
 11
159.2719999999999914
 21
37.2999999999999972
 31
0.0
  0
LINE
  5
10DC
  8
0
 10
158.8419246792998933
 20
37.4139246793000098
 30
0.0
 11
159.0
 21
37.5720000000000027
 31
0.0
  0
LINE
  5
10DD
  8
0
 10
160.5999999999999943
 20
34.6280000000000001
 30
0.0
 11
160.3279999999998893
 21
34.9000000000000128
 31
0.0
  0
LINE
  5
10DE
  8
0
 10
160.8719999999999004
 20
34.9000000000000128
 30
0.0
 11
160.5999999999999943
 21
34.6280000000000001
 31
0.0
  0
LINE
  5
10DF
  8
0
 10
161.4000000000000057
 20
34.6280000000000001
 30
0.0
 11
161.1279999999999859
 21
34.9000000000000128
 31
0.0
  0
LINE
  5
10E0
  8
0
 10
161.671999999999997
 20
34.9000000000000128
 30
0.0
 11
161.4000000000000057
 21
34.6280000000000001
 31
0.0
  0
LINE
  5
10E1
  8
0
 10
162.1999999999999886
 20
34.6280000000000001
 30
0.0
 11
161.9279999999999973
 21
34.9000000000000128
 31
0.0
  0
LINE
  5
10E2
  8
0
 10
162.4720000000000084
 20
34.9000000000000128
 30
0.0
 11
162.1999999999999886
 21
34.6280000000000001
 31
0.0
  0
LINE
  5
10E3
  8
0
 10
159.452861082499993
 20
34.5
 30
0.0
 11
162.547138917500007
 21
34.5
 31
0.0
  0
LINE
  5
10E4
  8
0
 10
159.7999999999998977
 20
34.6280000000000001
 30
0.0
 11
159.5279999999999916
 21
34.9000000000000128
 31
0.0
  0
LINE
  5
10E5
  8
0
 10
160.0720000000000027
 20
34.9000000000000128
 30
0.0
 11
159.7999999999998977
 21
34.6280000000000001
 31
0.0
  0
LINE
  5
10E6
  8
0
 10
159.7999999999998977
 20
37.828000000000003
 30
0.0
 11
159.5279999999999916
 21
38.1000000000000014
 31
0.0
  0
LINE
  5
10E7
  8
0
 10
160.0720000000000027
 20
38.1000000000000014
 30
0.0
 11
159.7999999999998977
 21
37.828000000000003
 31
0.0
  0
LINE
  5
10E8
  8
0
 10
160.5999999999999943
 20
37.828000000000003
 30
0.0
 11
160.3279999999998893
 21
38.1000000000000014
 31
0.0
  0
LINE
  5
10E9
  8
0
 10
160.8719999999999004
 20
38.1000000000000014
 30
0.0
 11
160.5999999999999943
 21
37.828000000000003
 31
0.0
  0
LINE
  5
10EA
  8
0
 10
161.4000000000000057
 20
37.828000000000003
 30
0.0
 11
161.1279999999999859
 21
38.1000000000000014
 31
0.0
  0
LINE
  5
10EB
  8
0
 10
161.671999999999997
 20
38.1000000000000014
 30
0.0
 11
161.4000000000000057
 21
37.828000000000003
 31
0.0
  0
LINE
  5
10EC
  8
0
 10
162.1999999999999886
 20
37.828000000000003
 30
0.0
 11
161.9279999999999973
 21
38.1000000000000014
 31
0.0
  0
LINE
  5
10ED
  8
0
 10
162.4720000000000084
 20
38.1000000000000014
 30
0.0
 11
162.1999999999999886
 21
37.828000000000003
 31
0.0
  0
LINE
  5
10EE
  8
0
 10
163.0
 20
37.828000000000003
 30
0.0
 11
162.8814840541998876
 21
37.9465159459000034
 31
0.0
  0
LINE
  5
10EF
  8
0
 10
163.0262365153000133
 20
37.8542365153999967
 30
0.0
 11
163.0
 21
37.828000000000003
 31
0.0
  0
LINE
  5
10F0
  8
0
 10
159.0
 20
37.828000000000003
 30
0.0
 11
158.9737634846999867
 21
37.8542365153999967
 31
0.0
  0
LINE
  5
10F1
  8
0
 10
159.1185159457999987
 20
37.9465159459000034
 30
0.0
 11
159.0
 21
37.828000000000003
 31
0.0
  0
LINE
  5
10F2
  8
0
 10
163.0
 20
37.0280000000000129
 30
0.0
 11
163.0
 21
37.5720000000000027
 31
0.0
  0
LINE
  5
10F3
  8
0
 10
161.4000000000000057
 20
35.4279999999999973
 30
0.0
 11
161.4000000000000057
 21
35.9719999999999871
 31
0.0
  0
LINE
  5
10F4
  8
0
 10
161.4000000000000057
 20
34.6280000000000001
 30
0.0
 11
161.4000000000000057
 21
35.171999999999997
 31
0.0
  0
LINE
  5
10F5
  8
0
 10
162.1999999999999886
 20
34.6280000000000001
 30
0.0
 11
162.1999999999999886
 21
35.171999999999997
 31
0.0
  0
LINE
  5
10F6
  8
0
 10
162.1999999999999886
 20
37.0280000000000129
 30
0.0
 11
162.1999999999999886
 21
37.5720000000000027
 31
0.0
  0
LINE
  5
10F7
  8
0
 10
161.4000000000000057
 20
37.0280000000000129
 30
0.0
 11
161.4000000000000057
 21
37.5720000000000027
 31
0.0
  0
LINE
  5
10F8
  8
0
 10
161.4000000000000057
 20
36.2280000000000015
 30
0.0
 11
161.4000000000000057
 21
36.7720000000000127
 31
0.0
  0
LINE
  5
10F9
  8
0
 10
162.1999999999999886
 20
35.4279999999999973
 30
0.0
 11
162.1999999999999886
 21
35.9719999999999871
 31
0.0
  0
LINE
  5
10FA
  8
0
 10
161.4000000000000057
 20
37.828000000000003
 30
0.0
 11
161.4000000000000057
 21
38.3719999999999999
 31
0.0
  0
LINE
  5
10FB
  8
0
 10
162.1999999999999886
 20
37.828000000000003
 30
0.0
 11
162.1999999999999886
 21
38.3719999999999999
 31
0.0
  0
LINE
  5
10FC
  8
0
 10
162.1999999999999886
 20
36.2280000000000015
 30
0.0
 11
162.1999999999999886
 21
36.7720000000000127
 31
0.0
  0
LINE
  5
10FD
  8
0
 10
160.5999999999999943
 20
34.6280000000000001
 30
0.0
 11
160.5999999999999943
 21
35.171999999999997
 31
0.0
  0
LINE
  5
10FE
  8
0
 10
160.5999999999999943
 20
36.2280000000000015
 30
0.0
 11
160.5999999999999943
 21
36.7720000000000127
 31
0.0
  0
LINE
  5
10FF
  8
0
 10
160.5999999999999943
 20
37.0280000000000129
 30
0.0
 11
160.5999999999999943
 21
37.5720000000000027
 31
0.0
  0
LINE
  5
1100
  8
0
 10
160.5999999999999943
 20
37.828000000000003
 30
0.0
 11
160.5999999999999943
 21
38.3719999999999999
 31
0.0
  0
LINE
  5
1101
  8
0
 10
160.5999999999999943
 20
35.4279999999999973
 30
0.0
 11
160.5999999999999943
 21
35.9719999999999871
 31
0.0
  0
LINE
  5
1102
  8
0
 10
159.7999999999998977
 20
34.6280000000000001
 30
0.0
 11
159.7999999999998977
 21
35.171999999999997
 31
0.0
  0
LINE
  5
1103
  8
0
 10
159.7999999999998977
 20
37.0280000000000129
 30
0.0
 11
159.7999999999998977
 21
37.5720000000000027
 31
0.0
  0
LINE
  5
1104
  8
0
 10
159.7999999999998977
 20
37.828000000000003
 30
0.0
 11
159.7999999999998977
 21
38.3719999999999999
 31
0.0
  0
LINE
  5
1105
  8
0
 10
159.7999999999998977
 20
36.2280000000000015
 30
0.0
 11
159.7999999999998977
 21
36.7720000000000127
 31
0.0
  0
LINE
  5
1106
  8
0
 10
159.7999999999998977
 20
35.4279999999999973
 30
0.0
 11
159.7999999999998977
 21
35.9719999999999871
 31
0.0
  0
LINE
  5
1107
  8
0
 10
159.0
 20
36.2280000000000015
 30
0.0
 11
159.0
 21
36.7720000000000127
 31
0.0
  0
LINE
  5
1108
  8
0
 10
159.0
 20
37.0280000000000129
 30
0.0
 11
159.0
 21
37.5720000000000027
 31
0.0
  0
LINE
  5
1109
  8
0
 10
159.0
 20
35.4279999999999973
 30
0.0
 11
159.0
 21
35.9719999999999871
 31
0.0
  0
LINE
  5
110A
  8
0
 10
160.5999999999999943
 20
38.6280000000000001
 30
0.0
 11
160.4467846166932929
 21
38.7812153833297018
 31
0.0
  0
LINE
  5
110B
  8
0
 10
160.7847939540806124
 20
38.8127939541378026
 30
0.0
 11
160.5999999999999943
 21
38.6280000000000001
 31
0.0
  0
LINE
  5
110C
  8
0
 10
161.4000000000000057
 20
38.6280000000000001
 30
0.0
 11
161.2152060459999916
 21
38.8127939541000018
 31
0.0
  0
LINE
  5
110D
  8
0
 10
161.5532153832998858
 20
38.7812153834000028
 30
0.0
 11
161.4000000000000057
 21
38.6280000000000001
 31
0.0
  0
LINE
  5
110E
  8
0
 10
161.4000000000000057
 20
34.3719999999999999
 30
0.0
 11
161.5532153832998858
 21
34.2187846167000131
 31
0.0
  0
LINE
  5
110F
  8
0
 10
161.2152060459999916
 20
34.187206046
 30
0.0
 11
161.4000000000000057
 21
34.3719999999999999
 31
0.0
  0
LINE
  5
1110
  8
0
 10
160.5999999999999943
 20
34.3719999999999999
 30
0.0
 11
160.784793954099996
 21
34.187206046
 31
0.0
  0
LINE
  5
1111
  8
0
 10
160.4467846167000005
 20
34.2187846167000131
 30
0.0
 11
160.5999999999999943
 21
34.3719999999999999
 31
0.0
  0
LINE
  5
1112
  8
0
 10
161.4000000000000057
 20
34.0788278863000116
 30
0.0
 11
161.4000000000000057
 21
34.3719999999999999
 31
0.0
  0
LINE
  5
1113
  8
0
 10
160.5999999999999943
 20
38.6280000000000001
 30
0.0
 11
160.5999999999999943
 21
38.9211721138000115
 31
0.0
  0
LINE
  5
1114
  8
0
 10
160.5999999999999943
 20
34.0788278863000116
 30
0.0
 11
160.5999999999999943
 21
34.3719999999999999
 31
0.0
  0
LINE
  5
1115
  8
0
 10
161.4000000000000057
 20
38.6280000000000001
 30
0.0
 11
161.4000000000000057
 21
38.9211721138000115
 31
0.0
  0
LINE
  5
1116
  8
0
 10
163.0
 20
35.0780033739999908
 30
0.0
 11
163.0
 21
35.171999999999997
 31
0.0
  0
LINE
  5
1117
  8
0
 10
163.0
 20
37.828000000000003
 30
0.0
 11
163.0
 21
37.921996626100011
 31
0.0
  0
LINE
  5
1118
  8
0
 10
159.0
 20
37.828000000000003
 30
0.0
 11
159.0
 21
37.921996626100011
 31
0.0
  0
LINE
  5
1119
  8
0
 10
159.0
 20
35.0780033739999908
 30
0.0
 11
159.0
 21
35.171999999999997
 31
0.0
  0
ARC
  5
111A
  8
0
 10
122.9188611698999978
 20
36.4999999999999929
 30
0.0
 40
2.7500000000000009
 50
293.1501078002197005
 51
302.537443145298198
  0
ARC
  5
111B
  8
0
 10
122.9188611698999978
 20
36.4999999999999929
 30
0.0
 40
2.7500000000000142
 50
57.4625568547017807
 51
66.8498922001008395
  0
LINE
  5
111C
  8
0
 10
124.173430327600002
 20
38.6387442620999906
 30
0.0
 11
124.3515192291000062
 21
38.7812153833999815
 31
0.0
  0
LINE
  5
111D
  8
0
 10
124.0
 20
38.4999999999999929
 30
0.0
 11
124.1668633878999941
 21
38.6334907103999967
 31
0.0
  0
LINE
  5
111E
  8
0
 10
124.5
 20
38.0999999999999801
 30
0.0
 11
124.0
 21
38.4999999999999929
 31
0.0
  0
LINE
  5
111F
  8
0
 10
124.3081449322999958
 20
37.9465159458999892
 30
0.0
 11
124.5
 21
38.0999999999999801
 31
0.0
  0
LINE
  5
1120
  8
0
 10
124.0
 20
37.6999999999999886
 30
0.0
 11
124.1927956441000021
 21
37.8542365153999896
 31
0.0
  0
LINE
  5
1121
  8
0
 10
124.3575941508999989
 20
37.4139246793000027
 30
0.0
 11
124.0
 21
37.6999999999999886
 31
0.0
  0
LINE
  5
1122
  8
0
 10
124.0
 20
36.8999999999999915
 30
0.0
 11
124.5
 21
37.2999999999999901
 31
0.0
  0
LINE
  5
1123
  8
0
 10
124.4852920119000004
 20
36.5117663905999876
 30
0.0
 11
124.0
 21
36.8999999999999915
 31
0.0
  0
LINE
  5
1124
  8
0
 10
124.0
 20
36.0999999999999801
 30
0.0
 11
124.4852920119000004
 21
36.4882336094999999
 31
0.0
  0
LINE
  5
1125
  8
0
 10
124.4059546095000002
 20
35.7752363124999917
 30
0.0
 11
124.0
 21
36.0999999999999801
 31
0.0
  0
LINE
  5
1126
  8
0
 10
124.0
 20
35.2999999999999829
 30
0.0
 11
124.3575941508999989
 21
35.586075320799992
 31
0.0
  0
LINE
  5
1127
  8
0
 10
124.1927956441000021
 20
35.1457634846999909
 30
0.0
 11
124.0
 21
35.2999999999999829
 31
0.0
  0
LINE
  5
1128
  8
0
 10
124.5
 20
34.8999999999999915
 30
0.0
 11
124.3081449322999958
 21
35.0534840541999912
 31
0.0
  0
LINE
  5
1129
  8
0
 10
124.0
 20
34.4999999999999929
 30
0.0
 11
124.5
 21
34.8999999999999915
 31
0.0
  0
LINE
  5
112A
  8
0
 10
124.1668633878999941
 20
34.3665092896999909
 30
0.0
 11
124.0
 21
34.4999999999999929
 31
0.0
  0
LINE
  5
112B
  8
0
 10
124.3515192291000062
 20
34.2187846166999918
 30
0.0
 11
124.173430327600002
 21
34.3612557379999828
 31
0.0
  0
LINE
  5
112C
  8
0
 10
124.3979504713889952
 20
34.1816396228755295
 30
0.0
 11
124.3909924425999947
 21
34.1872060459999929
 31
0.0
  0
LINE
  5
112D
  8
0
 10
124.3909924425999947
 20
38.8127939540999876
 30
0.0
 11
124.3979504713890947
 21
38.8183603771244634
 31
0.0
  0
LINE
  5
112E
  8
0
 10
124.5
 20
36.4999999999999929
 30
0.0
 11
124.4852920119000004
 21
36.4882336094999999
 31
0.0
  0
LINE
  5
112F
  8
0
 10
124.4852920119000004
 20
36.5117663905999876
 30
0.0
 11
124.5
 21
36.4999999999999929
 31
0.0
  0
LINE
  5
1130
  8
0
 10
124.1927956441000021
 20
35.1457634846999909
 30
0.0
 11
124.3081449322999958
 21
35.0534840541999912
 31
0.0
  0
LINE
  5
1131
  8
0
 10
124.3081449322999958
 20
37.9465159458999892
 30
0.0
 11
124.1927956441000021
 21
37.8542365153999896
 31
0.0
  0
LINE
  5
1132
  8
0
 10
124.5
 20
35.6999999999999886
 30
0.0
 11
124.3575941508999989
 21
35.586075320799992
 31
0.0
  0
LINE
  5
1133
  8
0
 10
124.4059546095000002
 20
35.7752363124999917
 30
0.0
 11
124.5
 21
35.6999999999999886
 31
0.0
  0
LINE
  5
1134
  8
0
 10
124.3575941508999989
 20
37.4139246793000027
 30
0.0
 11
124.5
 21
37.2999999999999901
 31
0.0
  0
LINE
  5
1135
  8
0
 10
124.1668633878999941
 20
34.3665092896999909
 30
0.0
 11
124.173430327600002
 21
34.3612557379999828
 31
0.0
  0
LINE
  5
1136
  8
0
 10
124.173430327600002
 20
38.6387442620999906
 30
0.0
 11
124.1668633878999941
 21
38.6334907103999967
 31
0.0
  0
LINE
  5
1137
  8
0
 10
124.3909924425999947
 20
38.8127939540999876
 30
0.0
 11
124.3515192291000062
 21
38.7812153833999815
 31
0.0
  0
LINE
  5
1138
  8
0
 10
124.3515192291000062
 20
34.2187846166999918
 30
0.0
 11
124.3909924425999947
 21
34.1872060459999929
 31
0.0
  0
ARC
  5
1139
  8
0
 10
122.9188611698999978
 20
79.4999999999999716
 30
0.0
 40
2.7499999999999951
 50
55.2763609506990505
 51
66.8498922001008395
  0
ARC
  5
113A
  8
0
 10
122.9188611698999978
 20
79.4999999999999716
 30
0.0
 40
2.75
 50
293.1501077998992173
 51
304.7236390493008003
  0
LINE
  5
113B
  8
0
 10
124.3515192291000062
 20
78.946784616699972
 30
0.0
 11
124.1599999999999966
 21
79.0999999999999801
 31
0.0
  0
LINE
  5
113C
  8
0
 10
124.1599999999999966
 20
78.2999999999999687
 30
0.0
 11
124.173430327600002
 21
78.3107442619999858
 31
0.0
  0
LINE
  5
113D
  8
0
 10
124.1668633878999941
 20
78.2945092895999863
 30
0.0
 11
124.1599999999999966
 21
78.2999999999999687
 31
0.0
  0
LINE
  5
113E
  8
0
 10
124.1599999999999966
 20
77.4999999999999716
 30
0.0
 11
124.3081449322999958
 21
77.6185159457999703
 31
0.0
  0
LINE
  5
113F
  8
0
 10
124.1927956441000021
 20
77.473763484599985
 30
0.0
 11
124.1599999999999966
 21
77.4999999999999716
 31
0.0
  0
LINE
  5
1140
  8
0
 10
124.4059546095000002
 20
77.3032363123999744
 30
0.0
 11
124.3575941508999989
 21
77.3419246791999768
 31
0.0
  0
LINE
  5
1141
  8
0
 10
124.3575941508999989
 20
81.6580753206999645
 30
0.0
 11
124.4059546095000002
 21
81.6967636874999812
 31
0.0
  0
LINE
  5
1142
  8
0
 10
124.1599999999999966
 20
81.4999999999999574
 30
0.0
 11
124.1927956441000021
 21
81.5262365152999848
 31
0.0
  0
LINE
  5
1143
  8
0
 10
124.3081449322999958
 20
81.3814840540999853
 30
0.0
 11
124.1599999999999966
 21
81.4999999999999574
 31
0.0
  0
LINE
  5
1144
  8
0
 10
124.1599999999999966
 20
80.6999999999999744
 30
0.0
 11
124.1668633878999941
 21
80.7054907102999834
 31
0.0
  0
LINE
  5
1145
  8
0
 10
124.173430327600002
 20
80.689255737899984
 30
0.0
 11
124.1599999999999966
 21
80.6999999999999744
 31
0.0
  0
LINE
  5
1146
  8
0
 10
124.1599999999999966
 20
79.8999999999999773
 30
0.0
 11
124.3515192291000062
 21
80.0532153832999711
 31
0.0
  0
LINE
  5
1147
  8
0
 10
124.3909924425999947
 20
79.7152060458999756
 30
0.0
 11
124.1599999999999966
 21
79.8999999999999773
 31
0.0
  0
LINE
  5
1148
  8
0
 10
124.1599999999999966
 20
79.0999999999999801
 30
0.0
 11
124.3909924425999947
 21
79.2847939539999942
 31
0.0
  0
LINE
  5
1149
  8
0
 10
124.5
 20
80.9719999999999942
 30
0.0
 11
124.5
 21
81.2279999999999802
 31
0.0
  0
LINE
  5
114A
  8
0
 10
124.1668633878999941
 20
80.7054907102999834
 30
0.0
 11
124.5
 21
80.9719999999999942
 31
0.0
  0
LINE
  5
114B
  8
0
 10
124.5
 20
80.4279999999999688
 30
0.0
 11
124.173430327600002
 21
80.689255737899984
 31
0.0
  0
LINE
  5
114C
  8
0
 10
124.5
 20
80.1719999999999686
 30
0.0
 11
124.5
 21
80.4279999999999688
 31
0.0
  0
LINE
  5
114D
  8
0
 10
124.3515192291000062
 20
80.0532153832999711
 30
0.0
 11
124.5
 21
80.1719999999999686
 31
0.0
  0
LINE
  5
114E
  8
0
 10
124.5
 20
79.6279999999999717
 30
0.0
 11
124.3909924425999947
 21
79.7152060458999756
 31
0.0
  0
LINE
  5
114F
  8
0
 10
124.5
 20
79.3719999999999715
 30
0.0
 11
124.5
 21
79.6279999999999717
 31
0.0
  0
LINE
  5
1150
  8
0
 10
124.3909924425999947
 20
79.2847939539999942
 30
0.0
 11
124.5
 21
79.3719999999999715
 31
0.0
  0
LINE
  5
1151
  8
0
 10
124.5
 20
78.8279999999999745
 30
0.0
 11
124.3515192291000062
 21
78.946784616699972
 31
0.0
  0
LINE
  5
1152
  8
0
 10
124.5
 20
78.5719999999999743
 30
0.0
 11
124.5
 21
78.8279999999999745
 31
0.0
  0
LINE
  5
1153
  8
0
 10
124.173430327600002
 20
78.3107442619999858
 30
0.0
 11
124.5
 21
78.5719999999999743
 31
0.0
  0
LINE
  5
1154
  8
0
 10
124.5
 20
78.0279999999999632
 30
0.0
 11
124.1668633878999941
 21
78.2945092895999863
 31
0.0
  0
LINE
  5
1155
  8
0
 10
124.1927956441000021
 20
81.5262365152999848
 30
0.0
 11
124.3575941508999989
 21
81.6580753206999645
 31
0.0
  0
LINE
  5
1156
  8
0
 10
124.5
 20
81.2279999999999802
 30
0.0
 11
124.3081449322999958
 21
81.3814840540999853
 31
0.0
  0
LINE
  5
1157
  8
0
 10
124.5
 20
77.7719999999999629
 30
0.0
 11
124.5
 21
78.0279999999999632
 31
0.0
  0
LINE
  5
1158
  8
0
 10
124.3081449322999958
 20
77.6185159457999703
 30
0.0
 11
124.5
 21
77.7719999999999629
 31
0.0
  0
LINE
  5
1159
  8
0
 10
124.3575941508999989
 20
77.3419246791999768
 30
0.0
 11
124.1927956441000021
 21
77.473763484599985
 31
0.0
  0
LINE
  5
115A
  8
0
 10
124.4059546095000002
 20
81.6967636874999812
 30
0.0
 11
124.4853125249611026
 21
81.7602500198489111
 31
0.0
  0
LINE
  5
115B
  8
0
 10
124.4853125248710057
 20
77.2397499800885896
 30
0.0
 11
124.4059546095000002
 21
77.3032363123999744
 31
0.0
  0
ENDSEC
  0
EOF
