  0
SECTION
  2
HEADER
  9
$ACADVER
  1
AC1009
  9
$INSBASE
 10
0.0
 20
0.0
 30
0.0
  9
$EXTMIN
 10
0.0
 20
-1.4802182810368341
 30
0.0
  9
$EXTMAX
 10
153.5
 20
80.0
 30
0.0
  9
$LIMMIN
 10
0.0
 20
0.0
  9
$LIMMAX
 10
187.5
 20
135.0
  9
$ORTHOMODE
 70
     1
  9
$REGENMODE
 70
     1
  9
$FILLMODE
 70
     1
  9
$QTEXTMODE
 70
     0
  9
$MIRRTEXT
 70
     0
  9
$DRAGMODE
 70
     2
  9
$LTSCALE
 40
5.0
  9
$OSMODE
 70
    37
  9
$ATTMODE
 70
     1
  9
$TEXTSIZE
 40
2.5000000000000488
  9
$TRACEWID
 40
0.05
  9
$TEXTSTYLE
  7
STANDARD
  9
$CLAYER
  8
0
  9
$CELTYPE
  6
BYLAYER
  9
$CECOLOR
 62
   256
  9
$DIMSCALE
 40
0.5
  9
$DIMASZ
 40
3.0
  9
$DIMEXO
 40
2.0
  9
$DIMDLI
 40
0.38
  9
$DIMRND
 40
0.0
  9
$DIMDLE
 40
0.0
  9
$DIMEXE
 40
2.0
  9
$DIMTP
 40
0.0
  9
$DIMTM
 40
0.0
  9
$DIMTXT
 40
3.2000000000000002
  9
$DIMCEN
 40
0.0
  9
$DIMTSZ
 40
0.0
  9
$DIMTOL
 70
     0
  9
$DIMLIM
 70
     0
  9
$DIMTIH
 70
     0
  9
$DIMTOH
 70
     0
  9
$DIMSE1
 70
     0
  9
$DIMSE2
 70
     0
  9
$DIMTAD
 70
     1
  9
$DIMZIN
 70
     0
  9
$DIMBLK
  1

  9
$DIMASO
 70
     0
  9
$DIMSHO
 70
     0
  9
$DIMPOST
  1

  9
$DIMAPOST
  1

  9
$DIMALT
 70
     0
  9
$DIMALTD
 70
     2
  9
$DIMALTF
 40
25.3999999999999986
  9
$DIMLFAC
 40
1.0
  9
$DIMTOFL
 70
     1
  9
$DIMTVP
 40
1.6000000000000001
  9
$DIMTIX
 70
     1
  9
$DIMSOXD
 70
     0
  9
$DIMSAH
 70
     0
  9
$DIMBLK1
  1

  9
$DIMBLK2
  1

  9
$DIMSTYLE
  2
STANDARD
  9
$DIMCLRD
 70
     0
  9
$DIMCLRE
 70
     0
  9
$DIMCLRT
 70
     0
  9
$DIMTFAC
 40
1.0
  9
$DIMGAP
 40
0.09
  9
$LUNITS
 70
     2
  9
$LUPREC
 70
     1
  9
$SKETCHINC
 40
0.1
  9
$FILLETRAD
 40
0.4
  9
$AUNITS
 70
     0
  9
$AUPREC
 70
     0
  9
$MENU
  1
E:\r13\win\SUPPORT\ACAD
  9
$ELEVATION
 40
0.0
  9
$PELEVATION
 40
0.0
  9
$THICKNESS
 40
0.0
  9
$LIMCHECK
 70
     0
  9
$BLIPMODE
 70
     0
  9
$CHAMFERA
 40
0.0
  9
$CHAMFERB
 40
0.0
  9
$SKPOLY
 70
     0
  9
$TDCREATE
 40
2449840.6215393519960344
  9
$TDUPDATE
 40
2460864.39144675899297
  9
$TDINDWG
 40
0.0669258102
  9
$TDUSRTIMER
 40
0.0669258102
  9
$USRTIMER
 70
     1
  9
$ANGBASE
 50
0.0
  9
$ANGDIR
 70
     0
  9
$PDMODE
 70
     0
  9
$PDSIZE
 40
0.0
  9
$PLINEWID
 40
0.0
  9
$COORDS
 70
     1
  9
$SPLFRAME
 70
     0
  9
$SPLINETYPE
 70
     6
  9
$SPLINESEGS
 70
     8
  9
$ATTDIA
 70
     1
  9
$ATTREQ
 70
     1
  9
$HANDLING
 70
     1
  9
$HANDSEED
  5
9AA
  9
$SURFTAB1
 70
     6
  9
$SURFTAB2
 70
     6
  9
$SURFTYPE
 70
     6
  9
$SURFU
 70
     6
  9
$SURFV
 70
     6
  9
$UCSNAME
  2

  9
$UCSORG
 10
0.0
 20
0.0
 30
0.0
  9
$UCSXDIR
 10
1.0
 20
0.0
 30
0.0
  9
$UCSYDIR
 10
0.0
 20
1.0
 30
0.0
  9
$PUCSNAME
  2

  9
$PUCSORG
 10
0.0
 20
0.0
 30
0.0
  9
$PUCSXDIR
 10
1.0
 20
0.0
 30
0.0
  9
$PUCSYDIR
 10
0.0
 20
1.0
 30
0.0
  9
$USERI1
 70
     0
  9
$USERI2
 70
     1
  9
$USERI3
 70
     0
  9
$USERI4
 70
     0
  9
$USERI5
 70
     0
  9
$USERR1
 40
0.0
  9
$USERR2
 40
0.0
  9
$USERR3
 40
0.0
  9
$USERR4
 40
0.0
  9
$USERR5
 40
0.0
  9
$WORLDVIEW
 70
     1
  9
$SHADEDGE
 70
     3
  9
$SHADEDIF
 70
    70
  9
$TILEMODE
 70
     1
  9
$MAXACTVP
 70
    16
  9
$PLIMCHECK
 70
     0
  9
$PEXTMIN
 10
1.0000000000000000E+20
 20
1.0000000000000000E+20
 30
1.0000000000000000E+20
  9
$PEXTMAX
 10
-1.0000000000000000E+20
 20
-1.0000000000000000E+20
 30
-1.0000000000000000E+20
  9
$PLIMMIN
 10
0.0
 20
0.0
  9
$PLIMMAX
 10
12.0
 20
9.0
  9
$UNITMODE
 70
     0
  9
$VISRETAIN
 70
     0
  9
$PLINEGEN
 70
     0
  9
$PSLTSCALE
 70
     0
  0
ENDSEC
  0
SECTION
  2
TABLES
  0
TABLE
  2
VPORT
 70
     1
  0
VPORT
  2
*ACTIVE
 70
     0
 10
0.0
 20
0.0
 11
1.0
 21
1.0
 12
201.7898383371824025
 22
85.9220496747730209
 13
0.0
 23
0.0
 14
5.0
 24
5.0
 15
5.0
 25
5.0
 16
0.0
 26
0.0
 36
1.0
 17
0.0
 27
0.0
 37
0.0
 40
171.8440993495460134
 41
2.3485221674876842
 42
50.0
 43
0.0
 44
0.0
 50
0.0
 51
0.0
 71
     0
 72
   500
 73
     1
 74
     0
 75
     0
 76
     0
 77
     0
 78
     2
  0
ENDTAB
  0
TABLE
  2
LTYPE
 70
     3
  0
LTYPE
  2
CONTINUOUS
 70
     0
  3
Solid Line
 72
    65
 73
     0
 40
0.0
  0
LTYPE
  2
CENTER
 70
     0
  3
____ _ ____ _ ____ _ ____ _ ____ _ ____ _ ____
 72
    65
 73
     4
 40
2.0
 49
1.25
 49
-0.25
 49
0.25
 49
-0.25
  0
LTYPE
  2
HIDDEN
 70
     0
  3
_ _ _ _ _ _ _ _ _ _ _ _ _ _ _ _ _ _ _ _ _ _ _
 72
    65
 73
     2
 40
0.375
 49
0.25
 49
-0.125
  0
ENDTAB
  0
TABLE
  2
LAYER
 70
     5
  0
LAYER
  2
0
 70
     0
 62
     7
  6
CONTINUOUS
  0
LAYER
  2
1
 70
     0
 62
     1
  6
CENTER
  0
LAYER
  2
2
 70
     0
 62
     2
  6
HIDDEN
  0
LAYER
  2
3
 70
     0
 62
     3
  6
CONTINUOUS
  0
LAYER
  2
DEFPOINTS
 70
     0
 62
     7
  6
CONTINUOUS
  0
ENDTAB
  0
TABLE
  2
STYLE
 70
     2
  0
STYLE
  2
STANDARD
 70
     0
 40
0.0
 41
1.0
 50
0.0
 71
     0
 42
2.5000000000000488
  3
TXT
  4
BIGFONT
  0
STYLE
  2
STANDARD1
 70
     0
 40
0.0
 41
1.0
 50
0.0
 71
     0
 42
3.0
  3
txt
  4

  0
ENDTAB
  0
TABLE
  2
VIEW
 70
     1
  0
VIEW
  2
ALL
 70
     0
 40
135.0
 10
110.4957983193277045
 20
67.5
 41
0.0
 11
0.0
 21
0.0
 31
1.0
 12
0.0
 22
0.0
 32
0.0
 42
0.0
 43
0.0
 44
0.0
 50
0.0
 71
     0
  0
ENDTAB
  0
TABLE
  2
UCS
 70
     0
  0
ENDTAB
  0
TABLE
  2
APPID
 70
     6
  0
APPID
  2
ACAD
 70
     0
  0
APPID
  2
ACAD_MLEADERVER
 70
     0
  0
APPID
  2
ACAD_EXEMPT_FROM_CAD_STANDARDS
 70
     0
  0
APPID
  2
ACAD_NAV_VCDISPLAY
 70
     0
  0
APPID
  2
ACAD_DSTYLE_DIMJAG
 70
     0
  0
APPID
  2
ACAD_DSTYLE_DIMTALN
 70
     0
  0
ENDTAB
  0
TABLE
  2
DIMSTYLE
 70
     1
  0
DIMSTYLE
  2
STANDARD
 70
     0
  3

  4

  5

  6

  7

 40
1.0
 41
0.18
 42
0.0625
 43
0.38
 44
0.18
 45
0.0
 46
0.0
 47
0.0
 48
0.0
140
0.18
141
0.09
142
0.0
143
25.3999999999999986
144
1.0
145
0.0
146
1.0
147
0.09
 71
     0
 72
     0
 73
     1
 74
     1
 75
     0
 76
     0
 77
     0
 78
     0
170
     0
171
     2
172
     0
173
     0
174
     0
175
     0
176
     0
177
     0
178
     0
  0
ENDTAB
  0
ENDSEC
  0
SECTION
  2
BLOCKS
  0
BLOCK
  8
0
  2
$MODEL_SPACE
 70
     0
 10
0.0
 20
0.0
 30
0.0
  3
$MODEL_SPACE
  1

  0
ENDBLK
  5
E4
  8
0
  0
BLOCK
 67
     1
  8
0
  2
$PAPER_SPACE
 70
     0
 10
0.0
 20
0.0
 30
0.0
  3
$PAPER_SPACE
  1

  0
ENDBLK
  5
E2
 67
     1
  8
0
  0
ENDSEC
  0
SECTION
  2
ENTITIES
  0
TEXT
  5
1D8
  8
0
 62
     3
 10
0.0
 20
0.0
 30
0.0
 40
5.0
  1
BCFN6X40-F
  7
STANDARD1
  0
LINE
  5
296
  8
0
 10
65.5
 20
40.0
 30
0.0
 11
65.0
 21
39.5
 31
0.0
  0
LINE
  5
297
  8
0
 10
65.0
 20
30.5
 30
0.0
 11
65.5
 21
30.0
 31
0.0
  0
LINE
  5
298
  8
0
 10
71.0
 20
40.0
 30
0.0
 11
65.5
 21
40.0
 31
0.0
  0
LINE
  5
299
  8
0
 10
65.5
 20
30.0
 30
0.0
 11
71.0
 21
30.0
 31
0.0
  0
LINE
  5
29A
  8
0
 10
109.3499999999999943
 20
38.0
 30
0.0
 11
71.4500000000000455
 21
38.0
 31
0.0
  0
LINE
  5
29B
  8
0
 10
71.4500000000000455
 20
32.0
 30
0.0
 11
109.3499999999999943
 21
32.0
 31
0.0
  0
LINE
  5
29C
  8
0
 10
109.3499999999999943
 20
31.9999999999999893
 30
0.0
 11
109.8499999999999943
 21
32.5
 31
0.0
  0
LINE
  5
29D
  8
0
 10
109.8499999999999943
 20
37.5
 30
0.0
 11
109.3499999999999943
 21
37.9999999999999929
 31
0.0
  0
LINE
  5
29E
  8
0
 10
110.5499999999999972
 20
37.5
 30
0.0
 11
109.8499999999999943
 21
37.5
 31
0.0
  0
LINE
  5
29F
  8
0
 10
109.8499999999999943
 20
32.5
 30
0.0
 11
110.5499999999999972
 21
32.5
 31
0.0
  0
LINE
  5
2A2
  8
0
 10
65.5
 20
40.0
 30
0.0
 11
65.5
 21
30.0
 31
0.0
  0
LINE
  5
2A3
  8
0
 10
65.0
 20
39.5
 30
0.0
 11
65.0
 21
30.5
 31
0.0
  0
LINE
  5
2A4
  8
0
 10
71.0
 20
35.0
 30
0.0
 11
71.0
 21
40.0
 31
0.0
  0
LINE
  5
2A5
  8
0
 10
71.0
 20
30.0
 30
0.0
 11
71.0
 21
35.0
 31
0.0
  0
LINE
  5
2A6
  8
0
 10
109.3499999999999943
 20
37.9999999999999929
 30
0.0
 11
109.3499999999999943
 21
31.9999999999999893
 31
0.0
  0
LINE
  5
2A7
  8
0
 10
109.8499999999999943
 20
37.5
 30
0.0
 11
109.8499999999999943
 21
32.5
 31
0.0
  0
LINE
  5
2A8
  8
0
 10
110.5499999999999972
 20
37.5
 30
0.0
 11
110.5499999999999972
 21
32.5
 31
0.0
  0
CIRCLE
  5
2BD
  8
0
 10
146.0
 20
35.0
 30
0.0
 40
1.5999999999999941
  0
CIRCLE
  5
2BE
  8
0
 10
146.0
 20
35.0
 30
0.0
 40
2.0
  0
CIRCLE
  5
2BF
  8
3
 10
146.0
 20
35.0
 30
0.0
 40
2.458500000000114
  0
CIRCLE
  5
2C0
  8
0
 10
146.0
 20
35.0
 30
0.0
 40
3.0
  0
CIRCLE
  5
2C1
  8
0
 10
146.0
 20
35.0
 30
0.0
 40
5.0
  0
CIRCLE
  5
2C3
  8
0
 10
30.0
 20
35.0
 30
0.0
 40
4.9999999999999858
  0
CIRCLE
  5
2C4
  8
0
 10
30.0
 20
35.0
 30
0.0
 40
4.4999999999999858
  0
LINE
  5
2C5
  8
0
 10
30.0
 20
37.8867513459999969
 30
0.0
 11
32.5
 21
36.4433756729999914
 31
0.0
  0
LINE
  5
2C6
  8
0
 10
27.5
 20
36.4433756729999914
 30
0.0
 11
30.0
 21
37.8867513459999969
 31
0.0
  0
LINE
  5
2C7
  8
0
 10
27.5
 20
33.5566243271000033
 30
0.0
 11
27.5
 21
36.4433756729999914
 31
0.0
  0
LINE
  5
2C8
  8
0
 10
30.0
 20
32.1132486540999906
 30
0.0
 11
27.5
 21
33.5566243271000033
 31
0.0
  0
LINE
  5
2C9
  8
0
 10
32.5
 20
33.5566243271000033
 30
0.0
 11
30.0
 21
32.1132486540999906
 31
0.0
  0
LINE
  5
2CA
  8
0
 10
32.5
 20
36.4433756729999914
 30
0.0
 11
32.5
 21
33.5566243271000033
 31
0.0
  0
ARC
  5
701
  8
0
 10
71.4500000000000455
 20
31.5500000000000007
 30
0.0
 40
0.4500000000000007
 50
90.0
 51
179.999999999999801
  0
ARC
  5
702
  8
0
 10
71.4500000000000455
 20
38.4500000000000028
 30
0.0
 40
0.4500000000000002
 50
180.0
 51
270.0
  0
LINE
  5
704
  8
1
 10
62.5
 20
35.0
 30
0.0
 11
113.5
 21
35.0000000000000284
 31
0.0
  0
LINE
  5
706
  8
0
 10
65.5
 20
80.0
 30
0.0
 11
65.0
 21
79.5
 31
0.0
  0
LINE
  5
707
  8
0
 10
65.0
 20
70.5
 30
0.0
 11
65.5
 21
70.0
 31
0.0
  0
LINE
  5
708
  8
0
 10
71.0
 20
80.0
 30
0.0
 11
65.5
 21
80.0
 31
0.0
  0
LINE
  5
709
  8
0
 10
65.5
 20
70.0
 30
0.0
 11
71.0
 21
70.0
 31
0.0
  0
LINE
  5
70A
  8
0
 10
109.3499999999999943
 20
78.0
 30
0.0
 11
71.4500000000000455
 21
78.0
 31
0.0
  0
LINE
  5
70B
  8
0
 10
71.4500000000000455
 20
72.0
 30
0.0
 11
109.3499999999999943
 21
72.0
 31
0.0
  0
LINE
  5
70C
  8
0
 10
109.3499999999999943
 20
72.0
 30
0.0
 11
109.8499999999999943
 21
72.5
 31
0.0
  0
LINE
  5
70D
  8
0
 10
109.8499999999999943
 20
77.5
 30
0.0
 11
109.3499999999999943
 21
78.0
 31
0.0
  0
LINE
  5
70E
  8
0
 10
110.5499999999999972
 20
77.5
 30
0.0
 11
109.8499999999999943
 21
77.5
 31
0.0
  0
LINE
  5
70F
  8
0
 10
109.8499999999999943
 20
72.5
 30
0.0
 11
110.5499999999999972
 21
72.5
 31
0.0
  0
LINE
  5
712
  8
0
 10
65.5
 20
80.0
 30
0.0
 11
65.5
 21
70.0
 31
0.0
  0
LINE
  5
713
  8
0
 10
65.0
 20
79.5
 30
0.0
 11
65.0
 21
70.5
 31
0.0
  0
LINE
  5
714
  8
0
 10
71.0
 20
75.0
 30
0.0
 11
71.0
 21
80.0
 31
0.0
  0
LINE
  5
715
  8
0
 10
71.0
 20
70.0
 30
0.0
 11
71.0
 21
75.0
 31
0.0
  0
LINE
  5
716
  8
0
 10
109.3499999999999943
 20
78.0
 30
0.0
 11
109.3499999999999943
 21
72.0
 31
0.0
  0
LINE
  5
717
  8
0
 10
109.8499999999999943
 20
77.5
 30
0.0
 11
109.8499999999999943
 21
72.5
 31
0.0
  0
LINE
  5
718
  8
0
 10
110.5499999999999972
 20
77.5
 30
0.0
 11
110.5499999999999972
 21
72.5
 31
0.0
  0
LINE
  5
719
  8
0
 10
111.0
 20
76.5999999999999943
 30
0.0
 11
111.0
 21
73.3999999999999915
 31
0.0
  0
ARC
  5
71A
  8
0
 10
71.4500000000000455
 20
71.5499999999999972
 30
0.0
 40
0.4500000000000007
 50
90.0
 51
179.9999999999996021
  0
ARC
  5
71B
  8
0
 10
71.4500000000000455
 20
78.4500000000000028
 30
0.0
 40
0.4500000000000002
 50
180.0
 51
270.0
  0
LINE
  5
71C
  8
1
 10
62.5
 20
75.0
 30
0.0
 11
113.5
 21
75.0000000000000142
 31
0.0
  0
LINE
  5
722
  8
1
 10
37.5
 20
35.0
 30
0.0
 11
22.5
 21
35.0
 31
0.0
  0
LINE
  5
723
  8
1
 10
30.0
 20
42.5
 30
0.0
 11
30.0
 21
27.5
 31
0.0
  0
LINE
  5
727
  8
0
 10
87.0
 20
32.0
 30
0.0
 11
87.0
 21
38.0
 31
0.0
  0
LINE
  5
757
  8
3
 10
87.0
 20
32.5414999999999921
 30
0.0
 11
86.0620944877016285
 21
32.0000000000000782
 31
0.0
  0
LINE
  5
758
  8
3
 10
87.0
 20
37.4585000000001074
 30
0.0
 11
86.0620944877016285
 21
38.0000000000000213
 31
0.0
  0
LINE
  5
759
  8
3
 10
87.0
 20
37.4585000000001074
 30
0.0
 11
109.3499999999999943
 21
37.4585000000001074
 31
0.0
  0
LINE
  5
75A
  8
3
 10
87.0
 20
32.5414999999999424
 30
0.0
 11
109.3499999999999943
 21
32.5414999999999424
 31
0.0
  0
LINE
  5
75C
  8
1
 10
146.0
 20
42.4999999999999929
 30
0.0
 11
146.0
 21
27.5
 31
0.0
  0
LINE
  5
75D
  8
1
 10
153.5
 20
35.0
 30
0.0
 11
138.5
 21
35.0
 31
0.0
  0
LINE
  5
76F
  8
0
 10
87.0
 20
72.0
 30
0.0
 11
87.0
 21
78.0
 31
0.0
  0
LINE
  5
770
  8
3
 10
87.0
 20
72.541499999999985
 30
0.0
 11
86.0620944877016285
 21
72.0000000000000853
 31
0.0
  0
LINE
  5
771
  8
3
 10
87.0
 20
77.4585000000001003
 30
0.0
 11
86.0620944877016285
 21
78.0000000000000284
 31
0.0
  0
LINE
  5
772
  8
3
 10
87.0
 20
77.4585000000001003
 30
0.0
 11
109.7999999999999972
 21
77.4585000000001003
 31
0.0
  0
LINE
  5
773
  8
3
 10
87.0
 20
72.5414999999999139
 30
0.0
 11
109.7999999999999972
 21
72.5414999999999139
 31
0.0
  0
LINE
  5
788
  8
1
 10
109.7999999999999972
 20
78.5
 30
0.0
 11
109.7999999999999972
 21
71.5
 31
0.0
  0
ARC
  5
793
  8
0
 10
109.7999999999999972
 20
75.0
 30
0.0
 40
2.0
 50
53.1301023541577777
 51
67.9756871629577262
  0
ARC
  5
794
  8
2
 10
109.7999999999999972
 20
74.9999999999999858
 30
0.0
 40
2.0000000000000129
 50
67.975687162957513
 51
292.0243128370427144
  0
ARC
  5
795
  8
0
 10
109.7999999999999972
 20
75.0
 30
0.0
 40
2.0
 50
292.0243128370420891
 51
306.8698976458421726
  0
LINE
  5
797
  8
0
 10
111.0
 20
36.6000000000000014
 30
0.0
 11
111.0
 21
33.3999999999999986
 31
0.0
  0
LINE
  5
798
  8
1
 10
109.7999999999999972
 20
38.5
 30
0.0
 11
109.7999999999999972
 21
31.5
 31
0.0
  0
ARC
  5
799
  8
0
 10
109.7999999999999972
 20
35.0
 30
0.0
 40
2.0
 50
53.1301023541576711
 51
67.9756871629578399
  0
ARC
  5
79A
  8
2
 10
109.7999999999999972
 20
35.0000000000000071
 30
0.0
 40
1.9999999999999949
 50
67.9756871629577262
 51
292.0243128370420891
  0
ARC
  5
79B
  8
0
 10
109.7999999999999972
 20
35.0
 30
0.0
 40
2.0
 50
292.0243128370420891
 51
306.8698976458421726
  0
LINE
  5
7B9
  8
2
 10
68.5
 20
77.5
 30
0.0
 11
65.0
 21
77.5
 31
0.0
  0
LINE
  5
7BA
  8
2
 10
68.5
 20
72.5
 30
0.0
 11
65.0
 21
72.5
 31
0.0
  0
LINE
  5
7BB
  8
2
 10
68.5
 20
77.5
 30
0.0
 11
68.5
 21
72.5
 31
0.0
  0
LINE
  5
7BC
  8
2
 10
69.9433756729740708
 20
75.0
 30
0.0
 11
68.5
 21
77.5
 31
0.0
  0
LINE
  5
7BD
  8
2
 10
68.5
 20
72.5
 30
0.0
 11
69.9433756729740708
 21
75.0
 31
0.0
  0
LINE
  5
7BF
  8
2
 10
68.5
 20
75.0
 30
0.0
 11
65.0
 21
75.0
 31
0.0
  0
LINE
  5
7C1
  8
2
 10
68.5
 20
37.8867513459999969
 30
0.0
 11
65.0
 21
37.8867513459999969
 31
0.0
  0
LINE
  5
7C2
  8
2
 10
68.5
 20
32.1132486540999906
 30
0.0
 11
65.0
 21
32.1132486540999906
 31
0.0
  0
LINE
  5
7C3
  8
2
 10
68.5
 20
37.8867513459999969
 30
0.0
 11
68.5
 21
32.1132486540999906
 31
0.0
  0
LINE
  5
7C4
  8
2
 10
69.9433756729740708
 20
35.0
 30
0.0
 11
68.5
 21
37.8867513459999969
 31
0.0
  0
LINE
  5
7C5
  8
2
 10
68.5
 20
32.1132486540999906
 30
0.0
 11
69.9433756729740708
 21
35.0
 31
0.0
  0
LINE
  5
7CA
  8
2
 10
68.5
 20
36.4433756729999914
 30
0.0
 11
65.0
 21
36.4433756729999914
 31
0.0
  0
LINE
  5
7CB
  8
2
 10
68.5
 20
33.5566243271000033
 30
0.0
 11
65.0
 21
33.5566243271000033
 31
0.0
  0
CIRCLE
  5
8E4
  8
0
 10
146.0
 20
35.0
 30
0.0
 40
2.5000000000000071
  0
ENDSEC
  0
EOF
