  0
SECTION
  2
HEADER
  9
$ACADVER
  1
AC1009
  9
$INSBASE
 10
0.0
 20
0.0
 30
0.0
  9
$EXTMIN
 10
0.0
 20
-1.4802182810368341
 30
0.0
  9
$EXTMAX
 10
224.5
 20
108.0
 30
0.0
  9
$LIMMIN
 10
0.0
 20
0.0
  9
$LIMMAX
 10
187.5
 20
135.0
  9
$ORTHOMODE
 70
     1
  9
$REGENMODE
 70
     1
  9
$FILLMODE
 70
     1
  9
$QTEXTMODE
 70
     0
  9
$MIRRTEXT
 70
     0
  9
$DRAGMODE
 70
     2
  9
$LTSCALE
 40
5.0
  9
$OSMODE
 70
    37
  9
$ATTMODE
 70
     1
  9
$TEXTSIZE
 40
2.5000000000000488
  9
$TRACEWID
 40
0.05
  9
$TEXTSTYLE
  7
STANDARD
  9
$CLAYER
  8
0
  9
$CELTYPE
  6
BYLAYER
  9
$CECOLOR
 62
   256
  9
$DIMSCALE
 40
0.5
  9
$DIMASZ
 40
3.0
  9
$DIMEXO
 40
2.0
  9
$DIMDLI
 40
0.38
  9
$DIMRND
 40
0.0
  9
$DIMDLE
 40
0.0
  9
$DIMEXE
 40
2.0
  9
$DIMTP
 40
0.0
  9
$DIMTM
 40
0.0
  9
$DIMTXT
 40
3.2000000000000002
  9
$DIMCEN
 40
0.0
  9
$DIMTSZ
 40
0.0
  9
$DIMTOL
 70
     0
  9
$DIMLIM
 70
     0
  9
$DIMTIH
 70
     0
  9
$DIMTOH
 70
     0
  9
$DIMSE1
 70
     0
  9
$DIMSE2
 70
     0
  9
$DIMTAD
 70
     1
  9
$DIMZIN
 70
     0
  9
$DIMBLK
  1

  9
$DIMASO
 70
     0
  9
$DIMSHO
 70
     0
  9
$DIMPOST
  1

  9
$DIMAPOST
  1

  9
$DIMALT
 70
     0
  9
$DIMALTD
 70
     2
  9
$DIMALTF
 40
25.3999999999999986
  9
$DIMLFAC
 40
1.0
  9
$DIMTOFL
 70
     1
  9
$DIMTVP
 40
1.6000000000000001
  9
$DIMTIX
 70
     1
  9
$DIMSOXD
 70
     0
  9
$DIMSAH
 70
     0
  9
$DIMBLK1
  1

  9
$DIMBLK2
  1

  9
$DIMSTYLE
  2
STANDARD
  9
$DIMCLRD
 70
     0
  9
$DIMCLRE
 70
     0
  9
$DIMCLRT
 70
     0
  9
$DIMTFAC
 40
1.0
  9
$DIMGAP
 40
0.09
  9
$LUNITS
 70
     2
  9
$LUPREC
 70
     1
  9
$SKETCHINC
 40
0.1
  9
$FILLETRAD
 40
0.4
  9
$AUNITS
 70
     0
  9
$AUPREC
 70
     0
  9
$MENU
  1
E:\r13\win\SUPPORT\ACAD
  9
$ELEVATION
 40
0.0
  9
$PELEVATION
 40
0.0
  9
$THICKNESS
 40
0.0
  9
$LIMCHECK
 70
     0
  9
$BLIPMODE
 70
     0
  9
$CHAMFERA
 40
0.0
  9
$CHAMFERB
 40
0.0
  9
$SKPOLY
 70
     0
  9
$TDCREATE
 40
2449840.6215393519960344
  9
$TDUPDATE
 40
2460864.391435184981674
  9
$TDINDWG
 40
0.1403054398
  9
$TDUSRTIMER
 40
0.1403054398
  9
$USRTIMER
 70
     1
  9
$ANGBASE
 50
0.0
  9
$ANGDIR
 70
     0
  9
$PDMODE
 70
     0
  9
$PDSIZE
 40
0.0
  9
$PLINEWID
 40
0.0
  9
$COORDS
 70
     1
  9
$SPLFRAME
 70
     0
  9
$SPLINETYPE
 70
     6
  9
$SPLINESEGS
 70
     8
  9
$ATTDIA
 70
     1
  9
$ATTREQ
 70
     1
  9
$HANDLING
 70
     1
  9
$HANDSEED
  5
258F
  9
$SURFTAB1
 70
     6
  9
$SURFTAB2
 70
     6
  9
$SURFTYPE
 70
     6
  9
$SURFU
 70
     6
  9
$SURFV
 70
     6
  9
$UCSNAME
  2

  9
$UCSORG
 10
0.0
 20
0.0
 30
0.0
  9
$UCSXDIR
 10
1.0
 20
0.0
 30
0.0
  9
$UCSYDIR
 10
0.0
 20
1.0
 30
0.0
  9
$PUCSNAME
  2

  9
$PUCSORG
 10
0.0
 20
0.0
 30
0.0
  9
$PUCSXDIR
 10
1.0
 20
0.0
 30
0.0
  9
$PUCSYDIR
 10
0.0
 20
1.0
 30
0.0
  9
$USERI1
 70
     0
  9
$USERI2
 70
     1
  9
$USERI3
 70
     0
  9
$USERI4
 70
     0
  9
$USERI5
 70
     0
  9
$USERR1
 40
0.0
  9
$USERR2
 40
0.0
  9
$USERR3
 40
0.0
  9
$USERR4
 40
0.0
  9
$USERR5
 40
0.0
  9
$WORLDVIEW
 70
     1
  9
$SHADEDGE
 70
     3
  9
$SHADEDIF
 70
    70
  9
$TILEMODE
 70
     1
  9
$MAXACTVP
 70
    16
  9
$PLIMCHECK
 70
     0
  9
$PEXTMIN
 10
1.0000000000000000E+20
 20
1.0000000000000000E+20
 30
1.0000000000000000E+20
  9
$PEXTMAX
 10
-1.0000000000000000E+20
 20
-1.0000000000000000E+20
 30
-1.0000000000000000E+20
  9
$PLIMMIN
 10
0.0
 20
0.0
  9
$PLIMMAX
 10
12.0
 20
9.0
  9
$UNITMODE
 70
     0
  9
$VISRETAIN
 70
     0
  9
$PLINEGEN
 70
     0
  9
$PSLTSCALE
 70
     0
  0
ENDSEC
  0
SECTION
  2
TABLES
  0
TABLE
  2
VPORT
 70
     1
  0
VPORT
  2
*ACTIVE
 70
     0
 10
0.0
 20
0.0
 11
1.0
 21
1.0
 12
215.2093596059112883
 22
91.6360776088096571
 13
0.0
 23
0.0
 14
5.0
 24
5.0
 15
5.0
 25
5.0
 16
0.0
 26
0.0
 36
1.0
 17
0.0
 27
0.0
 37
0.0
 40
183.2721552176192858
 41
2.3485221674876842
 42
50.0
 43
0.0
 44
0.0
 50
0.0
 51
0.0
 71
     0
 72
   500
 73
     1
 74
     0
 75
     0
 76
     0
 77
     0
 78
     2
  0
ENDTAB
  0
TABLE
  2
LTYPE
 70
     3
  0
LTYPE
  2
CONTINUOUS
 70
     0
  3
Solid Line
 72
    65
 73
     0
 40
0.0
  0
LTYPE
  2
CENTER
 70
     0
  3
____ _ ____ _ ____ _ ____ _ ____ _ ____ _ ____
 72
    65
 73
     4
 40
2.0
 49
1.25
 49
-0.25
 49
0.25
 49
-0.25
  0
LTYPE
  2
HIDDEN
 70
     0
  3
_ _ _ _ _ _ _ _ _ _ _ _ _ _ _ _ _ _ _ _ _ _ _
 72
    65
 73
     2
 40
0.375
 49
0.25
 49
-0.125
  0
ENDTAB
  0
TABLE
  2
LAYER
 70
     5
  0
LAYER
  2
0
 70
     0
 62
     7
  6
CONTINUOUS
  0
LAYER
  2
1
 70
     0
 62
     1
  6
CENTER
  0
LAYER
  2
2
 70
     0
 62
     2
  6
HIDDEN
  0
LAYER
  2
3
 70
     0
 62
     3
  6
CONTINUOUS
  0
LAYER
  2
DEFPOINTS
 70
     0
 62
     7
  6
CONTINUOUS
  0
ENDTAB
  0
TABLE
  2
STYLE
 70
     2
  0
STYLE
  2
STANDARD
 70
     0
 40
0.0
 41
1.0
 50
0.0
 71
     0
 42
2.5000000000000488
  3
TXT
  4
BIGFONT
  0
STYLE
  2
STANDARD1
 70
     0
 40
0.0
 41
1.0
 50
0.0
 71
     0
 42
3.0
  3
txt
  4

  0
ENDTAB
  0
TABLE
  2
VIEW
 70
     1
  0
VIEW
  2
ALL
 70
     0
 40
135.0
 10
110.4957983193277045
 20
67.5
 41
0.0
 11
0.0
 21
0.0
 31
1.0
 12
0.0
 22
0.0
 32
0.0
 42
0.0
 43
0.0
 44
0.0
 50
0.0
 71
     0
  0
ENDTAB
  0
TABLE
  2
UCS
 70
     0
  0
ENDTAB
  0
TABLE
  2
APPID
 70
     6
  0
APPID
  2
ACAD
 70
     0
  0
APPID
  2
ACAD_MLEADERVER
 70
     0
  0
APPID
  2
ACAD_EXEMPT_FROM_CAD_STANDARDS
 70
     0
  0
APPID
  2
ACAD_NAV_VCDISPLAY
 70
     0
  0
APPID
  2
ACAD_DSTYLE_DIMJAG
 70
     0
  0
APPID
  2
ACAD_DSTYLE_DIMTALN
 70
     0
  0
ENDTAB
  0
TABLE
  2
DIMSTYLE
 70
     1
  0
DIMSTYLE
  2
STANDARD
 70
     0
  3

  4

  5

  6

  7

 40
1.0
 41
0.18
 42
0.0625
 43
0.38
 44
0.18
 45
0.0
 46
0.0
 47
0.0
 48
0.0
140
0.18
141
0.09
142
0.0
143
25.3999999999999986
144
1.0
145
0.0
146
1.0
147
0.09
 71
     0
 72
     0
 73
     1
 74
     1
 75
     0
 76
     0
 77
     0
 78
     0
170
     0
171
     2
172
     0
173
     0
174
     0
175
     0
176
     0
177
     0
178
     0
  0
ENDTAB
  0
ENDSEC
  0
SECTION
  2
BLOCKS
  0
BLOCK
  8
0
  2
$MODEL_SPACE
 70
     0
 10
0.0
 20
0.0
 30
0.0
  3
$MODEL_SPACE
  1

  0
ENDBLK
  5
E4
  8
0
  0
BLOCK
 67
     1
  8
0
  2
$PAPER_SPACE
 70
     0
 10
0.0
 20
0.0
 30
0.0
  3
$PAPER_SPACE
  1

  0
ENDBLK
  5
E2
 67
     1
  8
0
  0
ENDSEC
  0
SECTION
  2
ENTITIES
  0
TEXT
  5
1D8
  8
0
 62
     3
 10
0.0
 20
0.0
 30
0.0
 40
5.0
  1
BCFN16X80-S
  7
STANDARD1
  0
LINE
  5
1561
  8
0
 10
72.5
 20
53.9999999999999787
 30
0.0
 11
72.0
 21
53.4999999999999787
 31
0.0
  0
LINE
  5
1562
  8
0
 10
72.0
 20
30.5
 30
0.0
 11
72.5
 21
30.0
 31
0.0
  0
LINE
  5
1563
  8
0
 10
88.0
 20
53.9999999999999787
 30
0.0
 11
72.5
 21
53.9999999999999787
 31
0.0
  0
LINE
  5
1564
  8
0
 10
72.5
 20
30.0
 30
0.0
 11
88.0
 21
30.0
 31
0.0
  0
LINE
  5
1565
  8
0
 10
163.9000000000000057
 20
50.0
 30
0.0
 11
89.2000000000000455
 21
49.9999999999999929
 31
0.0
  0
LINE
  5
1566
  8
0
 10
89.2000000000000455
 20
34.0
 30
0.0
 11
163.9000000000000057
 21
34.0
 31
0.0
  0
LINE
  5
1567
  8
0
 10
163.9000000000000057
 20
34.0
 30
0.0
 11
165.3000000000000114
 21
35.4000000000000128
 31
0.0
  0
LINE
  5
1568
  8
0
 10
165.3000000000000114
 20
48.5999999999999872
 30
0.0
 11
163.9000000000000057
 21
49.9999999999999929
 31
0.0
  0
LINE
  5
1569
  8
0
 10
167.0
 20
48.5999999999999872
 30
0.0
 11
165.3000000000000114
 21
48.5999999999999872
 31
0.0
  0
LINE
  5
156A
  8
0
 10
165.3000000000000114
 20
35.4000000000000128
 30
0.0
 11
167.0
 21
35.4000000000000128
 31
0.0
  0
LINE
  5
156D
  8
0
 10
72.5
 20
53.9999999999999787
 30
0.0
 11
72.5
 21
30.0
 31
0.0
  0
LINE
  5
156E
  8
0
 10
72.0
 20
53.4999999999999787
 30
0.0
 11
72.0
 21
30.5
 31
0.0
  0
LINE
  5
1570
  8
0
 10
88.0
 20
30.0
 30
0.0
 11
88.0
 21
53.9999999999999787
 31
0.0
  0
LINE
  5
1571
  8
0
 10
163.9000000000000057
 20
49.9999999999999929
 30
0.0
 11
163.9000000000000057
 21
34.0
 31
0.0
  0
LINE
  5
1572
  8
0
 10
165.3000000000000114
 20
48.5999999999999872
 30
0.0
 11
165.3000000000000114
 21
35.4000000000000128
 31
0.0
  0
LINE
  5
1573
  8
0
 10
167.0
 20
48.5999999999999872
 30
0.0
 11
167.0
 21
35.4000000000000128
 31
0.0
  0
CIRCLE
  5
1589
  8
0
 10
210.0
 20
42.0
 30
0.0
 40
6.5999999999999943
  0
CIRCLE
  5
158A
  8
0
 10
210.0
 20
42.0
 30
0.0
 40
5.9999999999999716
  0
CIRCLE
  5
158B
  8
0
 10
210.0
 20
42.0
 30
0.0
 40
7.9999999999999716
  0
CIRCLE
  5
158C
  8
0
 10
210.0
 20
42.0
 30
0.0
 40
12.0000000000000302
  0
CIRCLE
  5
158E
  8
0
 10
30.0
 20
41.9999999999999929
 30
0.0
 40
11.9999999999999893
  0
CIRCLE
  5
158F
  8
0
 10
30.0
 20
41.9999999999999929
 30
0.0
 40
11.4999999999999893
  0
LINE
  5
1590
  8
0
 10
30.0
 20
50.0829037686999783
 30
0.0
 11
37.0
 21
46.0414518842999811
 31
0.0
  0
LINE
  5
1591
  8
0
 10
23.0
 20
46.0414518842999811
 30
0.0
 11
30.0
 21
50.0829037686999783
 31
0.0
  0
LINE
  5
1592
  8
0
 10
23.0
 20
37.9585481156999904
 30
0.0
 11
23.0
 21
46.0414518842999811
 31
0.0
  0
LINE
  5
1593
  8
0
 10
30.0
 20
33.917096231399988
 30
0.0
 11
23.0
 21
37.9585481156999904
 31
0.0
  0
LINE
  5
1594
  8
0
 10
37.0
 20
37.9585481156999904
 30
0.0
 11
30.0
 21
33.917096231399988
 31
0.0
  0
LINE
  5
1595
  8
0
 10
37.0
 20
46.0414518842999811
 30
0.0
 11
37.0
 21
37.9585481156999904
 31
0.0
  0
LINE
  5
1636
  8
1
 10
44.5
 20
41.9999999999999929
 30
0.0
 11
15.5
 21
41.9999999999999929
 31
0.0
  0
LINE
  5
1637
  8
1
 10
30.0
 20
56.4999999999999787
 30
0.0
 11
30.0
 21
27.5
 31
0.0
  0
LINE
  5
1639
  8
1
 10
69.5
 20
41.9999999999999929
 30
0.0
 11
170.5
 21
42.0
 31
0.0
  0
LINE
  5
163C
  8
1
 10
224.5
 20
42.0
 30
0.0
 11
195.5
 21
42.0
 31
0.0
  0
LINE
  5
163D
  8
1
 10
210.0
 20
56.4999999999999929
 30
0.0
 11
210.0
 21
27.5000000000000107
 31
0.0
  0
ARC
  5
1671
  8
2
 10
165.2940231445475092
 20
41.9999999999999929
 30
0.0
 40
5.9953991311875692
 50
73.4681874285039953
 51
286.5318125714960047
  0
LINE
  5
1672
  8
1
 10
165.2940231445473955
 20
49.4953991311875612
 30
0.0
 11
165.2940231445475945
 21
34.5046008688124317
 31
0.0
  0
ARC
  5
1675
  8
0
 10
89.2000000000000455
 20
32.7999999999999901
 30
0.0
 40
1.200000000000002
 50
90.0
 51
179.999999999999801
  0
ARC
  5
1676
  8
0
 10
89.2000000000000455
 20
51.2000000000000028
 30
0.0
 40
1.200000000000002
 50
180.0
 51
270.0
  0
LINE
  5
1677
  8
0
 10
124.0
 20
33.9999999999999929
 30
0.0
 11
124.0
 21
50.0
 31
0.0
  0
LINE
  5
1678
  8
3
 10
124.0
 20
35.0824999999999818
 30
0.0
 11
122.1250550008067961
 21
34.0000000000000497
 31
0.0
  0
LINE
  5
1679
  8
3
 10
124.0
 20
48.9175000000000679
 30
0.0
 11
122.1250550008067961
 21
50.0
 31
0.0
  0
LINE
  5
167A
  8
3
 10
124.0
 20
48.9175000000000395
 30
0.0
 11
164.9824999999999022
 21
48.9175000000000395
 31
0.0
  0
LINE
  5
167B
  8
3
 10
124.0
 20
35.0824999999999321
 30
0.0
 11
164.9824999999999875
 21
35.0824999999999321
 31
0.0
  0
LINE
  5
167E
  8
0
 10
72.5
 20
108.0
 30
0.0
 11
72.0
 21
107.4999999999999005
 31
0.0
  0
LINE
  5
167F
  8
0
 10
72.0
 20
84.4999999999999858
 30
0.0
 11
72.5
 21
83.9999999999999858
 31
0.0
  0
LINE
  5
1680
  8
0
 10
88.0
 20
108.0
 30
0.0
 11
72.5
 21
108.0
 31
0.0
  0
LINE
  5
1681
  8
0
 10
72.5
 20
83.9999999999999858
 30
0.0
 11
88.0
 21
83.9999999999999858
 31
0.0
  0
LINE
  5
1682
  8
0
 10
163.9000000000000057
 20
104.0
 30
0.0
 11
89.2000000000000455
 21
104.0
 31
0.0
  0
LINE
  5
1683
  8
0
 10
89.2000000000000455
 20
87.9999999999999858
 30
0.0
 11
163.9000000000000057
 21
87.9999999999999858
 31
0.0
  0
LINE
  5
1684
  8
0
 10
163.9000000000000057
 20
87.9999999999999858
 30
0.0
 11
165.3000000000000114
 21
89.3999999999999915
 31
0.0
  0
LINE
  5
1685
  8
0
 10
165.3000000000000114
 20
102.5999999999999943
 30
0.0
 11
163.9000000000000057
 21
104.0
 31
0.0
  0
LINE
  5
1686
  8
0
 10
167.0
 20
102.5999999999999943
 30
0.0
 11
165.3000000000000114
 21
102.5999999999999943
 31
0.0
  0
LINE
  5
1687
  8
0
 10
165.3000000000000114
 20
89.3999999999999915
 30
0.0
 11
167.0
 21
89.3999999999999915
 31
0.0
  0
LINE
  5
1688
  8
0
 10
72.5
 20
108.0
 30
0.0
 11
72.5
 21
83.9999999999999858
 31
0.0
  0
LINE
  5
1689
  8
0
 10
72.0
 20
107.4999999999999005
 30
0.0
 11
72.0
 21
84.4999999999999858
 31
0.0
  0
LINE
  5
168A
  8
0
 10
88.0
 20
83.9999999999999858
 30
0.0
 11
88.0
 21
108.0
 31
0.0
  0
LINE
  5
168B
  8
0
 10
163.9000000000000057
 20
104.0
 30
0.0
 11
163.9000000000000057
 21
87.9999999999999858
 31
0.0
  0
LINE
  5
168C
  8
0
 10
165.3000000000000114
 20
102.5999999999999943
 30
0.0
 11
165.3000000000000114
 21
89.3999999999999915
 31
0.0
  0
LINE
  5
168D
  8
0
 10
167.0
 20
102.5999999999999943
 30
0.0
 11
167.0
 21
89.3999999999999915
 31
0.0
  0
LINE
  5
168E
  8
1
 10
69.5
 20
95.9999999999999716
 30
0.0
 11
170.5
 21
95.9999999999999432
 31
0.0
  0
ARC
  5
1692
  8
2
 10
165.2940231445475092
 20
95.9999999999999716
 30
0.0
 40
5.9953991311875692
 50
73.4681874285039953
 51
286.5318125714960047
  0
LINE
  5
1693
  8
1
 10
165.2940231445473955
 20
103.4953991311874972
 30
0.0
 11
165.2940231445475945
 21
88.5046008688124033
 31
0.0
  0
ARC
  5
1694
  8
0
 10
89.2000000000000455
 20
86.7999999999999687
 30
0.0
 40
1.200000000000002
 50
90.0
 51
179.9999999999996021
  0
ARC
  5
1695
  8
0
 10
89.2000000000000455
 20
105.2000000000000028
 30
0.0
 40
1.200000000000002
 50
180.0
 51
270.0
  0
LINE
  5
1696
  8
0
 10
124.0
 20
87.9999999999999716
 30
0.0
 11
124.0
 21
104.0
 31
0.0
  0
LINE
  5
1697
  8
3
 10
124.0
 20
89.0824999999999534
 30
0.0
 11
122.1250550008067961
 21
88.0000000000000142
 31
0.0
  0
LINE
  5
1698
  8
3
 10
124.0
 20
102.917500000000004
 30
0.0
 11
122.1250550008067961
 21
104.0
 31
0.0
  0
LINE
  5
1699
  8
3
 10
124.0
 20
102.917500000000004
 30
0.0
 11
164.9824999999999875
 21
102.917500000000004
 31
0.0
  0
LINE
  5
169A
  8
3
 10
124.0
 20
89.082499999999925
 30
0.0
 11
164.9824999999999875
 21
89.082499999999925
 31
0.0
  0
CIRCLE
  5
169C
  8
3
 10
210.0
 20
42.0
 30
0.0
 40
6.9175000000000386
  0
LINE
  5
16D7
  8
2
 10
82.0
 20
33.917096231399988
 30
0.0
 11
72.0
 21
33.917096231399988
 31
0.0
  0
LINE
  5
16D8
  8
2
 10
82.0
 20
50.0829037686999783
 30
0.0
 11
72.0
 21
50.0829037686999783
 31
0.0
  0
LINE
  5
16D9
  8
2
 10
82.0000000000000568
 20
50.0829037686999783
 30
0.0
 11
82.0
 21
33.9170962314000022
 31
0.0
  0
LINE
  5
16DA
  8
2
 10
86.0414518843273299
 20
41.9999999999999929
 30
0.0
 11
82.0000000000000568
 21
50.0829037686999783
 31
0.0
  0
LINE
  5
16DB
  8
2
 10
82.0
 20
33.9170962314000022
 30
0.0
 11
86.0414518843273299
 21
41.9999999999999929
 31
0.0
  0
LINE
  5
16DC
  8
2
 10
82.0
 20
37.9585481156999904
 30
0.0
 11
72.0
 21
37.9585481156999904
 31
0.0
  0
LINE
  5
16DD
  8
2
 10
82.0
 20
88.9999999999999574
 30
0.0
 11
72.0
 21
88.9999999999999574
 31
0.0
  0
LINE
  5
16DE
  8
2
 10
82.0
 20
103.0
 30
0.0
 11
72.0
 21
103.0
 31
0.0
  0
LINE
  5
16DF
  8
2
 10
82.0
 20
103.0
 30
0.0
 11
82.0
 21
88.9999999999999574
 31
0.0
  0
LINE
  5
16E0
  8
2
 10
86.0414518843273299
 20
95.9999999999999716
 30
0.0
 11
82.0
 21
103.0
 31
0.0
  0
LINE
  5
16E1
  8
2
 10
82.0
 20
88.9999999999999574
 30
0.0
 11
86.0414518843273299
 21
95.9999999999999716
 31
0.0
  0
LINE
  5
16E2
  8
2
 10
82.0
 20
95.9999999999999716
 30
0.0
 11
72.0
 21
95.9999999999999716
 31
0.0
  0
LINE
  5
16E7
  8
2
 10
82.0
 20
46.0414518842999811
 30
0.0
 11
72.0
 21
46.0414518842999811
 31
0.0
  0
ARC
  5
20BA
  8
0
 10
211.8697379308347024
 20
40.2127052973364982
 30
0.0
 40
4.2909538991716012
 50
30.6468831772583385
 51
35.3716505915380282
  0
LINE
  5
20BB
  8
0
 10
204.4386462644999938
 20
42.3999999999999915
 30
0.0
 11
215.5613537353999902
 21
42.3999999999999915
 31
0.0
  0
ARC
  5
20BC
  8
0
 10
207.1439971746551123
 20
40.8534200214419201
 30
0.0
 40
3.1162209769452551
 50
143.7369662000542974
 51
150.244500031145094
  0
LINE
  5
20BD
  8
0
 10
204.5549421149999034
 20
43.1999999999999886
 30
0.0
 11
215.4450578850000113
 21
43.1999999999999886
 31
0.0
  0
ARC
  5
20BE
  8
0
 10
213.1376688468913017
 20
43.8671333997115411
 30
0.0
 40
2.4018974054265532
 50
336.9042611184933094
 51
343.8738777243975733
  0
ARC
  5
20BF
  8
0
 10
206.6493352388447988
 20
43.7912431766906494
 30
0.0
 40
2.1762470106106542
 50
195.7642717617621884
 51
203.4575893953918069
  0
ARC
  5
20C0
  8
0
 10
212.3141584575575962
 20
40.895460070825429
 30
0.0
 40
3.887600225064137
 50
36.3554179163917865
 51
40.2705941130081371
  0
ARC
  5
20C1
  8
0
 10
209.1764357780020873
 20
39.7177101782146167
 30
0.0
 40
5.786583282048162
 50
140.3719679895795878
 51
143.0020199810151098
  0
ARC
  5
20C2
  8
0
 10
215.661396876024412
 20
44.2290370343333592
 30
0.0
 40
0.6163316337581028
 50
218.1234641473066915
 51
221.5292048874433988
  0
LINE
  5
20C3
  8
0
 10
204.795323701599898
 20
44.0
 30
0.0
 11
215.2046762983999031
 21
44.0
 31
0.0
  0
ARC
  5
20C4
  8
0
 10
213.086151285278504
 20
44.315212129567648
 30
0.0
 40
2.1418466139870929
 50
347.4152658425563232
 51
351.5371335951455194
  0
ARC
  5
20C5
  8
0
 10
206.6716011196442935
 20
44.2702100977702386
 30
0.0
 40
1.895634576177599
 50
188.1950456392189039
 51
192.8525548499899003
  0
ARC
  5
20C6
  8
0
 10
212.1036795756978108
 20
41.1430073520155872
 30
0.0
 40
4.21646625325595
 50
42.6548136464752901
 51
50.574051852472202
  0
ARC
  5
20C7
  8
0
 10
207.9122094430215952
 20
41.1261967061156284
 30
0.0
 40
4.2395426754567698
 50
129.4475350103990081
 51
137.3235995041613933
  0
LINE
  5
20C8
  8
0
 10
205.071999999999889
 20
42.0
 30
0.0
 11
205.328000000000003
 21
42.0
 31
0.0
  0
LINE
  5
20C9
  8
0
 10
205.5999999999999091
 20
41.7279999999999873
 30
0.0
 11
205.328000000000003
 21
42.0
 31
0.0
  0
LINE
  5
20CA
  8
0
 10
205.8720000000000141
 20
42.0
 30
0.0
 11
205.5999999999999091
 21
41.7279999999999873
 31
0.0
  0
LINE
  5
20CB
  8
0
 10
205.8720000000000141
 20
42.0
 30
0.0
 11
206.1279999999999006
 21
42.0
 31
0.0
  0
LINE
  5
20CC
  8
0
 10
206.4000000000000057
 20
41.7279999999999873
 30
0.0
 11
206.1279999999999006
 21
42.0
 31
0.0
  0
LINE
  5
20CD
  8
0
 10
206.671999999999997
 20
42.0
 30
0.0
 11
206.4000000000000057
 21
41.7279999999999873
 31
0.0
  0
LINE
  5
20CE
  8
0
 10
206.671999999999997
 20
42.0
 30
0.0
 11
206.9279999999999973
 21
42.0
 31
0.0
  0
LINE
  5
20CF
  8
0
 10
215.1999999999999034
 20
41.7279999999999873
 30
0.0
 11
214.928000000000111
 21
42.0
 31
0.0
  0
LINE
  5
20D0
  8
0
 10
215.3964043495932117
 20
41.9244043496262222
 30
0.0
 11
215.1999999999999034
 21
41.7279999999999873
 31
0.0
  0
ARC
  5
20D1
  8
0
 10
212.4661258096350878
 20
40.2303121246978819
 30
0.0
 40
3.3847423518344968
 50
23.8701565977645416
 51
30.0336459872406998
  0
ARC
  5
20D2
  8
0
 10
207.0432770760415053
 20
40.4797652921353333
 30
0.0
 40
2.83531787728589
 50
149.3684218685795884
 51
156.7277755310973077
  0
LINE
  5
20D3
  8
0
 10
204.8000000000000114
 20
41.7279999999999873
 30
0.0
 11
204.6035956503559134
 21
41.9244043496240621
 31
0.0
  0
LINE
  5
20D4
  8
0
 10
205.071999999999889
 20
42.0
 30
0.0
 11
204.8000000000000114
 21
41.7279999999999873
 31
0.0
  0
ARC
  5
20D5
  8
0
 10
212.8195906058830076
 20
43.5899621682598166
 30
0.0
 40
2.9888584811375898
 50
329.557691055872624
 51
336.5385063643108765
  0
LINE
  5
20D6
  8
0
 10
215.1999999999999034
 20
42.2719999999999771
 30
0.0
 11
215.3964043495932117
 21
42.0755956503737991
 31
0.0
  0
LINE
  5
20D7
  8
0
 10
214.928000000000111
 20
42.0
 30
0.0
 11
215.1999999999999034
 21
42.2719999999999771
 31
0.0
  0
LINE
  5
20D8
  8
0
 10
206.4000000000000057
 20
42.2719999999999771
 30
0.0
 11
206.671999999999997
 21
42.0
 31
0.0
  0
LINE
  5
20D9
  8
0
 10
206.1279999999999006
 20
42.0
 30
0.0
 11
206.4000000000000057
 21
42.2719999999999771
 31
0.0
  0
LINE
  5
20DA
  8
0
 10
205.5999999999999091
 20
42.2719999999999771
 30
0.0
 11
205.8720000000000141
 21
42.0
 31
0.0
  0
LINE
  5
20DB
  8
0
 10
205.328000000000003
 20
42.0
 30
0.0
 11
205.5999999999999091
 21
42.2719999999999771
 31
0.0
  0
LINE
  5
20DC
  8
0
 10
204.8000000000000114
 20
42.2719999999999771
 30
0.0
 11
205.071999999999889
 21
42.0
 31
0.0
  0
LINE
  5
20DD
  8
0
 10
204.6035956503559134
 20
42.0755956503759592
 30
0.0
 11
204.8000000000000114
 21
42.2719999999999771
 31
0.0
  0
ARC
  5
20DE
  8
0
 10
207.1191269294963035
 20
43.5588019672084314
 30
0.0
 40
2.9202394755611238
 50
203.3793717507118117
 51
210.5244308432338016
  0
ARC
  5
20DF
  8
0
 10
209.9559246408971944
 20
39.3876434022636914
 30
0.0
 40
8.0552942817616948
 50
92.5324489099625822
 51
98.2503546411315796
  0
ARC
  5
20E0
  8
0
 10
209.899256940046314
 20
39.618469425992231
 30
0.0
 40
7.8187591536355132
 50
98.0821186297146141
 51
104.1500003964991947
  0
ARC
  5
20E1
  8
0
 10
208.9798620394180091
 20
45.9768563420431775
 30
0.0
 40
1.574840567709338
 50
129.0426065465674128
 51
148.4875514759586963
  0
ARC
  5
20E2
  8
0
 10
209.7541488083465993
 20
39.4643733811996924
 30
0.0
 40
7.6349590702341246
 50
106.0968308241925939
 51
107.9668909687864016
  0
ARC
  5
20E3
  8
0
 10
207.1327564800382106
 20
44.8785687543100025
 30
0.0
 40
1.8675221915132689
 50
81.8032877584945481
 51
87.9365156086168156
  0
ARC
  5
20E4
  8
0
 10
211.1289751333393951
 20
43.5232046092790199
 30
0.0
 40
5.0809484882382216
 50
140.6489822615405103
 51
142.3896519112358021
  0
ARC
  5
20E5
  8
0
 10
209.3988666263188918
 20
40.473207063896588
 30
0.0
 40
6.56501891183518
 50
110.4608371114547936
 51
115.4735628234917044
  0
ARC
  5
20E6
  8
0
 10
207.9967023207686907
 20
45.7208109697439369
 30
0.0
 40
1.5753468481379951
 50
154.4603130700178042
 51
162.9880134538979064
  0
ARC
  5
20E7
  8
0
 10
206.6547647501971028
 20
44.473437259184081
 30
0.0
 40
1.716175641934288
 50
95.4996504057817646
 51
98.537061021447343
  0
ARC
  5
20E8
  8
0
 10
211.2455561544375087
 20
43.1019788225913629
 30
0.0
 40
5.7354892216484847
 50
147.6545254028524994
 51
150.8808687971059044
  0
ARC
  5
20E9
  8
0
 10
208.9095094783959041
 20
40.8346666799562499
 30
0.0
 40
5.721896376041018
 50
117.8669987090645037
 51
123.6100540253123938
  0
ARC
  5
20EA
  8
0
 10
207.4255688158177122
 20
45.2724242079061128
 30
0.0
 40
1.7149213496688951
 50
168.9879725624693947
 51
177.1009803256434054
  0
ARC
  5
20EB
  8
0
 10
206.2226081323248934
 20
43.8671763029171728
 30
0.0
 40
1.57666425057902
 50
108.8637800699857934
 51
113.2590816399015949
  0
ARC
  5
20EC
  8
0
 10
212.4743506196467138
 20
42.2477779846923909
 30
0.0
 40
7.5278721870528056
 50
155.9494728509201877
 51
158.2012622672961868
  0
ARC
  5
20ED
  8
0
 10
208.4435019274814067
 20
41.0008263925883298
 30
0.0
 40
5.0095081549903098
 50
126.2012985725118028
 51
130.677308145669997
  0
ARC
  5
20EE
  8
0
 10
207.0861866693774118
 20
44.7897738114855315
 30
0.0
 40
1.907900022342556
 50
179.6928978243078916
 51
191.7882130093856858
  0
ARC
  5
20EF
  8
0
 10
204.7292318573852015
 20
43.9032731514685821
 30
0.0
 40
0.1089713112756567
 50
310.4978822281692032
 51
329.8494489767393816
  0
ARC
  5
20F0
  8
0
 10
212.7155508133627961
 20
42.0619469098492118
 30
0.0
 40
8.1085220871595656
 50
167.4749868084662126
 51
170.4415404078434051
  0
ARC
  5
20F1
  8
0
 10
213.129034432280605
 20
42.008302038840803
 30
0.0
 40
8.5255110319807788
 50
173.8277663718369865
 51
175.3689558925765084
  0
ARC
  5
20F2
  8
0
 10
213.2772904750000009
 20
42.0
 30
0.0
 40
8.6740242456089973
 50
179.5006508598997925
 51
180.4993491401000938
  0
ARC
  5
20F3
  8
0
 10
209.0264160027207083
 20
38.0639487181815426
 30
0.0
 40
1.635890610393848
 50
211.8786080513901879
 51
230.5912339254973062
  0
ARC
  5
20F4
  8
0
 10
209.8167540526773962
 20
43.9616328585093967
 30
0.0
 40
7.3914674716196771
 50
255.6744325562818858
 51
262.0934484203785928
  0
ARC
  5
20F5
  8
0
 10
209.9297642442631116
 20
44.3351645380814929
 30
0.0
 40
7.7772294359523002
 50
261.6473376441787195
 51
267.5698588191090721
  0
ARC
  5
20F6
  8
0
 10
210.0
 20
45.1476332231999891
 30
0.0
 40
8.5920197839963848
 50
267.3316403894507971
 51
272.6683596105492029
  0
ARC
  5
20F7
  8
0
 10
210.0419453166641972
 20
44.6349262540950988
 30
0.0
 40
8.0779360909714466
 50
272.5404689483270886
 51
278.2423345880974921
  0
ARC
  5
20F8
  8
0
 10
210.4273997314105031
 20
42.7190143299054768
 30
0.0
 40
6.1274865479207294
 50
277.2435694819558876
 51
284.9885495443401737
  0
ARC
  5
20F9
  8
0
 10
211.0156110351518066
 20
38.0271115577307413
 30
0.0
 40
1.580774175896942
 50
309.0794532393256873
 51
328.4507047844149952
  0
ARC
  5
20FA
  8
0
 10
206.722709525199889
 20
42.0
 30
0.0
 40
8.6740242453582983
 50
359.5006508598997925
 51
0.4993491401001774
  0
ARC
  5
20FB
  8
0
 10
208.4914781383305922
 20
42.1615323474198931
 30
0.0
 40
6.8979520608920444
 50
4.4492085308595959
 51
6.3540691549570374
  0
ARC
  5
20FC
  8
0
 10
207.3245146066107907
 20
42.0697651307398814
 30
0.0
 40
8.0677147315119981
 50
9.5509553317433369
 51
12.5325174519438391
  0
ARC
  5
20FD
  8
0
 10
212.9260537813057965
 20
44.7885433010316802
 30
0.0
 40
1.8956667859058269
 50
348.172612859210119
 51
0.3462763070956096
  0
ARC
  5
20FE
  8
0
 10
211.565676644992692
 20
41.0123905642469708
 30
0.0
 40
4.9947554306404562
 50
49.3160782083744493
 51
53.8053150734306129
  0
ARC
  5
20FF
  8
0
 10
207.7409175862088944
 20
42.3388199186025886
 30
0.0
 40
7.2941902098362927
 50
21.7626628650640406
 51
24.0866019810217011
  0
ARC
  5
2100
  8
0
 10
213.7909357446341971
 20
43.9023465532557324
 30
0.0
 40
1.5390046786580329
 50
66.6871142984189333
 51
71.1900239917019348
  0
ARC
  5
2101
  8
0
 10
212.5826163092175136
 20
45.2734227659245221
 30
0.0
 40
1.706696296529544
 50
2.879437265020047
 51
11.0316098468660506
  0
ARC
  5
2102
  8
0
 10
211.1435036233673941
 20
40.923814314448073
 30
0.0
 40
5.6183097280789269
 50
56.3369570589659077
 51
62.1859902168587766
  0
ARC
  5
2103
  8
0
 10
208.7282991055429875
 20
43.0864352703021822
 30
0.0
 40
5.765893499765669
 50
29.1276398748401917
 51
32.3369658946878218
  0
ARC
  5
2104
  8
0
 10
213.3511582793171897
 20
44.521549033383792
 30
0.0
 40
1.667718170277017
 50
81.4188004545865454
 51
84.5444881181458925
  0
ARC
  5
2105
  8
0
 10
211.9829247624223001
 20
45.7128777969873497
 30
0.0
 40
1.597150168340556
 50
17.0702995397911188
 51
25.4813739819445715
  0
ARC
  5
2106
  8
0
 10
210.5912427562238065
 20
40.4498690927363285
 30
0.0
 40
6.590342049063592
 50
64.5360738921059891
 51
69.5295261729504261
  0
ARC
  5
2107
  8
0
 10
208.1921207388380992
 20
42.9835534991784414
 30
0.0
 40
5.9481196933053679
 50
37.7372411476131902
 51
39.2241246213908781
  0
ARC
  5
2108
  8
0
 10
212.8675630801803038
 20
44.8750092698958198
 30
0.0
 40
1.8710908838725979
 50
92.069338851062497
 51
98.1908577766985502
  0
ARC
  5
2109
  8
0
 10
210.1071229139207901
 20
39.0115144562394178
 30
0.0
 40
8.1085311261705186
 50
72.0877231213326866
 51
73.8485550856676838
  0
ARC
  5
210A
  8
0
 10
211.0248486864416009
 20
45.9809853450933517
 30
0.0
 40
1.568666742096974
 50
31.4738098541449212
 51
50.9960321233134479
  0
ARC
  5
210B
  8
0
 10
210.0928452611389048
 20
39.5782736498928784
 30
0.0
 40
7.8596663568844747
 50
75.8658050137868827
 51
81.90207595733294
  0
ARC
  5
210C
  8
0
 10
210.0395587563598099
 20
39.3397860826067571
 30
0.0
 40
8.1033047835625016
 50
81.7665980446670204
 51
87.4505984042395141
  0
ARC
  5
210D
  8
0
 10
210.0
 20
38.8523667768999914
 30
0.0
 40
8.5920197840187686
 50
87.3316403894573341
 51
92.6683596105426659
  0
LINE
  5
210E
  8
0
 10
215.1999999999999034
 20
41.7279999999999873
 30
0.0
 11
215.1999999999999034
 21
42.2719999999999771
 31
0.0
  0
LINE
  5
210F
  8
0
 10
205.1783140529998946
 20
44.7999999999999901
 30
0.0
 11
214.8216859469000042
 21
44.7999999999999901
 31
0.0
  0
LINE
  5
2110
  8
0
 10
206.5752875490998974
 20
46.3999999999999915
 30
0.0
 11
213.4247124507998876
 21
46.3999999999999915
 31
0.0
  0
LINE
  5
2111
  8
0
 10
205.7422241285999007
 20
45.5999999999999872
 30
0.0
 11
214.257775871400014
 21
45.5999999999999872
 31
0.0
  0
LINE
  5
2112
  8
0
 10
207.9878729236999106
 20
36.7999999999999972
 30
0.0
 11
212.0121270761999028
 21
36.7999999999999972
 31
0.0
  0
LINE
  5
2113
  8
0
 10
207.9878729236999106
 20
47.1999999999999815
 30
0.0
 11
212.0121270761999028
 21
47.1999999999999815
 31
0.0
  0
LINE
  5
2114
  8
0
 10
205.5999999999999091
 20
41.7279999999999873
 30
0.0
 11
205.5999999999999091
 21
42.2719999999999771
 31
0.0
  0
LINE
  5
2115
  8
0
 10
206.4000000000000057
 20
41.7279999999999873
 30
0.0
 11
206.4000000000000057
 21
42.2719999999999771
 31
0.0
  0
LINE
  5
2116
  8
0
 10
204.8000000000000114
 20
41.7279999999999873
 30
0.0
 11
204.8000000000000114
 21
42.2719999999999771
 31
0.0
  0
LINE
  5
2117
  8
0
 10
207.1999999999999034
 20
41.7279999999999873
 30
0.0
 11
206.9279999999999973
 21
42.0
 31
0.0
  0
LINE
  5
2118
  8
0
 10
207.4720000000000084
 20
42.0
 30
0.0
 11
207.1999999999999034
 21
41.7279999999999873
 31
0.0
  0
LINE
  5
2119
  8
0
 10
207.4720000000000084
 20
42.0
 30
0.0
 11
207.7280000000000086
 21
42.0
 31
0.0
  0
LINE
  5
211A
  8
0
 10
208.0
 20
41.7279999999999873
 30
0.0
 11
207.7280000000000086
 21
42.0
 31
0.0
  0
LINE
  5
211B
  8
0
 10
208.272000000000105
 20
42.0
 30
0.0
 11
208.0
 21
41.7279999999999873
 31
0.0
  0
LINE
  5
211C
  8
0
 10
208.272000000000105
 20
42.0
 30
0.0
 11
208.5279999999999916
 21
42.0
 31
0.0
  0
LINE
  5
211D
  8
0
 10
208.0
 20
42.2719999999999771
 30
0.0
 11
208.272000000000105
 21
42.0
 31
0.0
  0
LINE
  5
211E
  8
0
 10
207.7280000000000086
 20
42.0
 30
0.0
 11
208.0
 21
42.2719999999999771
 31
0.0
  0
LINE
  5
211F
  8
0
 10
207.1999999999999034
 20
42.2719999999999771
 30
0.0
 11
207.4720000000000084
 21
42.0
 31
0.0
  0
LINE
  5
2120
  8
0
 10
206.9279999999999973
 20
42.0
 30
0.0
 11
207.1999999999999034
 21
42.2719999999999771
 31
0.0
  0
LINE
  5
2121
  8
0
 10
207.1999999999999034
 20
41.7279999999999873
 30
0.0
 11
207.1999999999999034
 21
42.2719999999999771
 31
0.0
  0
LINE
  5
2122
  8
0
 10
208.0
 20
41.7279999999999873
 30
0.0
 11
208.0
 21
42.2719999999999771
 31
0.0
  0
LINE
  5
2123
  8
0
 10
208.8000000000000114
 20
41.7279999999999873
 30
0.0
 11
208.5279999999999916
 21
42.0
 31
0.0
  0
LINE
  5
2124
  8
0
 10
209.0720000000000027
 20
42.0
 30
0.0
 11
208.8000000000000114
 21
41.7279999999999873
 31
0.0
  0
LINE
  5
2125
  8
0
 10
209.0720000000000027
 20
42.0
 30
0.0
 11
209.328000000000003
 21
42.0
 31
0.0
  0
LINE
  5
2126
  8
0
 10
209.5999999999999943
 20
41.7279999999999873
 30
0.0
 11
209.328000000000003
 21
42.0
 31
0.0
  0
LINE
  5
2127
  8
0
 10
209.8720000000000994
 20
42.0
 30
0.0
 11
209.5999999999999943
 21
41.7279999999999873
 31
0.0
  0
LINE
  5
2128
  8
0
 10
209.8720000000000994
 20
42.0
 30
0.0
 11
210.1279999999999859
 21
42.0
 31
0.0
  0
LINE
  5
2129
  8
0
 10
209.5999999999999943
 20
42.2719999999999771
 30
0.0
 11
209.8720000000000994
 21
42.0
 31
0.0
  0
LINE
  5
212A
  8
0
 10
209.328000000000003
 20
42.0
 30
0.0
 11
209.5999999999999943
 21
42.2719999999999771
 31
0.0
  0
LINE
  5
212B
  8
0
 10
208.8000000000000114
 20
42.2719999999999771
 30
0.0
 11
209.0720000000000027
 21
42.0
 31
0.0
  0
LINE
  5
212C
  8
0
 10
208.5279999999999916
 20
42.0
 30
0.0
 11
208.8000000000000114
 21
42.2719999999999771
 31
0.0
  0
LINE
  5
212D
  8
0
 10
208.8000000000000114
 20
41.7279999999999873
 30
0.0
 11
208.8000000000000114
 21
42.2719999999999771
 31
0.0
  0
LINE
  5
212E
  8
0
 10
209.5999999999999943
 20
41.7279999999999873
 30
0.0
 11
209.5999999999999943
 21
42.2719999999999771
 31
0.0
  0
LINE
  5
212F
  8
0
 10
210.4000000000000057
 20
41.7279999999999873
 30
0.0
 11
210.1279999999999859
 21
42.0
 31
0.0
  0
LINE
  5
2130
  8
0
 10
210.671999999999997
 20
42.0
 30
0.0
 11
210.4000000000000057
 21
41.7279999999999873
 31
0.0
  0
LINE
  5
2131
  8
0
 10
210.671999999999997
 20
42.0
 30
0.0
 11
210.9279999999999973
 21
42.0
 31
0.0
  0
LINE
  5
2132
  8
0
 10
211.1999999999999886
 20
41.7279999999999873
 30
0.0
 11
210.9279999999999973
 21
42.0
 31
0.0
  0
LINE
  5
2133
  8
0
 10
211.4720000000000937
 20
42.0
 30
0.0
 11
211.1999999999999886
 21
41.7279999999999873
 31
0.0
  0
LINE
  5
2134
  8
0
 10
211.4720000000000937
 20
42.0
 30
0.0
 11
211.7280000000000086
 21
42.0
 31
0.0
  0
LINE
  5
2135
  8
0
 10
211.1999999999999886
 20
42.2719999999999771
 30
0.0
 11
211.4720000000000937
 21
42.0
 31
0.0
  0
LINE
  5
2136
  8
0
 10
210.9279999999999973
 20
42.0
 30
0.0
 11
211.1999999999999886
 21
42.2719999999999771
 31
0.0
  0
LINE
  5
2137
  8
0
 10
210.4000000000000057
 20
42.2719999999999771
 30
0.0
 11
210.671999999999997
 21
42.0
 31
0.0
  0
LINE
  5
2138
  8
0
 10
210.1279999999999859
 20
42.0
 30
0.0
 11
210.4000000000000057
 21
42.2719999999999771
 31
0.0
  0
LINE
  5
2139
  8
0
 10
210.4000000000000057
 20
41.7279999999999873
 30
0.0
 11
210.4000000000000057
 21
42.2719999999999771
 31
0.0
  0
LINE
  5
213A
  8
0
 10
211.1999999999999886
 20
41.7279999999999873
 30
0.0
 11
211.1999999999999886
 21
42.2719999999999771
 31
0.0
  0
LINE
  5
213B
  8
0
 10
212.0
 20
41.7279999999999873
 30
0.0
 11
211.7280000000000086
 21
42.0
 31
0.0
  0
LINE
  5
213C
  8
0
 10
212.272000000000105
 20
42.0
 30
0.0
 11
212.0
 21
41.7279999999999873
 31
0.0
  0
LINE
  5
213D
  8
0
 10
212.272000000000105
 20
42.0
 30
0.0
 11
212.5279999999999916
 21
42.0
 31
0.0
  0
LINE
  5
213E
  8
0
 10
212.8000000000000966
 20
41.7279999999999873
 30
0.0
 11
212.5279999999999916
 21
42.0
 31
0.0
  0
LINE
  5
213F
  8
0
 10
213.072000000000088
 20
42.0
 30
0.0
 11
212.8000000000000966
 21
41.7279999999999873
 31
0.0
  0
LINE
  5
2140
  8
0
 10
213.072000000000088
 20
42.0
 30
0.0
 11
213.3280000000000882
 21
42.0
 31
0.0
  0
LINE
  5
2141
  8
0
 10
212.8000000000000966
 20
42.2719999999999771
 30
0.0
 11
213.072000000000088
 21
42.0
 31
0.0
  0
LINE
  5
2142
  8
0
 10
212.5279999999999916
 20
42.0
 30
0.0
 11
212.8000000000000966
 21
42.2719999999999771
 31
0.0
  0
LINE
  5
2143
  8
0
 10
212.0
 20
42.2719999999999771
 30
0.0
 11
212.272000000000105
 21
42.0
 31
0.0
  0
LINE
  5
2144
  8
0
 10
211.7280000000000086
 20
42.0
 30
0.0
 11
212.0
 21
42.2719999999999771
 31
0.0
  0
LINE
  5
2145
  8
0
 10
212.0
 20
41.7279999999999873
 30
0.0
 11
212.0
 21
42.2719999999999771
 31
0.0
  0
LINE
  5
2146
  8
0
 10
212.8000000000000966
 20
41.7279999999999873
 30
0.0
 11
212.8000000000000966
 21
42.2719999999999771
 31
0.0
  0
LINE
  5
2147
  8
0
 10
213.5999999999999943
 20
41.7279999999999873
 30
0.0
 11
213.3280000000000882
 21
42.0
 31
0.0
  0
LINE
  5
2148
  8
0
 10
213.8720000000000994
 20
42.0
 30
0.0
 11
213.5999999999999943
 21
41.7279999999999873
 31
0.0
  0
LINE
  5
2149
  8
0
 10
213.8720000000000994
 20
42.0
 30
0.0
 11
214.1279999999999859
 21
42.0
 31
0.0
  0
LINE
  5
214A
  8
0
 10
214.4000000000000909
 20
41.7279999999999873
 30
0.0
 11
214.1279999999999859
 21
42.0
 31
0.0
  0
LINE
  5
214B
  8
0
 10
214.6720000000001107
 20
42.0
 30
0.0
 11
214.4000000000000909
 21
41.7279999999999873
 31
0.0
  0
LINE
  5
214C
  8
0
 10
214.6720000000001107
 20
42.0
 30
0.0
 11
214.928000000000111
 21
42.0
 31
0.0
  0
LINE
  5
214D
  8
0
 10
214.4000000000000909
 20
42.2719999999999771
 30
0.0
 11
214.6720000000001107
 21
42.0
 31
0.0
  0
LINE
  5
214E
  8
0
 10
214.1279999999999859
 20
42.0
 30
0.0
 11
214.4000000000000909
 21
42.2719999999999771
 31
0.0
  0
LINE
  5
214F
  8
0
 10
213.5999999999999943
 20
42.2719999999999771
 30
0.0
 11
213.8720000000000994
 21
42.0
 31
0.0
  0
LINE
  5
2150
  8
0
 10
213.3280000000000882
 20
42.0
 30
0.0
 11
213.5999999999999943
 21
42.2719999999999771
 31
0.0
  0
LINE
  5
2151
  8
0
 10
213.5999999999999943
 20
41.7279999999999873
 30
0.0
 11
213.5999999999999943
 21
42.2719999999999771
 31
0.0
  0
LINE
  5
2152
  8
0
 10
214.4000000000000909
 20
41.7279999999999873
 30
0.0
 11
214.4000000000000909
 21
42.2719999999999771
 31
0.0
  0
LINE
  5
2153
  8
0
 10
205.071999999999889
 20
42.7999999999999972
 30
0.0
 11
205.328000000000003
 21
42.7999999999999972
 31
0.0
  0
LINE
  5
2154
  8
0
 10
205.5999999999999091
 20
42.5279999999999916
 30
0.0
 11
205.328000000000003
 21
42.7999999999999972
 31
0.0
  0
LINE
  5
2155
  8
0
 10
205.8720000000000141
 20
42.7999999999999972
 30
0.0
 11
205.5999999999999091
 21
42.5279999999999916
 31
0.0
  0
LINE
  5
2156
  8
0
 10
205.8720000000000141
 20
42.7999999999999972
 30
0.0
 11
206.1279999999999006
 21
42.7999999999999972
 31
0.0
  0
LINE
  5
2157
  8
0
 10
206.4000000000000057
 20
42.5279999999999916
 30
0.0
 11
206.1279999999999006
 21
42.7999999999999972
 31
0.0
  0
LINE
  5
2158
  8
0
 10
206.671999999999997
 20
42.7999999999999972
 30
0.0
 11
206.4000000000000057
 21
42.5279999999999916
 31
0.0
  0
LINE
  5
2159
  8
0
 10
206.671999999999997
 20
42.7999999999999972
 30
0.0
 11
206.9279999999999973
 21
42.7999999999999972
 31
0.0
  0
LINE
  5
215A
  8
0
 10
215.1999999999999034
 20
42.5279999999999916
 30
0.0
 11
214.928000000000111
 21
42.7999999999999972
 31
0.0
  0
LINE
  5
215B
  8
0
 10
215.3686431814298032
 20
42.6966431814580929
 30
0.0
 11
215.1999999999999034
 21
42.5279999999999916
 31
0.0
  0
LINE
  5
215C
  8
0
 10
204.8000000000000114
 20
42.5279999999999916
 30
0.0
 11
204.6313568184926908
 21
42.69664318149011
 31
0.0
  0
LINE
  5
215D
  8
0
 10
205.071999999999889
 20
42.7999999999999972
 30
0.0
 11
204.8000000000000114
 21
42.5279999999999916
 31
0.0
  0
LINE
  5
215E
  8
0
 10
215.1999999999999034
 20
43.0719999999999885
 30
0.0
 11
215.3470557919926023
 21
42.9249442079827119
 31
0.0
  0
LINE
  5
215F
  8
0
 10
214.928000000000111
 20
42.7999999999999972
 30
0.0
 11
215.1999999999999034
 21
43.0719999999999885
 31
0.0
  0
LINE
  5
2160
  8
0
 10
206.4000000000000057
 20
43.0719999999999885
 30
0.0
 11
206.671999999999997
 21
42.7999999999999972
 31
0.0
  0
LINE
  5
2161
  8
0
 10
206.1279999999999006
 20
42.7999999999999972
 30
0.0
 11
206.4000000000000057
 21
43.0719999999999885
 31
0.0
  0
LINE
  5
2162
  8
0
 10
205.5999999999999091
 20
43.0719999999999885
 30
0.0
 11
205.8720000000000141
 21
42.7999999999999972
 31
0.0
  0
LINE
  5
2163
  8
0
 10
205.328000000000003
 20
42.7999999999999972
 30
0.0
 11
205.5999999999999091
 21
43.0719999999999885
 31
0.0
  0
LINE
  5
2164
  8
0
 10
204.8000000000000114
 20
43.0719999999999885
 30
0.0
 11
205.071999999999889
 21
42.7999999999999972
 31
0.0
  0
LINE
  5
2165
  8
0
 10
204.6529442079954038
 20
42.9249442080104302
 30
0.0
 11
204.8000000000000114
 21
43.0719999999999885
 31
0.0
  0
LINE
  5
2166
  8
0
 10
215.1999999999999034
 20
42.5279999999999916
 30
0.0
 11
215.1999999999999034
 21
43.0719999999999885
 31
0.0
  0
LINE
  5
2167
  8
0
 10
205.5999999999999091
 20
42.5279999999999916
 30
0.0
 11
205.5999999999999091
 21
43.0719999999999885
 31
0.0
  0
LINE
  5
2168
  8
0
 10
206.4000000000000057
 20
42.5279999999999916
 30
0.0
 11
206.4000000000000057
 21
43.0719999999999885
 31
0.0
  0
LINE
  5
2169
  8
0
 10
204.8000000000000114
 20
42.5279999999999916
 30
0.0
 11
204.8000000000000114
 21
43.0719999999999885
 31
0.0
  0
LINE
  5
216A
  8
0
 10
207.1999999999999034
 20
42.5279999999999916
 30
0.0
 11
206.9279999999999973
 21
42.7999999999999972
 31
0.0
  0
LINE
  5
216B
  8
0
 10
207.4720000000000084
 20
42.7999999999999972
 30
0.0
 11
207.1999999999999034
 21
42.5279999999999916
 31
0.0
  0
LINE
  5
216C
  8
0
 10
207.4720000000000084
 20
42.7999999999999972
 30
0.0
 11
207.7280000000000086
 21
42.7999999999999972
 31
0.0
  0
LINE
  5
216D
  8
0
 10
208.0
 20
42.5279999999999916
 30
0.0
 11
207.7280000000000086
 21
42.7999999999999972
 31
0.0
  0
LINE
  5
216E
  8
0
 10
208.272000000000105
 20
42.7999999999999972
 30
0.0
 11
208.0
 21
42.5279999999999916
 31
0.0
  0
LINE
  5
216F
  8
0
 10
208.272000000000105
 20
42.7999999999999972
 30
0.0
 11
208.5279999999999916
 21
42.7999999999999972
 31
0.0
  0
LINE
  5
2170
  8
0
 10
208.0
 20
43.0719999999999885
 30
0.0
 11
208.272000000000105
 21
42.7999999999999972
 31
0.0
  0
LINE
  5
2171
  8
0
 10
207.7280000000000086
 20
42.7999999999999972
 30
0.0
 11
208.0
 21
43.0719999999999885
 31
0.0
  0
LINE
  5
2172
  8
0
 10
207.1999999999999034
 20
43.0719999999999885
 30
0.0
 11
207.4720000000000084
 21
42.7999999999999972
 31
0.0
  0
LINE
  5
2173
  8
0
 10
206.9279999999999973
 20
42.7999999999999972
 30
0.0
 11
207.1999999999999034
 21
43.0719999999999885
 31
0.0
  0
LINE
  5
2174
  8
0
 10
207.1999999999999034
 20
42.5279999999999916
 30
0.0
 11
207.1999999999999034
 21
43.0719999999999885
 31
0.0
  0
LINE
  5
2175
  8
0
 10
208.0
 20
42.5279999999999916
 30
0.0
 11
208.0
 21
43.0719999999999885
 31
0.0
  0
LINE
  5
2176
  8
0
 10
208.8000000000000114
 20
42.5279999999999916
 30
0.0
 11
208.5279999999999916
 21
42.7999999999999972
 31
0.0
  0
LINE
  5
2177
  8
0
 10
209.0720000000000027
 20
42.7999999999999972
 30
0.0
 11
208.8000000000000114
 21
42.5279999999999916
 31
0.0
  0
LINE
  5
2178
  8
0
 10
209.0720000000000027
 20
42.7999999999999972
 30
0.0
 11
209.328000000000003
 21
42.7999999999999972
 31
0.0
  0
LINE
  5
2179
  8
0
 10
209.5999999999999943
 20
42.5279999999999916
 30
0.0
 11
209.328000000000003
 21
42.7999999999999972
 31
0.0
  0
LINE
  5
217A
  8
0
 10
209.8720000000000994
 20
42.7999999999999972
 30
0.0
 11
209.5999999999999943
 21
42.5279999999999916
 31
0.0
  0
LINE
  5
217B
  8
0
 10
209.8720000000000994
 20
42.7999999999999972
 30
0.0
 11
210.1279999999999859
 21
42.7999999999999972
 31
0.0
  0
LINE
  5
217C
  8
0
 10
209.5999999999999943
 20
43.0719999999999885
 30
0.0
 11
209.8720000000000994
 21
42.7999999999999972
 31
0.0
  0
LINE
  5
217D
  8
0
 10
209.328000000000003
 20
42.7999999999999972
 30
0.0
 11
209.5999999999999943
 21
43.0719999999999885
 31
0.0
  0
LINE
  5
217E
  8
0
 10
208.8000000000000114
 20
43.0719999999999885
 30
0.0
 11
209.0720000000000027
 21
42.7999999999999972
 31
0.0
  0
LINE
  5
217F
  8
0
 10
208.5279999999999916
 20
42.7999999999999972
 30
0.0
 11
208.8000000000000114
 21
43.0719999999999885
 31
0.0
  0
LINE
  5
2180
  8
0
 10
208.8000000000000114
 20
42.5279999999999916
 30
0.0
 11
208.8000000000000114
 21
43.0719999999999885
 31
0.0
  0
LINE
  5
2181
  8
0
 10
209.5999999999999943
 20
42.5279999999999916
 30
0.0
 11
209.5999999999999943
 21
43.0719999999999885
 31
0.0
  0
LINE
  5
2182
  8
0
 10
210.4000000000000057
 20
42.5279999999999916
 30
0.0
 11
210.1279999999999859
 21
42.7999999999999972
 31
0.0
  0
LINE
  5
2183
  8
0
 10
210.671999999999997
 20
42.7999999999999972
 30
0.0
 11
210.4000000000000057
 21
42.5279999999999916
 31
0.0
  0
LINE
  5
2184
  8
0
 10
210.671999999999997
 20
42.7999999999999972
 30
0.0
 11
210.9279999999999973
 21
42.7999999999999972
 31
0.0
  0
LINE
  5
2185
  8
0
 10
211.1999999999999886
 20
42.5279999999999916
 30
0.0
 11
210.9279999999999973
 21
42.7999999999999972
 31
0.0
  0
LINE
  5
2186
  8
0
 10
211.4720000000000937
 20
42.7999999999999972
 30
0.0
 11
211.1999999999999886
 21
42.5279999999999916
 31
0.0
  0
LINE
  5
2187
  8
0
 10
211.4720000000000937
 20
42.7999999999999972
 30
0.0
 11
211.7280000000000086
 21
42.7999999999999972
 31
0.0
  0
LINE
  5
2188
  8
0
 10
211.1999999999999886
 20
43.0719999999999885
 30
0.0
 11
211.4720000000000937
 21
42.7999999999999972
 31
0.0
  0
LINE
  5
2189
  8
0
 10
210.9279999999999973
 20
42.7999999999999972
 30
0.0
 11
211.1999999999999886
 21
43.0719999999999885
 31
0.0
  0
LINE
  5
218A
  8
0
 10
210.4000000000000057
 20
43.0719999999999885
 30
0.0
 11
210.671999999999997
 21
42.7999999999999972
 31
0.0
  0
LINE
  5
218B
  8
0
 10
210.1279999999999859
 20
42.7999999999999972
 30
0.0
 11
210.4000000000000057
 21
43.0719999999999885
 31
0.0
  0
LINE
  5
218C
  8
0
 10
210.4000000000000057
 20
42.5279999999999916
 30
0.0
 11
210.4000000000000057
 21
43.0719999999999885
 31
0.0
  0
LINE
  5
218D
  8
0
 10
211.1999999999999886
 20
42.5279999999999916
 30
0.0
 11
211.1999999999999886
 21
43.0719999999999885
 31
0.0
  0
LINE
  5
218E
  8
0
 10
212.0
 20
42.5279999999999916
 30
0.0
 11
211.7280000000000086
 21
42.7999999999999972
 31
0.0
  0
LINE
  5
218F
  8
0
 10
212.272000000000105
 20
42.7999999999999972
 30
0.0
 11
212.0
 21
42.5279999999999916
 31
0.0
  0
LINE
  5
2190
  8
0
 10
212.272000000000105
 20
42.7999999999999972
 30
0.0
 11
212.5279999999999916
 21
42.7999999999999972
 31
0.0
  0
LINE
  5
2191
  8
0
 10
212.8000000000000966
 20
42.5279999999999916
 30
0.0
 11
212.5279999999999916
 21
42.7999999999999972
 31
0.0
  0
LINE
  5
2192
  8
0
 10
213.072000000000088
 20
42.7999999999999972
 30
0.0
 11
212.8000000000000966
 21
42.5279999999999916
 31
0.0
  0
LINE
  5
2193
  8
0
 10
213.072000000000088
 20
42.7999999999999972
 30
0.0
 11
213.3280000000000882
 21
42.7999999999999972
 31
0.0
  0
LINE
  5
2194
  8
0
 10
212.8000000000000966
 20
43.0719999999999885
 30
0.0
 11
213.072000000000088
 21
42.7999999999999972
 31
0.0
  0
LINE
  5
2195
  8
0
 10
212.5279999999999916
 20
42.7999999999999972
 30
0.0
 11
212.8000000000000966
 21
43.0719999999999885
 31
0.0
  0
LINE
  5
2196
  8
0
 10
212.0
 20
43.0719999999999885
 30
0.0
 11
212.272000000000105
 21
42.7999999999999972
 31
0.0
  0
LINE
  5
2197
  8
0
 10
211.7280000000000086
 20
42.7999999999999972
 30
0.0
 11
212.0
 21
43.0719999999999885
 31
0.0
  0
LINE
  5
2198
  8
0
 10
212.0
 20
42.5279999999999916
 30
0.0
 11
212.0
 21
43.0719999999999885
 31
0.0
  0
LINE
  5
2199
  8
0
 10
212.8000000000000966
 20
42.5279999999999916
 30
0.0
 11
212.8000000000000966
 21
43.0719999999999885
 31
0.0
  0
LINE
  5
219A
  8
0
 10
213.5999999999999943
 20
42.5279999999999916
 30
0.0
 11
213.3280000000000882
 21
42.7999999999999972
 31
0.0
  0
LINE
  5
219B
  8
0
 10
213.8720000000000994
 20
42.7999999999999972
 30
0.0
 11
213.5999999999999943
 21
42.5279999999999916
 31
0.0
  0
LINE
  5
219C
  8
0
 10
213.8720000000000994
 20
42.7999999999999972
 30
0.0
 11
214.1279999999999859
 21
42.7999999999999972
 31
0.0
  0
LINE
  5
219D
  8
0
 10
214.4000000000000909
 20
42.5279999999999916
 30
0.0
 11
214.1279999999999859
 21
42.7999999999999972
 31
0.0
  0
LINE
  5
219E
  8
0
 10
214.6720000000001107
 20
42.7999999999999972
 30
0.0
 11
214.4000000000000909
 21
42.5279999999999916
 31
0.0
  0
LINE
  5
219F
  8
0
 10
214.6720000000001107
 20
42.7999999999999972
 30
0.0
 11
214.928000000000111
 21
42.7999999999999972
 31
0.0
  0
LINE
  5
21A0
  8
0
 10
214.4000000000000909
 20
43.0719999999999885
 30
0.0
 11
214.6720000000001107
 21
42.7999999999999972
 31
0.0
  0
LINE
  5
21A1
  8
0
 10
214.1279999999999859
 20
42.7999999999999972
 30
0.0
 11
214.4000000000000909
 21
43.0719999999999885
 31
0.0
  0
LINE
  5
21A2
  8
0
 10
213.5999999999999943
 20
43.0719999999999885
 30
0.0
 11
213.8720000000000994
 21
42.7999999999999972
 31
0.0
  0
LINE
  5
21A3
  8
0
 10
213.3280000000000882
 20
42.7999999999999972
 30
0.0
 11
213.5999999999999943
 21
43.0719999999999885
 31
0.0
  0
LINE
  5
21A4
  8
0
 10
213.5999999999999943
 20
42.5279999999999916
 30
0.0
 11
213.5999999999999943
 21
43.0719999999999885
 31
0.0
  0
LINE
  5
21A5
  8
0
 10
214.4000000000000909
 20
42.5279999999999916
 30
0.0
 11
214.4000000000000909
 21
43.0719999999999885
 31
0.0
  0
LINE
  5
21A6
  8
0
 10
205.071999999999889
 20
43.5999999999999872
 30
0.0
 11
205.328000000000003
 21
43.5999999999999872
 31
0.0
  0
LINE
  5
21A7
  8
0
 10
205.5999999999999091
 20
43.3279999999999816
 30
0.0
 11
205.328000000000003
 21
43.5999999999999872
 31
0.0
  0
LINE
  5
21A8
  8
0
 10
205.8720000000000141
 20
43.5999999999999872
 30
0.0
 11
205.5999999999999091
 21
43.3279999999999816
 31
0.0
  0
LINE
  5
21A9
  8
0
 10
205.8720000000000141
 20
43.5999999999999872
 30
0.0
 11
206.1279999999999006
 21
43.5999999999999872
 31
0.0
  0
LINE
  5
21AA
  8
0
 10
206.4000000000000057
 20
43.3279999999999816
 30
0.0
 11
206.1279999999999006
 21
43.5999999999999872
 31
0.0
  0
LINE
  5
21AB
  8
0
 10
206.671999999999997
 20
43.5999999999999872
 30
0.0
 11
206.4000000000000057
 21
43.3279999999999816
 31
0.0
  0
LINE
  5
21AC
  8
0
 10
206.671999999999997
 20
43.5999999999999872
 30
0.0
 11
206.9279999999999973
 21
43.5999999999999872
 31
0.0
  0
LINE
  5
21AD
  8
0
 10
215.1999999999999034
 20
43.3279999999999816
 30
0.0
 11
214.928000000000111
 21
43.5999999999999872
 31
0.0
  0
LINE
  5
21AE
  8
0
 10
215.280398132393799
 20
43.408398132407271
 30
0.0
 11
215.1999999999999034
 21
43.3279999999999816
 31
0.0
  0
LINE
  5
21AF
  8
0
 10
204.8000000000000114
 20
43.3279999999999816
 30
0.0
 11
204.7196018675961966
 21
43.4083981323954973
 31
0.0
  0
LINE
  5
21B0
  8
0
 10
205.071999999999889
 20
43.5999999999999872
 30
0.0
 11
204.8000000000000114
 21
43.3279999999999816
 31
0.0
  0
LINE
  5
21B1
  8
0
 10
214.928000000000111
 20
43.5999999999999872
 30
0.0
 11
215.1765397114440077
 21
43.8485397114440119
 31
0.0
  0
LINE
  5
21B2
  8
0
 10
206.4000000000000057
 20
43.8719999999999928
 30
0.0
 11
206.671999999999997
 21
43.5999999999999872
 31
0.0
  0
LINE
  5
21B3
  8
0
 10
206.1279999999999006
 20
43.5999999999999872
 30
0.0
 11
206.4000000000000057
 21
43.8719999999999928
 31
0.0
  0
LINE
  5
21B4
  8
0
 10
205.5999999999999091
 20
43.8719999999999928
 30
0.0
 11
205.8720000000000141
 21
43.5999999999999872
 31
0.0
  0
LINE
  5
21B5
  8
0
 10
205.328000000000003
 20
43.5999999999999872
 30
0.0
 11
205.5999999999999091
 21
43.8719999999999928
 31
0.0
  0
LINE
  5
21B6
  8
0
 10
204.8234602885000015
 20
43.8485397114998889
 30
0.0
 11
205.071999999999889
 21
43.5999999999999872
 31
0.0
  0
LINE
  5
21B7
  8
0
 10
215.1999999999999034
 20
43.3279999999999816
 30
0.0
 11
215.2000000000001023
 21
43.8204081004998613
 31
0.0
  0
LINE
  5
21B8
  8
0
 10
205.5999999999999091
 20
43.3279999999999816
 30
0.0
 11
205.5999999999999091
 21
43.8719999999999928
 31
0.0
  0
LINE
  5
21B9
  8
0
 10
206.4000000000000057
 20
43.3279999999999816
 30
0.0
 11
206.4000000000000057
 21
43.8719999999999928
 31
0.0
  0
LINE
  5
21BA
  8
0
 10
204.8000000000000114
 20
43.3279999999999816
 30
0.0
 11
204.8000000000000966
 21
43.8204081005002166
 31
0.0
  0
LINE
  5
21BB
  8
0
 10
207.1999999999999034
 20
43.3279999999999816
 30
0.0
 11
206.9279999999999973
 21
43.5999999999999872
 31
0.0
  0
LINE
  5
21BC
  8
0
 10
207.4720000000000084
 20
43.5999999999999872
 30
0.0
 11
207.1999999999999034
 21
43.3279999999999816
 31
0.0
  0
LINE
  5
21BD
  8
0
 10
207.4720000000000084
 20
43.5999999999999872
 30
0.0
 11
207.7280000000000086
 21
43.5999999999999872
 31
0.0
  0
LINE
  5
21BE
  8
0
 10
208.0
 20
43.3279999999999816
 30
0.0
 11
207.7280000000000086
 21
43.5999999999999872
 31
0.0
  0
LINE
  5
21BF
  8
0
 10
208.272000000000105
 20
43.5999999999999872
 30
0.0
 11
208.0
 21
43.3279999999999816
 31
0.0
  0
LINE
  5
21C0
  8
0
 10
208.272000000000105
 20
43.5999999999999872
 30
0.0
 11
208.5279999999999916
 21
43.5999999999999872
 31
0.0
  0
LINE
  5
21C1
  8
0
 10
208.0
 20
43.8719999999999928
 30
0.0
 11
208.272000000000105
 21
43.5999999999999872
 31
0.0
  0
LINE
  5
21C2
  8
0
 10
207.7280000000000086
 20
43.5999999999999872
 30
0.0
 11
208.0
 21
43.8719999999999928
 31
0.0
  0
LINE
  5
21C3
  8
0
 10
207.1999999999999034
 20
43.8719999999999928
 30
0.0
 11
207.4720000000000084
 21
43.5999999999999872
 31
0.0
  0
LINE
  5
21C4
  8
0
 10
206.9279999999999973
 20
43.5999999999999872
 30
0.0
 11
207.1999999999999034
 21
43.8719999999999928
 31
0.0
  0
LINE
  5
21C5
  8
0
 10
207.1999999999999034
 20
43.3279999999999816
 30
0.0
 11
207.1999999999999034
 21
43.8719999999999928
 31
0.0
  0
LINE
  5
21C6
  8
0
 10
208.0
 20
43.3279999999999816
 30
0.0
 11
208.0
 21
43.8719999999999928
 31
0.0
  0
LINE
  5
21C7
  8
0
 10
208.8000000000000114
 20
43.3279999999999816
 30
0.0
 11
208.5279999999999916
 21
43.5999999999999872
 31
0.0
  0
LINE
  5
21C8
  8
0
 10
209.0720000000000027
 20
43.5999999999999872
 30
0.0
 11
208.8000000000000114
 21
43.3279999999999816
 31
0.0
  0
LINE
  5
21C9
  8
0
 10
209.0720000000000027
 20
43.5999999999999872
 30
0.0
 11
209.328000000000003
 21
43.5999999999999872
 31
0.0
  0
LINE
  5
21CA
  8
0
 10
209.5999999999999943
 20
43.3279999999999816
 30
0.0
 11
209.328000000000003
 21
43.5999999999999872
 31
0.0
  0
LINE
  5
21CB
  8
0
 10
209.8720000000000994
 20
43.5999999999999872
 30
0.0
 11
209.5999999999999943
 21
43.3279999999999816
 31
0.0
  0
LINE
  5
21CC
  8
0
 10
209.8720000000000994
 20
43.5999999999999872
 30
0.0
 11
210.1279999999999859
 21
43.5999999999999872
 31
0.0
  0
LINE
  5
21CD
  8
0
 10
209.5999999999999943
 20
43.8719999999999928
 30
0.0
 11
209.8720000000000994
 21
43.5999999999999872
 31
0.0
  0
LINE
  5
21CE
  8
0
 10
209.328000000000003
 20
43.5999999999999872
 30
0.0
 11
209.5999999999999943
 21
43.8719999999999928
 31
0.0
  0
LINE
  5
21CF
  8
0
 10
208.8000000000000114
 20
43.8719999999999928
 30
0.0
 11
209.0720000000000027
 21
43.5999999999999872
 31
0.0
  0
LINE
  5
21D0
  8
0
 10
208.5279999999999916
 20
43.5999999999999872
 30
0.0
 11
208.8000000000000114
 21
43.8719999999999928
 31
0.0
  0
LINE
  5
21D1
  8
0
 10
208.8000000000000114
 20
43.3279999999999816
 30
0.0
 11
208.8000000000000114
 21
43.8719999999999928
 31
0.0
  0
LINE
  5
21D2
  8
0
 10
209.5999999999999943
 20
43.3279999999999816
 30
0.0
 11
209.5999999999999943
 21
43.8719999999999928
 31
0.0
  0
LINE
  5
21D3
  8
0
 10
210.4000000000000057
 20
43.3279999999999816
 30
0.0
 11
210.1279999999999859
 21
43.5999999999999872
 31
0.0
  0
LINE
  5
21D4
  8
0
 10
210.671999999999997
 20
43.5999999999999872
 30
0.0
 11
210.4000000000000057
 21
43.3279999999999816
 31
0.0
  0
LINE
  5
21D5
  8
0
 10
210.671999999999997
 20
43.5999999999999872
 30
0.0
 11
210.9279999999999973
 21
43.5999999999999872
 31
0.0
  0
LINE
  5
21D6
  8
0
 10
211.1999999999999886
 20
43.3279999999999816
 30
0.0
 11
210.9279999999999973
 21
43.5999999999999872
 31
0.0
  0
LINE
  5
21D7
  8
0
 10
211.4720000000000937
 20
43.5999999999999872
 30
0.0
 11
211.1999999999999886
 21
43.3279999999999816
 31
0.0
  0
LINE
  5
21D8
  8
0
 10
211.4720000000000937
 20
43.5999999999999872
 30
0.0
 11
211.7280000000000086
 21
43.5999999999999872
 31
0.0
  0
LINE
  5
21D9
  8
0
 10
211.1999999999999886
 20
43.8719999999999928
 30
0.0
 11
211.4720000000000937
 21
43.5999999999999872
 31
0.0
  0
LINE
  5
21DA
  8
0
 10
210.9279999999999973
 20
43.5999999999999872
 30
0.0
 11
211.1999999999999886
 21
43.8719999999999928
 31
0.0
  0
LINE
  5
21DB
  8
0
 10
210.4000000000000057
 20
43.8719999999999928
 30
0.0
 11
210.671999999999997
 21
43.5999999999999872
 31
0.0
  0
LINE
  5
21DC
  8
0
 10
210.1279999999999859
 20
43.5999999999999872
 30
0.0
 11
210.4000000000000057
 21
43.8719999999999928
 31
0.0
  0
LINE
  5
21DD
  8
0
 10
210.4000000000000057
 20
43.3279999999999816
 30
0.0
 11
210.4000000000000057
 21
43.8719999999999928
 31
0.0
  0
LINE
  5
21DE
  8
0
 10
211.1999999999999886
 20
43.3279999999999816
 30
0.0
 11
211.1999999999999886
 21
43.8719999999999928
 31
0.0
  0
LINE
  5
21DF
  8
0
 10
212.0
 20
43.3279999999999816
 30
0.0
 11
211.7280000000000086
 21
43.5999999999999872
 31
0.0
  0
LINE
  5
21E0
  8
0
 10
212.272000000000105
 20
43.5999999999999872
 30
0.0
 11
212.0
 21
43.3279999999999816
 31
0.0
  0
LINE
  5
21E1
  8
0
 10
212.272000000000105
 20
43.5999999999999872
 30
0.0
 11
212.5279999999999916
 21
43.5999999999999872
 31
0.0
  0
LINE
  5
21E2
  8
0
 10
212.8000000000000966
 20
43.3279999999999816
 30
0.0
 11
212.5279999999999916
 21
43.5999999999999872
 31
0.0
  0
LINE
  5
21E3
  8
0
 10
213.072000000000088
 20
43.5999999999999872
 30
0.0
 11
212.8000000000000966
 21
43.3279999999999816
 31
0.0
  0
LINE
  5
21E4
  8
0
 10
213.072000000000088
 20
43.5999999999999872
 30
0.0
 11
213.3280000000000882
 21
43.5999999999999872
 31
0.0
  0
LINE
  5
21E5
  8
0
 10
212.8000000000000966
 20
43.8719999999999928
 30
0.0
 11
213.072000000000088
 21
43.5999999999999872
 31
0.0
  0
LINE
  5
21E6
  8
0
 10
212.5279999999999916
 20
43.5999999999999872
 30
0.0
 11
212.8000000000000966
 21
43.8719999999999928
 31
0.0
  0
LINE
  5
21E7
  8
0
 10
212.0
 20
43.8719999999999928
 30
0.0
 11
212.272000000000105
 21
43.5999999999999872
 31
0.0
  0
LINE
  5
21E8
  8
0
 10
211.7280000000000086
 20
43.5999999999999872
 30
0.0
 11
212.0
 21
43.8719999999999928
 31
0.0
  0
LINE
  5
21E9
  8
0
 10
212.0
 20
43.3279999999999816
 30
0.0
 11
212.0
 21
43.8719999999999928
 31
0.0
  0
LINE
  5
21EA
  8
0
 10
212.8000000000000966
 20
43.3279999999999816
 30
0.0
 11
212.8000000000000966
 21
43.8719999999999928
 31
0.0
  0
LINE
  5
21EB
  8
0
 10
213.5999999999999943
 20
43.3279999999999816
 30
0.0
 11
213.3280000000000882
 21
43.5999999999999872
 31
0.0
  0
LINE
  5
21EC
  8
0
 10
213.8720000000000994
 20
43.5999999999999872
 30
0.0
 11
213.5999999999999943
 21
43.3279999999999816
 31
0.0
  0
LINE
  5
21ED
  8
0
 10
213.8720000000000994
 20
43.5999999999999872
 30
0.0
 11
214.1279999999999859
 21
43.5999999999999872
 31
0.0
  0
LINE
  5
21EE
  8
0
 10
214.4000000000000909
 20
43.3279999999999816
 30
0.0
 11
214.1279999999999859
 21
43.5999999999999872
 31
0.0
  0
LINE
  5
21EF
  8
0
 10
214.6720000000001107
 20
43.5999999999999872
 30
0.0
 11
214.4000000000000909
 21
43.3279999999999816
 31
0.0
  0
LINE
  5
21F0
  8
0
 10
214.6720000000001107
 20
43.5999999999999872
 30
0.0
 11
214.928000000000111
 21
43.5999999999999872
 31
0.0
  0
LINE
  5
21F1
  8
0
 10
214.4000000000000909
 20
43.8719999999999928
 30
0.0
 11
214.6720000000001107
 21
43.5999999999999872
 31
0.0
  0
LINE
  5
21F2
  8
0
 10
214.1279999999999859
 20
43.5999999999999872
 30
0.0
 11
214.4000000000000909
 21
43.8719999999999928
 31
0.0
  0
LINE
  5
21F3
  8
0
 10
213.5999999999999943
 20
43.8719999999999928
 30
0.0
 11
213.8720000000000994
 21
43.5999999999999872
 31
0.0
  0
LINE
  5
21F4
  8
0
 10
213.3280000000000882
 20
43.5999999999999872
 30
0.0
 11
213.5999999999999943
 21
43.8719999999999928
 31
0.0
  0
LINE
  5
21F5
  8
0
 10
213.5999999999999943
 20
43.3279999999999816
 30
0.0
 11
213.5999999999999943
 21
43.8719999999999928
 31
0.0
  0
LINE
  5
21F6
  8
0
 10
214.4000000000000909
 20
43.3279999999999816
 30
0.0
 11
214.4000000000000909
 21
43.8719999999999928
 31
0.0
  0
LINE
  5
21F7
  8
0
 10
205.2185253319998992
 20
44.3999999999999915
 30
0.0
 11
205.328000000000003
 21
44.3999999999999915
 31
0.0
  0
LINE
  5
21F8
  8
0
 10
205.5999999999999091
 20
44.1279999999999788
 30
0.0
 11
205.328000000000003
 21
44.3999999999999915
 31
0.0
  0
LINE
  5
21F9
  8
0
 10
205.8720000000000141
 20
44.3999999999999915
 30
0.0
 11
205.5999999999999091
 21
44.1279999999999788
 31
0.0
  0
LINE
  5
21FA
  8
0
 10
205.8720000000000141
 20
44.3999999999999915
 30
0.0
 11
206.1279999999999006
 21
44.3999999999999915
 31
0.0
  0
LINE
  5
21FB
  8
0
 10
206.4000000000000057
 20
44.1279999999999788
 30
0.0
 11
206.1279999999999006
 21
44.3999999999999915
 31
0.0
  0
LINE
  5
21FC
  8
0
 10
206.671999999999997
 20
44.3999999999999915
 30
0.0
 11
206.4000000000000057
 21
44.1279999999999788
 31
0.0
  0
LINE
  5
21FD
  8
0
 10
206.671999999999997
 20
44.3999999999999915
 30
0.0
 11
206.9279999999999973
 21
44.3999999999999915
 31
0.0
  0
LINE
  5
21FE
  8
0
 10
206.4000000000000057
 20
44.6719999999999828
 30
0.0
 11
206.671999999999997
 21
44.3999999999999915
 31
0.0
  0
LINE
  5
21FF
  8
0
 10
206.1279999999999006
 20
44.3999999999999915
 30
0.0
 11
206.4000000000000057
 21
44.6719999999999828
 31
0.0
  0
LINE
  5
2200
  8
0
 10
205.5999999999999091
 20
44.6719999999999828
 30
0.0
 11
205.8720000000000141
 21
44.3999999999999915
 31
0.0
  0
LINE
  5
2201
  8
0
 10
205.328000000000003
 20
44.3999999999999915
 30
0.0
 11
205.5999999999999091
 21
44.6719999999999828
 31
0.0
  0
LINE
  5
2202
  8
0
 10
205.5999999999999091
 20
44.1279999999999788
 30
0.0
 11
205.5999999999999091
 21
44.6719999999999828
 31
0.0
  0
LINE
  5
2203
  8
0
 10
206.4000000000000057
 20
44.1279999999999788
 30
0.0
 11
206.4000000000000057
 21
44.6719999999999828
 31
0.0
  0
LINE
  5
2204
  8
0
 10
207.1999999999999034
 20
44.1279999999999788
 30
0.0
 11
206.9279999999999973
 21
44.3999999999999915
 31
0.0
  0
LINE
  5
2205
  8
0
 10
207.4720000000000084
 20
44.3999999999999915
 30
0.0
 11
207.1999999999999034
 21
44.1279999999999788
 31
0.0
  0
LINE
  5
2206
  8
0
 10
207.4720000000000084
 20
44.3999999999999915
 30
0.0
 11
207.7280000000000086
 21
44.3999999999999915
 31
0.0
  0
LINE
  5
2207
  8
0
 10
208.0
 20
44.1279999999999788
 30
0.0
 11
207.7280000000000086
 21
44.3999999999999915
 31
0.0
  0
LINE
  5
2208
  8
0
 10
208.272000000000105
 20
44.3999999999999915
 30
0.0
 11
208.0
 21
44.1279999999999788
 31
0.0
  0
LINE
  5
2209
  8
0
 10
208.272000000000105
 20
44.3999999999999915
 30
0.0
 11
208.5279999999999916
 21
44.3999999999999915
 31
0.0
  0
LINE
  5
220A
  8
0
 10
208.0
 20
44.6719999999999828
 30
0.0
 11
208.272000000000105
 21
44.3999999999999915
 31
0.0
  0
LINE
  5
220B
  8
0
 10
207.7280000000000086
 20
44.3999999999999915
 30
0.0
 11
208.0
 21
44.6719999999999828
 31
0.0
  0
LINE
  5
220C
  8
0
 10
207.1999999999999034
 20
44.6719999999999828
 30
0.0
 11
207.4720000000000084
 21
44.3999999999999915
 31
0.0
  0
LINE
  5
220D
  8
0
 10
206.9279999999999973
 20
44.3999999999999915
 30
0.0
 11
207.1999999999999034
 21
44.6719999999999828
 31
0.0
  0
LINE
  5
220E
  8
0
 10
207.1999999999999034
 20
44.1279999999999788
 30
0.0
 11
207.1999999999999034
 21
44.6719999999999828
 31
0.0
  0
LINE
  5
220F
  8
0
 10
208.0
 20
44.1279999999999788
 30
0.0
 11
208.0
 21
44.6719999999999828
 31
0.0
  0
LINE
  5
2210
  8
0
 10
208.8000000000000114
 20
44.1279999999999788
 30
0.0
 11
208.5279999999999916
 21
44.3999999999999915
 31
0.0
  0
LINE
  5
2211
  8
0
 10
209.0720000000000027
 20
44.3999999999999915
 30
0.0
 11
208.8000000000000114
 21
44.1279999999999788
 31
0.0
  0
LINE
  5
2212
  8
0
 10
209.0720000000000027
 20
44.3999999999999915
 30
0.0
 11
209.328000000000003
 21
44.3999999999999915
 31
0.0
  0
LINE
  5
2213
  8
0
 10
209.5999999999999943
 20
44.1279999999999788
 30
0.0
 11
209.328000000000003
 21
44.3999999999999915
 31
0.0
  0
LINE
  5
2214
  8
0
 10
209.8720000000000994
 20
44.3999999999999915
 30
0.0
 11
209.5999999999999943
 21
44.1279999999999788
 31
0.0
  0
LINE
  5
2215
  8
0
 10
209.8720000000000994
 20
44.3999999999999915
 30
0.0
 11
210.1279999999999859
 21
44.3999999999999915
 31
0.0
  0
LINE
  5
2216
  8
0
 10
209.5999999999999943
 20
44.6719999999999828
 30
0.0
 11
209.8720000000000994
 21
44.3999999999999915
 31
0.0
  0
LINE
  5
2217
  8
0
 10
209.328000000000003
 20
44.3999999999999915
 30
0.0
 11
209.5999999999999943
 21
44.6719999999999828
 31
0.0
  0
LINE
  5
2218
  8
0
 10
208.8000000000000114
 20
44.6719999999999828
 30
0.0
 11
209.0720000000000027
 21
44.3999999999999915
 31
0.0
  0
LINE
  5
2219
  8
0
 10
208.5279999999999916
 20
44.3999999999999915
 30
0.0
 11
208.8000000000000114
 21
44.6719999999999828
 31
0.0
  0
LINE
  5
221A
  8
0
 10
208.8000000000000114
 20
44.1279999999999788
 30
0.0
 11
208.8000000000000114
 21
44.6719999999999828
 31
0.0
  0
LINE
  5
221B
  8
0
 10
209.5999999999999943
 20
44.1279999999999788
 30
0.0
 11
209.5999999999999943
 21
44.6719999999999828
 31
0.0
  0
LINE
  5
221C
  8
0
 10
210.4000000000000057
 20
44.1279999999999788
 30
0.0
 11
210.1279999999999859
 21
44.3999999999999915
 31
0.0
  0
LINE
  5
221D
  8
0
 10
210.671999999999997
 20
44.3999999999999915
 30
0.0
 11
210.4000000000000057
 21
44.1279999999999788
 31
0.0
  0
LINE
  5
221E
  8
0
 10
210.671999999999997
 20
44.3999999999999915
 30
0.0
 11
210.9279999999999973
 21
44.3999999999999915
 31
0.0
  0
LINE
  5
221F
  8
0
 10
211.1999999999999886
 20
44.1279999999999788
 30
0.0
 11
210.9279999999999973
 21
44.3999999999999915
 31
0.0
  0
LINE
  5
2220
  8
0
 10
211.4720000000000937
 20
44.3999999999999915
 30
0.0
 11
211.1999999999999886
 21
44.1279999999999788
 31
0.0
  0
LINE
  5
2221
  8
0
 10
211.4720000000000937
 20
44.3999999999999915
 30
0.0
 11
211.7280000000000086
 21
44.3999999999999915
 31
0.0
  0
LINE
  5
2222
  8
0
 10
211.1999999999999886
 20
44.6719999999999828
 30
0.0
 11
211.4720000000000937
 21
44.3999999999999915
 31
0.0
  0
LINE
  5
2223
  8
0
 10
210.9279999999999973
 20
44.3999999999999915
 30
0.0
 11
211.1999999999999886
 21
44.6719999999999828
 31
0.0
  0
LINE
  5
2224
  8
0
 10
210.4000000000000057
 20
44.6719999999999828
 30
0.0
 11
210.671999999999997
 21
44.3999999999999915
 31
0.0
  0
LINE
  5
2225
  8
0
 10
210.1279999999999859
 20
44.3999999999999915
 30
0.0
 11
210.4000000000000057
 21
44.6719999999999828
 31
0.0
  0
LINE
  5
2226
  8
0
 10
210.4000000000000057
 20
44.1279999999999788
 30
0.0
 11
210.4000000000000057
 21
44.6719999999999828
 31
0.0
  0
LINE
  5
2227
  8
0
 10
211.1999999999999886
 20
44.1279999999999788
 30
0.0
 11
211.1999999999999886
 21
44.6719999999999828
 31
0.0
  0
LINE
  5
2228
  8
0
 10
212.0
 20
44.1279999999999788
 30
0.0
 11
211.7280000000000086
 21
44.3999999999999915
 31
0.0
  0
LINE
  5
2229
  8
0
 10
212.272000000000105
 20
44.3999999999999915
 30
0.0
 11
212.0
 21
44.1279999999999788
 31
0.0
  0
LINE
  5
222A
  8
0
 10
212.272000000000105
 20
44.3999999999999915
 30
0.0
 11
212.5279999999999916
 21
44.3999999999999915
 31
0.0
  0
LINE
  5
222B
  8
0
 10
212.8000000000000966
 20
44.1279999999999788
 30
0.0
 11
212.5279999999999916
 21
44.3999999999999915
 31
0.0
  0
LINE
  5
222C
  8
0
 10
213.072000000000088
 20
44.3999999999999915
 30
0.0
 11
212.8000000000000966
 21
44.1279999999999788
 31
0.0
  0
LINE
  5
222D
  8
0
 10
213.072000000000088
 20
44.3999999999999915
 30
0.0
 11
213.3280000000000882
 21
44.3999999999999915
 31
0.0
  0
LINE
  5
222E
  8
0
 10
212.8000000000000966
 20
44.6719999999999828
 30
0.0
 11
213.072000000000088
 21
44.3999999999999915
 31
0.0
  0
LINE
  5
222F
  8
0
 10
212.5279999999999916
 20
44.3999999999999915
 30
0.0
 11
212.8000000000000966
 21
44.6719999999999828
 31
0.0
  0
LINE
  5
2230
  8
0
 10
212.0
 20
44.6719999999999828
 30
0.0
 11
212.272000000000105
 21
44.3999999999999915
 31
0.0
  0
LINE
  5
2231
  8
0
 10
211.7280000000000086
 20
44.3999999999999915
 30
0.0
 11
212.0
 21
44.6719999999999828
 31
0.0
  0
LINE
  5
2232
  8
0
 10
212.0
 20
44.1279999999999788
 30
0.0
 11
212.0
 21
44.6719999999999828
 31
0.0
  0
LINE
  5
2233
  8
0
 10
212.8000000000000966
 20
44.1279999999999788
 30
0.0
 11
212.8000000000000966
 21
44.6719999999999828
 31
0.0
  0
LINE
  5
2234
  8
0
 10
213.5999999999999943
 20
44.1279999999999788
 30
0.0
 11
213.3280000000000882
 21
44.3999999999999915
 31
0.0
  0
LINE
  5
2235
  8
0
 10
213.8720000000000994
 20
44.3999999999999915
 30
0.0
 11
213.5999999999999943
 21
44.1279999999999788
 31
0.0
  0
LINE
  5
2236
  8
0
 10
213.8720000000000994
 20
44.3999999999999915
 30
0.0
 11
214.1279999999999859
 21
44.3999999999999915
 31
0.0
  0
LINE
  5
2237
  8
0
 10
214.4000000000000909
 20
44.1279999999999788
 30
0.0
 11
214.1279999999999859
 21
44.3999999999999915
 31
0.0
  0
LINE
  5
2238
  8
0
 10
214.6720000000001107
 20
44.3999999999999915
 30
0.0
 11
214.4000000000000909
 21
44.1279999999999788
 31
0.0
  0
LINE
  5
2239
  8
0
 10
214.6720000000001107
 20
44.3999999999999915
 30
0.0
 11
214.7814746678998858
 21
44.3999999999999773
 31
0.0
  0
LINE
  5
223A
  8
0
 10
214.4000000000000909
 20
44.6719999999999828
 30
0.0
 11
214.6720000000001107
 21
44.3999999999999915
 31
0.0
  0
LINE
  5
223B
  8
0
 10
214.1279999999999859
 20
44.3999999999999915
 30
0.0
 11
214.4000000000000909
 21
44.6719999999999828
 31
0.0
  0
LINE
  5
223C
  8
0
 10
213.5999999999999943
 20
44.6719999999999828
 30
0.0
 11
213.8720000000000994
 21
44.3999999999999915
 31
0.0
  0
LINE
  5
223D
  8
0
 10
213.3280000000000882
 20
44.3999999999999915
 30
0.0
 11
213.5999999999999943
 21
44.6719999999999828
 31
0.0
  0
LINE
  5
223E
  8
0
 10
213.5999999999999943
 20
44.1279999999999788
 30
0.0
 11
213.5999999999999943
 21
44.6719999999999828
 31
0.0
  0
LINE
  5
223F
  8
0
 10
214.4000000000000909
 20
44.1279999999999788
 30
0.0
 11
214.4000000000000909
 21
44.6719999999999828
 31
0.0
  0
LINE
  5
2240
  8
0
 10
205.5999999999999091
 20
44.9279999999999831
 30
0.0
 11
205.484766399799895
 21
45.0432336002000397
 31
0.0
  0
LINE
  5
2241
  8
0
 10
205.8720000000000141
 20
45.1999999999999815
 30
0.0
 11
205.5999999999999091
 21
44.9279999999999831
 31
0.0
  0
LINE
  5
2242
  8
0
 10
205.8720000000000141
 20
45.1999999999999815
 30
0.0
 11
206.1279999999999006
 21
45.1999999999999815
 31
0.0
  0
LINE
  5
2243
  8
0
 10
206.4000000000000057
 20
44.9279999999999831
 30
0.0
 11
206.1279999999999006
 21
45.1999999999999815
 31
0.0
  0
LINE
  5
2244
  8
0
 10
206.671999999999997
 20
45.1999999999999815
 30
0.0
 11
206.4000000000000057
 21
44.9279999999999831
 31
0.0
  0
LINE
  5
2245
  8
0
 10
206.671999999999997
 20
45.1999999999999815
 30
0.0
 11
206.9279999999999973
 21
45.1999999999999815
 31
0.0
  0
LINE
  5
2246
  8
0
 10
206.4000000000000057
 20
45.47199999999998
 30
0.0
 11
206.671999999999997
 21
45.1999999999999815
 31
0.0
  0
LINE
  5
2247
  8
0
 10
206.1279999999999006
 20
45.1999999999999815
 30
0.0
 11
206.4000000000000057
 21
45.47199999999998
 31
0.0
  0
LINE
  5
2248
  8
0
 10
205.7128421835998893
 20
45.3591578163999216
 30
0.0
 11
205.8720000000000141
 21
45.1999999999999815
 31
0.0
  0
LINE
  5
2249
  8
0
 10
205.5999999999999091
 20
44.9279999999999831
 30
0.0
 11
205.5999999999999943
 21
45.3157028897000131
 31
0.0
  0
LINE
  5
224A
  8
0
 10
206.4000000000000057
 20
44.9279999999999831
 30
0.0
 11
206.4000000000000057
 21
45.47199999999998
 31
0.0
  0
LINE
  5
224B
  8
0
 10
207.1999999999999034
 20
44.9279999999999831
 30
0.0
 11
206.9279999999999973
 21
45.1999999999999815
 31
0.0
  0
LINE
  5
224C
  8
0
 10
207.4720000000000084
 20
45.1999999999999815
 30
0.0
 11
207.1999999999999034
 21
44.9279999999999831
 31
0.0
  0
LINE
  5
224D
  8
0
 10
207.4720000000000084
 20
45.1999999999999815
 30
0.0
 11
207.7280000000000086
 21
45.1999999999999815
 31
0.0
  0
LINE
  5
224E
  8
0
 10
208.0
 20
44.9279999999999831
 30
0.0
 11
207.7280000000000086
 21
45.1999999999999815
 31
0.0
  0
LINE
  5
224F
  8
0
 10
208.272000000000105
 20
45.1999999999999815
 30
0.0
 11
208.0
 21
44.9279999999999831
 31
0.0
  0
LINE
  5
2250
  8
0
 10
208.272000000000105
 20
45.1999999999999815
 30
0.0
 11
208.5279999999999916
 21
45.1999999999999815
 31
0.0
  0
LINE
  5
2251
  8
0
 10
208.0
 20
45.47199999999998
 30
0.0
 11
208.272000000000105
 21
45.1999999999999815
 31
0.0
  0
LINE
  5
2252
  8
0
 10
207.7280000000000086
 20
45.1999999999999815
 30
0.0
 11
208.0
 21
45.47199999999998
 31
0.0
  0
LINE
  5
2253
  8
0
 10
207.1999999999999034
 20
45.47199999999998
 30
0.0
 11
207.4720000000000084
 21
45.1999999999999815
 31
0.0
  0
LINE
  5
2254
  8
0
 10
206.9279999999999973
 20
45.1999999999999815
 30
0.0
 11
207.1999999999999034
 21
45.47199999999998
 31
0.0
  0
LINE
  5
2255
  8
0
 10
207.1999999999999034
 20
44.9279999999999831
 30
0.0
 11
207.1999999999999034
 21
45.47199999999998
 31
0.0
  0
LINE
  5
2256
  8
0
 10
208.0
 20
44.9279999999999831
 30
0.0
 11
208.0
 21
45.47199999999998
 31
0.0
  0
LINE
  5
2257
  8
0
 10
208.8000000000000114
 20
44.9279999999999831
 30
0.0
 11
208.5279999999999916
 21
45.1999999999999815
 31
0.0
  0
LINE
  5
2258
  8
0
 10
209.0720000000000027
 20
45.1999999999999815
 30
0.0
 11
208.8000000000000114
 21
44.9279999999999831
 31
0.0
  0
LINE
  5
2259
  8
0
 10
209.0720000000000027
 20
45.1999999999999815
 30
0.0
 11
209.328000000000003
 21
45.1999999999999815
 31
0.0
  0
LINE
  5
225A
  8
0
 10
209.5999999999999943
 20
44.9279999999999831
 30
0.0
 11
209.328000000000003
 21
45.1999999999999815
 31
0.0
  0
LINE
  5
225B
  8
0
 10
209.8720000000000994
 20
45.1999999999999815
 30
0.0
 11
209.5999999999999943
 21
44.9279999999999831
 31
0.0
  0
LINE
  5
225C
  8
0
 10
209.8720000000000994
 20
45.1999999999999815
 30
0.0
 11
210.1279999999999859
 21
45.1999999999999815
 31
0.0
  0
LINE
  5
225D
  8
0
 10
209.5999999999999943
 20
45.47199999999998
 30
0.0
 11
209.8720000000000994
 21
45.1999999999999815
 31
0.0
  0
LINE
  5
225E
  8
0
 10
209.328000000000003
 20
45.1999999999999815
 30
0.0
 11
209.5999999999999943
 21
45.47199999999998
 31
0.0
  0
LINE
  5
225F
  8
0
 10
208.8000000000000114
 20
45.47199999999998
 30
0.0
 11
209.0720000000000027
 21
45.1999999999999815
 31
0.0
  0
LINE
  5
2260
  8
0
 10
208.5279999999999916
 20
45.1999999999999815
 30
0.0
 11
208.8000000000000114
 21
45.47199999999998
 31
0.0
  0
LINE
  5
2261
  8
0
 10
208.8000000000000114
 20
44.9279999999999831
 30
0.0
 11
208.8000000000000114
 21
45.47199999999998
 31
0.0
  0
LINE
  5
2262
  8
0
 10
209.5999999999999943
 20
44.9279999999999831
 30
0.0
 11
209.5999999999999943
 21
45.47199999999998
 31
0.0
  0
LINE
  5
2263
  8
0
 10
210.4000000000000057
 20
44.9279999999999831
 30
0.0
 11
210.1279999999999859
 21
45.1999999999999815
 31
0.0
  0
LINE
  5
2264
  8
0
 10
210.671999999999997
 20
45.1999999999999815
 30
0.0
 11
210.4000000000000057
 21
44.9279999999999831
 31
0.0
  0
LINE
  5
2265
  8
0
 10
210.671999999999997
 20
45.1999999999999815
 30
0.0
 11
210.9279999999999973
 21
45.1999999999999815
 31
0.0
  0
LINE
  5
2266
  8
0
 10
211.1999999999999886
 20
44.9279999999999831
 30
0.0
 11
210.9279999999999973
 21
45.1999999999999815
 31
0.0
  0
LINE
  5
2267
  8
0
 10
211.4720000000000937
 20
45.1999999999999815
 30
0.0
 11
211.1999999999999886
 21
44.9279999999999831
 31
0.0
  0
LINE
  5
2268
  8
0
 10
211.4720000000000937
 20
45.1999999999999815
 30
0.0
 11
211.7280000000000086
 21
45.1999999999999815
 31
0.0
  0
LINE
  5
2269
  8
0
 10
211.1999999999999886
 20
45.47199999999998
 30
0.0
 11
211.4720000000000937
 21
45.1999999999999815
 31
0.0
  0
LINE
  5
226A
  8
0
 10
210.9279999999999973
 20
45.1999999999999815
 30
0.0
 11
211.1999999999999886
 21
45.47199999999998
 31
0.0
  0
LINE
  5
226B
  8
0
 10
210.4000000000000057
 20
45.47199999999998
 30
0.0
 11
210.671999999999997
 21
45.1999999999999815
 31
0.0
  0
LINE
  5
226C
  8
0
 10
210.1279999999999859
 20
45.1999999999999815
 30
0.0
 11
210.4000000000000057
 21
45.47199999999998
 31
0.0
  0
LINE
  5
226D
  8
0
 10
210.4000000000000057
 20
44.9279999999999831
 30
0.0
 11
210.4000000000000057
 21
45.47199999999998
 31
0.0
  0
LINE
  5
226E
  8
0
 10
211.1999999999999886
 20
44.9279999999999831
 30
0.0
 11
211.1999999999999886
 21
45.47199999999998
 31
0.0
  0
LINE
  5
226F
  8
0
 10
212.0
 20
44.9279999999999831
 30
0.0
 11
211.7280000000000086
 21
45.1999999999999815
 31
0.0
  0
LINE
  5
2270
  8
0
 10
212.272000000000105
 20
45.1999999999999815
 30
0.0
 11
212.0
 21
44.9279999999999831
 31
0.0
  0
LINE
  5
2271
  8
0
 10
212.272000000000105
 20
45.1999999999999815
 30
0.0
 11
212.5279999999999916
 21
45.1999999999999815
 31
0.0
  0
LINE
  5
2272
  8
0
 10
212.8000000000000966
 20
44.9279999999999831
 30
0.0
 11
212.5279999999999916
 21
45.1999999999999815
 31
0.0
  0
LINE
  5
2273
  8
0
 10
213.072000000000088
 20
45.1999999999999815
 30
0.0
 11
212.8000000000000966
 21
44.9279999999999831
 31
0.0
  0
LINE
  5
2274
  8
0
 10
213.072000000000088
 20
45.1999999999999815
 30
0.0
 11
213.3280000000000882
 21
45.1999999999999815
 31
0.0
  0
LINE
  5
2275
  8
0
 10
212.8000000000000966
 20
45.47199999999998
 30
0.0
 11
213.072000000000088
 21
45.1999999999999815
 31
0.0
  0
LINE
  5
2276
  8
0
 10
212.5279999999999916
 20
45.1999999999999815
 30
0.0
 11
212.8000000000000966
 21
45.47199999999998
 31
0.0
  0
LINE
  5
2277
  8
0
 10
212.0
 20
45.47199999999998
 30
0.0
 11
212.272000000000105
 21
45.1999999999999815
 31
0.0
  0
LINE
  5
2278
  8
0
 10
211.7280000000000086
 20
45.1999999999999815
 30
0.0
 11
212.0
 21
45.47199999999998
 31
0.0
  0
LINE
  5
2279
  8
0
 10
212.0
 20
44.9279999999999831
 30
0.0
 11
212.0
 21
45.47199999999998
 31
0.0
  0
LINE
  5
227A
  8
0
 10
212.8000000000000966
 20
44.9279999999999831
 30
0.0
 11
212.8000000000000966
 21
45.47199999999998
 31
0.0
  0
LINE
  5
227B
  8
0
 10
213.5999999999999943
 20
44.9279999999999831
 30
0.0
 11
213.3280000000000882
 21
45.1999999999999815
 31
0.0
  0
LINE
  5
227C
  8
0
 10
213.8720000000000994
 20
45.1999999999999815
 30
0.0
 11
213.5999999999999943
 21
44.9279999999999831
 31
0.0
  0
LINE
  5
227D
  8
0
 10
213.8720000000000994
 20
45.1999999999999815
 30
0.0
 11
214.1279999999999859
 21
45.1999999999999815
 31
0.0
  0
LINE
  5
227E
  8
0
 10
214.4000000000000909
 20
44.9279999999999831
 30
0.0
 11
214.1279999999999859
 21
45.1999999999999815
 31
0.0
  0
LINE
  5
227F
  8
0
 10
214.5152336001576998
 20
45.043233600157663
 30
0.0
 11
214.4000000000000909
 21
44.9279999999999831
 31
0.0
  0
LINE
  5
2280
  8
0
 10
214.1279999999999859
 20
45.1999999999999815
 30
0.0
 11
214.2871578164001107
 21
45.3591578163999216
 31
0.0
  0
LINE
  5
2281
  8
0
 10
213.5999999999999943
 20
45.47199999999998
 30
0.0
 11
213.8720000000000994
 21
45.1999999999999815
 31
0.0
  0
LINE
  5
2282
  8
0
 10
213.3280000000000882
 20
45.1999999999999815
 30
0.0
 11
213.5999999999999943
 21
45.47199999999998
 31
0.0
  0
LINE
  5
2283
  8
0
 10
213.5999999999999943
 20
44.9279999999999831
 30
0.0
 11
213.5999999999999943
 21
45.47199999999998
 31
0.0
  0
LINE
  5
2284
  8
0
 10
214.4000000000000909
 20
44.9279999999999831
 30
0.0
 11
214.4000000000000909
 21
45.3157028896997787
 31
0.0
  0
LINE
  5
2285
  8
0
 10
206.4000000000000057
 20
45.7279999999999873
 30
0.0
 11
206.2349766443998931
 21
45.8930233555999578
 31
0.0
  0
LINE
  5
2286
  8
0
 10
206.671999999999997
 20
46.0
 30
0.0
 11
206.4000000000000057
 21
45.7279999999999873
 31
0.0
  0
LINE
  5
2287
  8
0
 10
206.671999999999997
 20
46.0
 30
0.0
 11
206.9279999999999973
 21
46.0
 31
0.0
  0
LINE
  5
2288
  8
0
 10
206.4902870274999884
 20
46.1817129724999376
 30
0.0
 11
206.671999999999997
 21
46.0
 31
0.0
  0
LINE
  5
2289
  8
0
 10
206.4000000000000057
 20
45.7279999999999873
 30
0.0
 11
206.4000000000000057
 21
46.1705977571999782
 31
0.0
  0
LINE
  5
228A
  8
0
 10
207.1999999999999034
 20
45.7279999999999873
 30
0.0
 11
206.9279999999999973
 21
46.0
 31
0.0
  0
LINE
  5
228B
  8
0
 10
207.4720000000000084
 20
46.0
 30
0.0
 11
207.1999999999999034
 21
45.7279999999999873
 31
0.0
  0
LINE
  5
228C
  8
0
 10
207.4720000000000084
 20
46.0
 30
0.0
 11
207.7280000000000086
 21
46.0
 31
0.0
  0
LINE
  5
228D
  8
0
 10
208.0
 20
45.7279999999999873
 30
0.0
 11
207.7280000000000086
 21
46.0
 31
0.0
  0
LINE
  5
228E
  8
0
 10
208.272000000000105
 20
46.0
 30
0.0
 11
208.0
 21
45.7279999999999873
 31
0.0
  0
LINE
  5
228F
  8
0
 10
208.272000000000105
 20
46.0
 30
0.0
 11
208.5279999999999916
 21
46.0
 31
0.0
  0
LINE
  5
2290
  8
0
 10
208.0
 20
46.2719999999999914
 30
0.0
 11
208.272000000000105
 21
46.0
 31
0.0
  0
LINE
  5
2291
  8
0
 10
207.7280000000000086
 20
46.0
 30
0.0
 11
208.0
 21
46.2719999999999914
 31
0.0
  0
LINE
  5
2292
  8
0
 10
207.1999999999999034
 20
46.2719999999999914
 30
0.0
 11
207.4720000000000084
 21
46.0
 31
0.0
  0
LINE
  5
2293
  8
0
 10
206.9279999999999973
 20
46.0
 30
0.0
 11
207.1999999999999034
 21
46.2719999999999914
 31
0.0
  0
LINE
  5
2294
  8
0
 10
207.1999999999999034
 20
45.7279999999999873
 30
0.0
 11
207.1999999999999034
 21
46.2719999999999914
 31
0.0
  0
LINE
  5
2295
  8
0
 10
208.0
 20
45.7279999999999873
 30
0.0
 11
208.0
 21
46.2719999999999914
 31
0.0
  0
LINE
  5
2296
  8
0
 10
208.8000000000000114
 20
45.7279999999999873
 30
0.0
 11
208.5279999999999916
 21
46.0
 31
0.0
  0
LINE
  5
2297
  8
0
 10
209.0720000000000027
 20
46.0
 30
0.0
 11
208.8000000000000114
 21
45.7279999999999873
 31
0.0
  0
LINE
  5
2298
  8
0
 10
209.0720000000000027
 20
46.0
 30
0.0
 11
209.328000000000003
 21
46.0
 31
0.0
  0
LINE
  5
2299
  8
0
 10
209.5999999999999943
 20
45.7279999999999873
 30
0.0
 11
209.328000000000003
 21
46.0
 31
0.0
  0
LINE
  5
229A
  8
0
 10
209.8720000000000994
 20
46.0
 30
0.0
 11
209.5999999999999943
 21
45.7279999999999873
 31
0.0
  0
LINE
  5
229B
  8
0
 10
209.8720000000000994
 20
46.0
 30
0.0
 11
210.1279999999999859
 21
46.0
 31
0.0
  0
LINE
  5
229C
  8
0
 10
209.5999999999999943
 20
46.2719999999999914
 30
0.0
 11
209.8720000000000994
 21
46.0
 31
0.0
  0
LINE
  5
229D
  8
0
 10
209.328000000000003
 20
46.0
 30
0.0
 11
209.5999999999999943
 21
46.2719999999999914
 31
0.0
  0
LINE
  5
229E
  8
0
 10
208.8000000000000114
 20
46.2719999999999914
 30
0.0
 11
209.0720000000000027
 21
46.0
 31
0.0
  0
LINE
  5
229F
  8
0
 10
208.5279999999999916
 20
46.0
 30
0.0
 11
208.8000000000000114
 21
46.2719999999999914
 31
0.0
  0
LINE
  5
22A0
  8
0
 10
208.8000000000000114
 20
45.7279999999999873
 30
0.0
 11
208.8000000000000114
 21
46.2719999999999914
 31
0.0
  0
LINE
  5
22A1
  8
0
 10
209.5999999999999943
 20
45.7279999999999873
 30
0.0
 11
209.5999999999999943
 21
46.2719999999999914
 31
0.0
  0
LINE
  5
22A2
  8
0
 10
210.4000000000000057
 20
45.7279999999999873
 30
0.0
 11
210.1279999999999859
 21
46.0
 31
0.0
  0
LINE
  5
22A3
  8
0
 10
210.671999999999997
 20
46.0
 30
0.0
 11
210.4000000000000057
 21
45.7279999999999873
 31
0.0
  0
LINE
  5
22A4
  8
0
 10
210.671999999999997
 20
46.0
 30
0.0
 11
210.9279999999999973
 21
46.0
 31
0.0
  0
LINE
  5
22A5
  8
0
 10
211.1999999999999886
 20
45.7279999999999873
 30
0.0
 11
210.9279999999999973
 21
46.0
 31
0.0
  0
LINE
  5
22A6
  8
0
 10
211.4720000000000937
 20
46.0
 30
0.0
 11
211.1999999999999886
 21
45.7279999999999873
 31
0.0
  0
LINE
  5
22A7
  8
0
 10
211.4720000000000937
 20
46.0
 30
0.0
 11
211.7280000000000086
 21
46.0
 31
0.0
  0
LINE
  5
22A8
  8
0
 10
211.1999999999999886
 20
46.2719999999999914
 30
0.0
 11
211.4720000000000937
 21
46.0
 31
0.0
  0
LINE
  5
22A9
  8
0
 10
210.9279999999999973
 20
46.0
 30
0.0
 11
211.1999999999999886
 21
46.2719999999999914
 31
0.0
  0
LINE
  5
22AA
  8
0
 10
210.4000000000000057
 20
46.2719999999999914
 30
0.0
 11
210.671999999999997
 21
46.0
 31
0.0
  0
LINE
  5
22AB
  8
0
 10
210.1279999999999859
 20
46.0
 30
0.0
 11
210.4000000000000057
 21
46.2719999999999914
 31
0.0
  0
LINE
  5
22AC
  8
0
 10
210.4000000000000057
 20
45.7279999999999873
 30
0.0
 11
210.4000000000000057
 21
46.2719999999999914
 31
0.0
  0
LINE
  5
22AD
  8
0
 10
211.1999999999999886
 20
45.7279999999999873
 30
0.0
 11
211.1999999999999886
 21
46.2719999999999914
 31
0.0
  0
LINE
  5
22AE
  8
0
 10
212.0
 20
45.7279999999999873
 30
0.0
 11
211.7280000000000086
 21
46.0
 31
0.0
  0
LINE
  5
22AF
  8
0
 10
212.272000000000105
 20
46.0
 30
0.0
 11
212.0
 21
45.7279999999999873
 31
0.0
  0
LINE
  5
22B0
  8
0
 10
212.272000000000105
 20
46.0
 30
0.0
 11
212.5279999999999916
 21
46.0
 31
0.0
  0
LINE
  5
22B1
  8
0
 10
212.8000000000000966
 20
45.7279999999999873
 30
0.0
 11
212.5279999999999916
 21
46.0
 31
0.0
  0
LINE
  5
22B2
  8
0
 10
213.072000000000088
 20
46.0
 30
0.0
 11
212.8000000000000966
 21
45.7279999999999873
 31
0.0
  0
LINE
  5
22B3
  8
0
 10
213.072000000000088
 20
46.0
 30
0.0
 11
213.3280000000000882
 21
46.0
 31
0.0
  0
LINE
  5
22B4
  8
0
 10
212.8000000000000966
 20
46.2719999999999914
 30
0.0
 11
213.072000000000088
 21
46.0
 31
0.0
  0
LINE
  5
22B5
  8
0
 10
212.5279999999999916
 20
46.0
 30
0.0
 11
212.8000000000000966
 21
46.2719999999999914
 31
0.0
  0
LINE
  5
22B6
  8
0
 10
212.0
 20
46.2719999999999914
 30
0.0
 11
212.272000000000105
 21
46.0
 31
0.0
  0
LINE
  5
22B7
  8
0
 10
211.7280000000000086
 20
46.0
 30
0.0
 11
212.0
 21
46.2719999999999914
 31
0.0
  0
LINE
  5
22B8
  8
0
 10
212.0
 20
45.7279999999999873
 30
0.0
 11
212.0
 21
46.2719999999999914
 31
0.0
  0
LINE
  5
22B9
  8
0
 10
212.8000000000000966
 20
45.7279999999999873
 30
0.0
 11
212.8000000000000966
 21
46.2719999999999914
 31
0.0
  0
LINE
  5
22BA
  8
0
 10
213.5999999999999943
 20
45.7279999999999873
 30
0.0
 11
213.3280000000000882
 21
46.0
 31
0.0
  0
LINE
  5
22BB
  8
0
 10
213.765023355565404
 20
45.8930233555654965
 30
0.0
 11
213.5999999999999943
 21
45.7279999999999873
 31
0.0
  0
LINE
  5
22BC
  8
0
 10
213.3280000000000882
 20
46.0
 30
0.0
 11
213.5097129725000968
 21
46.1817129724999873
 31
0.0
  0
LINE
  5
22BD
  8
0
 10
213.5999999999999943
 20
45.7279999999999873
 30
0.0
 11
213.5999999999999943
 21
46.1705977571998574
 31
0.0
  0
LINE
  5
22BE
  8
0
 10
207.1999999999999034
 20
46.5279999999999916
 30
0.0
 11
207.1039522397998951
 21
46.6240477601999928
 31
0.0
  0
LINE
  5
22BF
  8
0
 10
207.3990131116480029
 20
46.7270131116479916
 30
0.0
 11
207.1999999999999034
 21
46.5279999999999916
 31
0.0
  0
LINE
  5
22C0
  8
0
 10
207.6372685297999112
 20
46.7999999999999901
 30
0.0
 11
207.7280000000000086
 21
46.7999999999999901
 31
0.0
  0
LINE
  5
22C1
  8
0
 10
208.0
 20
46.5279999999999916
 30
0.0
 11
207.7280000000000086
 21
46.7999999999999901
 31
0.0
  0
LINE
  5
22C2
  8
0
 10
208.272000000000105
 20
46.7999999999999901
 30
0.0
 11
208.0
 21
46.5279999999999916
 31
0.0
  0
LINE
  5
22C3
  8
0
 10
208.272000000000105
 20
46.7999999999999901
 30
0.0
 11
208.5279999999999916
 21
46.7999999999999901
 31
0.0
  0
LINE
  5
22C4
  8
0
 10
208.0
 20
47.0719999999999885
 30
0.0
 11
208.272000000000105
 21
46.7999999999999901
 31
0.0
  0
LINE
  5
22C5
  8
0
 10
207.7280000000000086
 20
46.7999999999999901
 30
0.0
 11
208.0
 21
47.0719999999999885
 31
0.0
  0
LINE
  5
22C6
  8
0
 10
207.1999999999999034
 20
46.5279999999999916
 30
0.0
 11
207.1999999999999034
 21
46.7448799407999829
 31
0.0
  0
LINE
  5
22C7
  8
0
 10
208.0
 20
46.5279999999999916
 30
0.0
 11
208.0
 21
47.0719999999999885
 31
0.0
  0
LINE
  5
22C8
  8
0
 10
208.8000000000000114
 20
46.5279999999999916
 30
0.0
 11
208.5279999999999916
 21
46.7999999999999901
 31
0.0
  0
LINE
  5
22C9
  8
0
 10
209.0720000000000027
 20
46.7999999999999901
 30
0.0
 11
208.8000000000000114
 21
46.5279999999999916
 31
0.0
  0
LINE
  5
22CA
  8
0
 10
209.0720000000000027
 20
46.7999999999999901
 30
0.0
 11
209.328000000000003
 21
46.7999999999999901
 31
0.0
  0
LINE
  5
22CB
  8
0
 10
209.5999999999999943
 20
46.5279999999999916
 30
0.0
 11
209.328000000000003
 21
46.7999999999999901
 31
0.0
  0
LINE
  5
22CC
  8
0
 10
209.8720000000000994
 20
46.7999999999999901
 30
0.0
 11
209.5999999999999943
 21
46.5279999999999916
 31
0.0
  0
LINE
  5
22CD
  8
0
 10
209.8720000000000994
 20
46.7999999999999901
 30
0.0
 11
210.1279999999999859
 21
46.7999999999999901
 31
0.0
  0
LINE
  5
22CE
  8
0
 10
209.5999999999999943
 20
47.0719999999999885
 30
0.0
 11
209.8720000000000994
 21
46.7999999999999901
 31
0.0
  0
LINE
  5
22CF
  8
0
 10
209.328000000000003
 20
46.7999999999999901
 30
0.0
 11
209.5999999999999943
 21
47.0719999999999885
 31
0.0
  0
LINE
  5
22D0
  8
0
 10
208.8000000000000114
 20
47.0719999999999885
 30
0.0
 11
209.0720000000000027
 21
46.7999999999999901
 31
0.0
  0
LINE
  5
22D1
  8
0
 10
208.5279999999999916
 20
46.7999999999999901
 30
0.0
 11
208.8000000000000114
 21
47.0719999999999885
 31
0.0
  0
LINE
  5
22D2
  8
0
 10
208.8000000000000114
 20
46.5279999999999916
 30
0.0
 11
208.8000000000000114
 21
47.0719999999999885
 31
0.0
  0
LINE
  5
22D3
  8
0
 10
209.5999999999999943
 20
46.5279999999999916
 30
0.0
 11
209.5999999999999943
 21
47.0719999999999885
 31
0.0
  0
LINE
  5
22D4
  8
0
 10
210.4000000000000057
 20
46.5279999999999916
 30
0.0
 11
210.1279999999999859
 21
46.7999999999999901
 31
0.0
  0
LINE
  5
22D5
  8
0
 10
210.671999999999997
 20
46.7999999999999901
 30
0.0
 11
210.4000000000000057
 21
46.5279999999999916
 31
0.0
  0
LINE
  5
22D6
  8
0
 10
210.671999999999997
 20
46.7999999999999901
 30
0.0
 11
210.9279999999999973
 21
46.7999999999999901
 31
0.0
  0
LINE
  5
22D7
  8
0
 10
211.1999999999999886
 20
46.5279999999999916
 30
0.0
 11
210.9279999999999973
 21
46.7999999999999901
 31
0.0
  0
LINE
  5
22D8
  8
0
 10
211.4720000000000937
 20
46.7999999999999901
 30
0.0
 11
211.1999999999999886
 21
46.5279999999999916
 31
0.0
  0
LINE
  5
22D9
  8
0
 10
211.4720000000000937
 20
46.7999999999999901
 30
0.0
 11
211.7280000000000086
 21
46.7999999999999901
 31
0.0
  0
LINE
  5
22DA
  8
0
 10
211.1999999999999886
 20
47.0719999999999885
 30
0.0
 11
211.4720000000000937
 21
46.7999999999999901
 31
0.0
  0
LINE
  5
22DB
  8
0
 10
210.9279999999999973
 20
46.7999999999999901
 30
0.0
 11
211.1999999999999886
 21
47.0719999999999885
 31
0.0
  0
LINE
  5
22DC
  8
0
 10
210.4000000000000057
 20
47.0719999999999885
 30
0.0
 11
210.671999999999997
 21
46.7999999999999901
 31
0.0
  0
LINE
  5
22DD
  8
0
 10
210.1279999999999859
 20
46.7999999999999901
 30
0.0
 11
210.4000000000000057
 21
47.0719999999999885
 31
0.0
  0
LINE
  5
22DE
  8
0
 10
210.4000000000000057
 20
46.5279999999999916
 30
0.0
 11
210.4000000000000057
 21
47.0719999999999885
 31
0.0
  0
LINE
  5
22DF
  8
0
 10
211.1999999999999886
 20
46.5279999999999916
 30
0.0
 11
211.1999999999999886
 21
47.0719999999999885
 31
0.0
  0
LINE
  5
22E0
  8
0
 10
212.0
 20
46.5279999999999916
 30
0.0
 11
211.7280000000000086
 21
46.7999999999999901
 31
0.0
  0
LINE
  5
22E1
  8
0
 10
212.272000000000105
 20
46.7999999999999901
 30
0.0
 11
212.0
 21
46.5279999999999916
 31
0.0
  0
LINE
  5
22E2
  8
0
 10
212.272000000000105
 20
46.7999999999999901
 30
0.0
 11
212.3627314700999023
 21
46.7999999999999901
 31
0.0
  0
LINE
  5
22E3
  8
0
 10
212.8000000000000966
 20
46.5279999999999916
 30
0.0
 11
212.6009868884000014
 21
46.7270131116000087
 31
0.0
  0
LINE
  5
22E4
  8
0
 10
212.8960477601729053
 20
46.6240477601727292
 30
0.0
 11
212.8000000000000966
 21
46.5279999999999916
 31
0.0
  0
LINE
  5
22E5
  8
0
 10
212.0
 20
47.0719999999999885
 30
0.0
 11
212.272000000000105
 21
46.7999999999999901
 31
0.0
  0
LINE
  5
22E6
  8
0
 10
211.7280000000000086
 20
46.7999999999999901
 30
0.0
 11
212.0
 21
47.0719999999999885
 31
0.0
  0
LINE
  5
22E7
  8
0
 10
212.0
 20
46.5279999999999916
 30
0.0
 11
212.0
 21
47.0719999999999885
 31
0.0
  0
LINE
  5
22E8
  8
0
 10
212.8000000000000966
 20
46.5279999999999916
 30
0.0
 11
212.8000000000000966
 21
46.7448799407998123
 31
0.0
  0
ARC
  5
22E9
  8
0
 10
211.8697379308347024
 20
43.7872947026635018
 30
0.0
 40
4.2909538991716012
 50
324.6283494084619861
 51
329.353116822741697
  0
LINE
  5
22EA
  8
0
 10
204.4386462644999938
 20
41.6000000000000085
 30
0.0
 11
215.5613537353999902
 21
41.6000000000000085
 31
0.0
  0
ARC
  5
22EB
  8
0
 10
207.1439971746551123
 20
43.1465799785580799
 30
0.0
 40
3.1162209769452551
 50
209.7554999688547923
 51
216.263033799945589
  0
LINE
  5
22EC
  8
0
 10
204.5549421149999034
 20
40.7999999999999972
 30
0.0
 11
215.4450578850000113
 21
40.7999999999999972
 31
0.0
  0
ARC
  5
22ED
  8
0
 10
213.1376688468913017
 20
40.1328666002884518
 30
0.0
 40
2.4018974054265532
 50
16.1261222756026008
 51
23.095738881506751
  0
ARC
  5
22EE
  8
0
 10
206.6493352388447988
 20
40.2087568233093506
 30
0.0
 40
2.1762470106106542
 50
156.5424106046081079
 51
164.2357282382378969
  0
ARC
  5
22EF
  8
0
 10
212.3141584575575962
 20
43.1045399291745568
 30
0.0
 40
3.887600225064137
 50
319.7294058869919127
 51
323.6445820836082135
  0
ARC
  5
22F0
  8
0
 10
209.1764357780020873
 20
44.2822898217853691
 30
0.0
 40
5.786583282048162
 50
216.9979800189848049
 51
219.6280320104204122
  0
ARC
  5
22F1
  8
0
 10
215.661396876024412
 20
39.7709629656666408
 30
0.0
 40
0.6163316337581028
 50
138.4707951125566012
 51
141.8765358526933085
  0
LINE
  5
22F2
  8
0
 10
204.795323701599898
 20
40.0
 30
0.0
 11
215.2046762983999031
 21
40.0
 31
0.0
  0
ARC
  5
22F3
  8
0
 10
213.086151285278504
 20
39.684787870432352
 30
0.0
 40
2.1418466139870929
 50
8.4628664048560527
 51
12.5847341574434708
  0
ARC
  5
22F4
  8
0
 10
206.6716011196442935
 20
39.7297899022297472
 30
0.0
 40
1.895634576177599
 50
167.1474451500102134
 51
171.8049543607808118
  0
ARC
  5
22F5
  8
0
 10
212.1036795756978108
 20
42.8569926479844128
 30
0.0
 40
4.21646625325595
 50
309.4259481475277767
 51
317.3451863535246957
  0
ARC
  5
22F6
  8
0
 10
207.9122094430215952
 20
42.8738032938843716
 30
0.0
 40
4.2395426754567698
 50
222.676400495838493
 51
230.5524649896009919
  0
ARC
  5
22F7
  8
0
 10
209.7541488083465993
 20
44.5356266188003005
 30
0.0
 40
7.6349590702341246
 50
252.0331090312135984
 51
253.9031691758073919
  0
ARC
  5
22F8
  8
0
 10
207.1327564800382106
 20
39.1214312456899975
 30
0.0
 40
1.8675221915132689
 50
272.0634843913799159
 51
278.196712241505395
  0
ARC
  5
22F9
  8
0
 10
211.1289751333393951
 20
40.476795390720973
 30
0.0
 40
5.0809484882382216
 50
217.6103480887643116
 51
219.3510177384594897
  0
ARC
  5
22FA
  8
0
 10
209.3988666263188918
 20
43.5267929361033978
 30
0.0
 40
6.56501891183518
 50
244.5264371765082103
 51
249.5391628885485886
  0
ARC
  5
22FB
  8
0
 10
207.9967023207686907
 20
38.2791890302560631
 30
0.0
 40
1.5753468481379951
 50
197.0119865461020936
 51
205.5396869299821958
  0
ARC
  5
22FC
  8
0
 10
206.6547647501971028
 20
39.526562740815919
 30
0.0
 40
1.716175641934288
 50
261.4629389785525859
 51
264.5003495942182781
  0
ARC
  5
22FD
  8
0
 10
211.2455561544375087
 20
40.89802117740863
 30
0.0
 40
5.7354892216484847
 50
209.1191312028940956
 51
212.3454745971473869
  0
ARC
  5
22FE
  8
0
 10
208.9095094783959041
 20
43.165333320043743
 30
0.0
 40
5.721896376041018
 50
236.3899459746876062
 51
242.1330012909355105
  0
ARC
  5
22FF
  8
0
 10
207.4255688158177122
 20
38.7275757920938872
 30
0.0
 40
1.7149213496688951
 50
182.8990196743567935
 51
191.0120274375285874
  0
ARC
  5
2300
  8
0
 10
206.2226081323248934
 20
40.13282369708282
 30
0.0
 40
1.57666425057902
 50
246.7409183600983908
 51
251.1362199300141924
  0
ARC
  5
2301
  8
0
 10
212.4743506196467138
 20
41.752222015307602
 30
0.0
 40
7.5278721870528056
 50
201.7987377327036995
 51
204.0505271490798975
  0
ARC
  5
2302
  8
0
 10
208.4435019274814067
 20
42.9991736074116631
 30
0.0
 40
5.0095081549903098
 50
229.3226918543298893
 51
233.7987014274881119
  0
ARC
  5
2303
  8
0
 10
207.0861866693774118
 20
39.2102261885144685
 30
0.0
 40
1.907900022342556
 50
168.2117869906140015
 51
180.3071021756921937
  0
ARC
  5
2304
  8
0
 10
204.7292318573852015
 20
40.0967268485314108
 30
0.0
 40
0.1089713112756567
 50
30.1505510232606184
 51
49.502117771830882
  0
ARC
  5
2305
  8
0
 10
212.7155508133627961
 20
41.9380530901507811
 30
0.0
 40
8.1085220871595656
 50
189.5584595921565096
 51
192.5250131915337874
  0
ARC
  5
2306
  8
0
 10
213.129034432280605
 20
41.991697961159197
 30
0.0
 40
8.5255110319807788
 50
184.6310441074234063
 51
186.1722336281627861
  0
ARC
  5
2307
  8
0
 10
208.4914781383305922
 20
41.8384676525800998
 30
0.0
 40
6.8979520608920444
 50
353.6459308450425851
 51
355.5507914691403926
  0
ARC
  5
2308
  8
0
 10
207.3245146066107907
 20
41.9302348692601115
 30
0.0
 40
8.0677147315119981
 50
347.467482548055898
 51
350.4490446682564198
  0
ARC
  5
2309
  8
0
 10
212.9260537813057965
 20
39.2114566989683127
 30
0.0
 40
1.8956667859058269
 50
359.653723692904407
 51
11.8273871407894493
  0
ARC
  5
230A
  8
0
 10
211.565676644992692
 20
42.9876094357530221
 30
0.0
 40
4.9947554306404562
 50
306.19468492656938
 51
310.6839217916256075
  0
ARC
  5
230B
  8
0
 10
207.7409175862088944
 20
41.6611800813974114
 30
0.0
 40
7.2941902098362927
 50
335.9133980189782847
 51
338.2373371349360127
  0
ARC
  5
230C
  8
0
 10
213.7909357446341971
 20
40.0976534467442605
 30
0.0
 40
1.5390046786580329
 50
288.8099760082980083
 51
293.3128857015810809
  0
ARC
  5
230D
  8
0
 10
212.5826163092175136
 20
38.7265772340754779
 30
0.0
 40
1.706696296529544
 50
348.9683901531341235
 51
357.1205627349797851
  0
ARC
  5
230E
  8
0
 10
211.1435036233673941
 20
43.0761856855519198
 30
0.0
 40
5.6183097280789269
 50
297.8140097831412163
 51
303.6630429410341208
  0
ARC
  5
230F
  8
0
 10
208.7282991055429875
 20
40.9135647296978107
 30
0.0
 40
5.765893499765669
 50
327.6630341053121924
 51
330.872360125159787
  0
ARC
  5
2310
  8
0
 10
213.3511582793171897
 20
39.478450966616208
 30
0.0
 40
1.667718170277017
 50
275.4555118818540791
 51
278.5811995454134831
  0
ARC
  5
2311
  8
0
 10
211.9829247624223001
 20
38.2871222030126503
 30
0.0
 40
1.597150168340556
 50
334.5186260180556133
 51
342.9297004602087213
  0
ARC
  5
2312
  8
0
 10
210.5912427562238065
 20
43.5501309072636715
 30
0.0
 40
6.590342049063592
 50
290.4704738270496023
 51
295.4639261078939967
  0
ARC
  5
2313
  8
0
 10
208.1921207388380992
 20
41.0164465008215515
 30
0.0
 40
5.9481196933053679
 50
320.7758753786092143
 51
322.2627588523868098
  0
ARC
  5
2314
  8
0
 10
212.8675630801803038
 20
39.1249907301041802
 30
0.0
 40
1.8710908838725979
 50
261.8091422233014782
 51
267.9306611489374745
  0
ARC
  5
2315
  8
0
 10
210.1071229139207901
 20
44.9884855437605893
 30
0.0
 40
8.1085311261705186
 50
286.1514449143322736
 51
287.912276878667285
  0
LINE
  5
2316
  8
0
 10
205.1783140529998946
 20
39.2000000000000028
 30
0.0
 11
214.8216859469000042
 21
39.2000000000000028
 31
0.0
  0
LINE
  5
2317
  8
0
 10
206.5752875490998974
 20
37.6000000000000085
 30
0.0
 11
213.4247124507998876
 21
37.6000000000000085
 31
0.0
  0
LINE
  5
2318
  8
0
 10
205.7422241285999007
 20
38.4000000000000128
 30
0.0
 11
214.257775871400014
 21
38.4000000000000128
 31
0.0
  0
LINE
  5
2319
  8
0
 10
205.071999999999889
 20
41.2000000000000028
 30
0.0
 11
205.328000000000003
 21
41.2000000000000028
 31
0.0
  0
LINE
  5
231A
  8
0
 10
205.5999999999999091
 20
41.4720000000000013
 30
0.0
 11
205.328000000000003
 21
41.2000000000000028
 31
0.0
  0
LINE
  5
231B
  8
0
 10
205.8720000000000141
 20
41.2000000000000028
 30
0.0
 11
205.5999999999999091
 21
41.4720000000000013
 31
0.0
  0
LINE
  5
231C
  8
0
 10
205.8720000000000141
 20
41.2000000000000028
 30
0.0
 11
206.1279999999999006
 21
41.2000000000000028
 31
0.0
  0
LINE
  5
231D
  8
0
 10
206.4000000000000057
 20
41.4720000000000013
 30
0.0
 11
206.1279999999999006
 21
41.2000000000000028
 31
0.0
  0
LINE
  5
231E
  8
0
 10
206.671999999999997
 20
41.2000000000000028
 30
0.0
 11
206.4000000000000057
 21
41.4720000000000013
 31
0.0
  0
LINE
  5
231F
  8
0
 10
206.671999999999997
 20
41.2000000000000028
 30
0.0
 11
206.9279999999999973
 21
41.2000000000000028
 31
0.0
  0
LINE
  5
2320
  8
0
 10
215.1999999999999034
 20
41.4720000000000013
 30
0.0
 11
214.928000000000111
 21
41.2000000000000028
 31
0.0
  0
LINE
  5
2321
  8
0
 10
215.3686431814298032
 20
41.3033568185419
 30
0.0
 11
215.1999999999999034
 21
41.4720000000000013
 31
0.0
  0
LINE
  5
2322
  8
0
 10
204.8000000000000114
 20
41.4720000000000013
 30
0.0
 11
204.6313568184926908
 21
41.3033568185098829
 31
0.0
  0
LINE
  5
2323
  8
0
 10
205.071999999999889
 20
41.2000000000000028
 30
0.0
 11
204.8000000000000114
 21
41.4720000000000013
 31
0.0
  0
LINE
  5
2324
  8
0
 10
215.1999999999999034
 20
40.9280000000000115
 30
0.0
 11
215.3470557919926023
 21
41.075055792017281
 31
0.0
  0
LINE
  5
2325
  8
0
 10
214.928000000000111
 20
41.2000000000000028
 30
0.0
 11
215.1999999999999034
 21
40.9280000000000115
 31
0.0
  0
LINE
  5
2326
  8
0
 10
206.4000000000000057
 20
40.9280000000000115
 30
0.0
 11
206.671999999999997
 21
41.2000000000000028
 31
0.0
  0
LINE
  5
2327
  8
0
 10
206.1279999999999006
 20
41.2000000000000028
 30
0.0
 11
206.4000000000000057
 21
40.9280000000000115
 31
0.0
  0
LINE
  5
2328
  8
0
 10
205.5999999999999091
 20
40.9280000000000115
 30
0.0
 11
205.8720000000000141
 21
41.2000000000000028
 31
0.0
  0
LINE
  5
2329
  8
0
 10
205.328000000000003
 20
41.2000000000000028
 30
0.0
 11
205.5999999999999091
 21
40.9280000000000115
 31
0.0
  0
LINE
  5
232A
  8
0
 10
204.8000000000000114
 20
40.9280000000000115
 30
0.0
 11
205.071999999999889
 21
41.2000000000000028
 31
0.0
  0
LINE
  5
232B
  8
0
 10
204.6529442079954038
 20
41.0750557919895627
 30
0.0
 11
204.8000000000000114
 21
40.9280000000000115
 31
0.0
  0
LINE
  5
232C
  8
0
 10
215.1999999999999034
 20
41.4720000000000013
 30
0.0
 11
215.1999999999999034
 21
40.9280000000000115
 31
0.0
  0
LINE
  5
232D
  8
0
 10
205.5999999999999091
 20
41.4720000000000013
 30
0.0
 11
205.5999999999999091
 21
40.9280000000000115
 31
0.0
  0
LINE
  5
232E
  8
0
 10
206.4000000000000057
 20
41.4720000000000013
 30
0.0
 11
206.4000000000000057
 21
40.9280000000000115
 31
0.0
  0
LINE
  5
232F
  8
0
 10
204.8000000000000114
 20
41.4720000000000013
 30
0.0
 11
204.8000000000000114
 21
40.9280000000000115
 31
0.0
  0
LINE
  5
2330
  8
0
 10
207.1999999999999034
 20
41.4720000000000013
 30
0.0
 11
206.9279999999999973
 21
41.2000000000000028
 31
0.0
  0
LINE
  5
2331
  8
0
 10
207.4720000000000084
 20
41.2000000000000028
 30
0.0
 11
207.1999999999999034
 21
41.4720000000000013
 31
0.0
  0
LINE
  5
2332
  8
0
 10
207.4720000000000084
 20
41.2000000000000028
 30
0.0
 11
207.7280000000000086
 21
41.2000000000000028
 31
0.0
  0
LINE
  5
2333
  8
0
 10
208.0
 20
41.4720000000000013
 30
0.0
 11
207.7280000000000086
 21
41.2000000000000028
 31
0.0
  0
LINE
  5
2334
  8
0
 10
208.272000000000105
 20
41.2000000000000028
 30
0.0
 11
208.0
 21
41.4720000000000013
 31
0.0
  0
LINE
  5
2335
  8
0
 10
208.272000000000105
 20
41.2000000000000028
 30
0.0
 11
208.5279999999999916
 21
41.2000000000000028
 31
0.0
  0
LINE
  5
2336
  8
0
 10
208.0
 20
40.9280000000000115
 30
0.0
 11
208.272000000000105
 21
41.2000000000000028
 31
0.0
  0
LINE
  5
2337
  8
0
 10
207.7280000000000086
 20
41.2000000000000028
 30
0.0
 11
208.0
 21
40.9280000000000115
 31
0.0
  0
LINE
  5
2338
  8
0
 10
207.1999999999999034
 20
40.9280000000000115
 30
0.0
 11
207.4720000000000084
 21
41.2000000000000028
 31
0.0
  0
LINE
  5
2339
  8
0
 10
206.9279999999999973
 20
41.2000000000000028
 30
0.0
 11
207.1999999999999034
 21
40.9280000000000115
 31
0.0
  0
LINE
  5
233A
  8
0
 10
207.1999999999999034
 20
41.4720000000000013
 30
0.0
 11
207.1999999999999034
 21
40.9280000000000115
 31
0.0
  0
LINE
  5
233B
  8
0
 10
208.0
 20
41.4720000000000013
 30
0.0
 11
208.0
 21
40.9280000000000115
 31
0.0
  0
LINE
  5
233C
  8
0
 10
208.8000000000000114
 20
41.4720000000000013
 30
0.0
 11
208.5279999999999916
 21
41.2000000000000028
 31
0.0
  0
LINE
  5
233D
  8
0
 10
209.0720000000000027
 20
41.2000000000000028
 30
0.0
 11
208.8000000000000114
 21
41.4720000000000013
 31
0.0
  0
LINE
  5
233E
  8
0
 10
209.0720000000000027
 20
41.2000000000000028
 30
0.0
 11
209.328000000000003
 21
41.2000000000000028
 31
0.0
  0
LINE
  5
233F
  8
0
 10
209.5999999999999943
 20
41.4720000000000013
 30
0.0
 11
209.328000000000003
 21
41.2000000000000028
 31
0.0
  0
LINE
  5
2340
  8
0
 10
209.8720000000000994
 20
41.2000000000000028
 30
0.0
 11
209.5999999999999943
 21
41.4720000000000013
 31
0.0
  0
LINE
  5
2341
  8
0
 10
209.8720000000000994
 20
41.2000000000000028
 30
0.0
 11
210.1279999999999859
 21
41.2000000000000028
 31
0.0
  0
LINE
  5
2342
  8
0
 10
209.5999999999999943
 20
40.9280000000000115
 30
0.0
 11
209.8720000000000994
 21
41.2000000000000028
 31
0.0
  0
LINE
  5
2343
  8
0
 10
209.328000000000003
 20
41.2000000000000028
 30
0.0
 11
209.5999999999999943
 21
40.9280000000000115
 31
0.0
  0
LINE
  5
2344
  8
0
 10
208.8000000000000114
 20
40.9280000000000115
 30
0.0
 11
209.0720000000000027
 21
41.2000000000000028
 31
0.0
  0
LINE
  5
2345
  8
0
 10
208.5279999999999916
 20
41.2000000000000028
 30
0.0
 11
208.8000000000000114
 21
40.9280000000000115
 31
0.0
  0
LINE
  5
2346
  8
0
 10
208.8000000000000114
 20
41.4720000000000013
 30
0.0
 11
208.8000000000000114
 21
40.9280000000000115
 31
0.0
  0
LINE
  5
2347
  8
0
 10
209.5999999999999943
 20
41.4720000000000013
 30
0.0
 11
209.5999999999999943
 21
40.9280000000000115
 31
0.0
  0
LINE
  5
2348
  8
0
 10
210.4000000000000057
 20
41.4720000000000013
 30
0.0
 11
210.1279999999999859
 21
41.2000000000000028
 31
0.0
  0
LINE
  5
2349
  8
0
 10
210.671999999999997
 20
41.2000000000000028
 30
0.0
 11
210.4000000000000057
 21
41.4720000000000013
 31
0.0
  0
LINE
  5
234A
  8
0
 10
210.671999999999997
 20
41.2000000000000028
 30
0.0
 11
210.9279999999999973
 21
41.2000000000000028
 31
0.0
  0
LINE
  5
234B
  8
0
 10
211.1999999999999886
 20
41.4720000000000013
 30
0.0
 11
210.9279999999999973
 21
41.2000000000000028
 31
0.0
  0
LINE
  5
234C
  8
0
 10
211.4720000000000937
 20
41.2000000000000028
 30
0.0
 11
211.1999999999999886
 21
41.4720000000000013
 31
0.0
  0
LINE
  5
234D
  8
0
 10
211.4720000000000937
 20
41.2000000000000028
 30
0.0
 11
211.7280000000000086
 21
41.2000000000000028
 31
0.0
  0
LINE
  5
234E
  8
0
 10
211.1999999999999886
 20
40.9280000000000115
 30
0.0
 11
211.4720000000000937
 21
41.2000000000000028
 31
0.0
  0
LINE
  5
234F
  8
0
 10
210.9279999999999973
 20
41.2000000000000028
 30
0.0
 11
211.1999999999999886
 21
40.9280000000000115
 31
0.0
  0
LINE
  5
2350
  8
0
 10
210.4000000000000057
 20
40.9280000000000115
 30
0.0
 11
210.671999999999997
 21
41.2000000000000028
 31
0.0
  0
LINE
  5
2351
  8
0
 10
210.1279999999999859
 20
41.2000000000000028
 30
0.0
 11
210.4000000000000057
 21
40.9280000000000115
 31
0.0
  0
LINE
  5
2352
  8
0
 10
210.4000000000000057
 20
41.4720000000000013
 30
0.0
 11
210.4000000000000057
 21
40.9280000000000115
 31
0.0
  0
LINE
  5
2353
  8
0
 10
211.1999999999999886
 20
41.4720000000000013
 30
0.0
 11
211.1999999999999886
 21
40.9280000000000115
 31
0.0
  0
LINE
  5
2354
  8
0
 10
212.0
 20
41.4720000000000013
 30
0.0
 11
211.7280000000000086
 21
41.2000000000000028
 31
0.0
  0
LINE
  5
2355
  8
0
 10
212.272000000000105
 20
41.2000000000000028
 30
0.0
 11
212.0
 21
41.4720000000000013
 31
0.0
  0
LINE
  5
2356
  8
0
 10
212.272000000000105
 20
41.2000000000000028
 30
0.0
 11
212.5279999999999916
 21
41.2000000000000028
 31
0.0
  0
LINE
  5
2357
  8
0
 10
212.8000000000000966
 20
41.4720000000000013
 30
0.0
 11
212.5279999999999916
 21
41.2000000000000028
 31
0.0
  0
LINE
  5
2358
  8
0
 10
213.072000000000088
 20
41.2000000000000028
 30
0.0
 11
212.8000000000000966
 21
41.4720000000000013
 31
0.0
  0
LINE
  5
2359
  8
0
 10
213.072000000000088
 20
41.2000000000000028
 30
0.0
 11
213.3280000000000882
 21
41.2000000000000028
 31
0.0
  0
LINE
  5
235A
  8
0
 10
212.8000000000000966
 20
40.9280000000000115
 30
0.0
 11
213.072000000000088
 21
41.2000000000000028
 31
0.0
  0
LINE
  5
235B
  8
0
 10
212.5279999999999916
 20
41.2000000000000028
 30
0.0
 11
212.8000000000000966
 21
40.9280000000000115
 31
0.0
  0
LINE
  5
235C
  8
0
 10
212.0
 20
40.9280000000000115
 30
0.0
 11
212.272000000000105
 21
41.2000000000000028
 31
0.0
  0
LINE
  5
235D
  8
0
 10
211.7280000000000086
 20
41.2000000000000028
 30
0.0
 11
212.0
 21
40.9280000000000115
 31
0.0
  0
LINE
  5
235E
  8
0
 10
212.0
 20
41.4720000000000013
 30
0.0
 11
212.0
 21
40.9280000000000115
 31
0.0
  0
LINE
  5
235F
  8
0
 10
212.8000000000000966
 20
41.4720000000000013
 30
0.0
 11
212.8000000000000966
 21
40.9280000000000115
 31
0.0
  0
LINE
  5
2360
  8
0
 10
213.5999999999999943
 20
41.4720000000000013
 30
0.0
 11
213.3280000000000882
 21
41.2000000000000028
 31
0.0
  0
LINE
  5
2361
  8
0
 10
213.8720000000000994
 20
41.2000000000000028
 30
0.0
 11
213.5999999999999943
 21
41.4720000000000013
 31
0.0
  0
LINE
  5
2362
  8
0
 10
213.8720000000000994
 20
41.2000000000000028
 30
0.0
 11
214.1279999999999859
 21
41.2000000000000028
 31
0.0
  0
LINE
  5
2363
  8
0
 10
214.4000000000000909
 20
41.4720000000000013
 30
0.0
 11
214.1279999999999859
 21
41.2000000000000028
 31
0.0
  0
LINE
  5
2364
  8
0
 10
214.6720000000001107
 20
41.2000000000000028
 30
0.0
 11
214.4000000000000909
 21
41.4720000000000013
 31
0.0
  0
LINE
  5
2365
  8
0
 10
214.6720000000001107
 20
41.2000000000000028
 30
0.0
 11
214.928000000000111
 21
41.2000000000000028
 31
0.0
  0
LINE
  5
2366
  8
0
 10
214.4000000000000909
 20
40.9280000000000115
 30
0.0
 11
214.6720000000001107
 21
41.2000000000000028
 31
0.0
  0
LINE
  5
2367
  8
0
 10
214.1279999999999859
 20
41.2000000000000028
 30
0.0
 11
214.4000000000000909
 21
40.9280000000000115
 31
0.0
  0
LINE
  5
2368
  8
0
 10
213.5999999999999943
 20
40.9280000000000115
 30
0.0
 11
213.8720000000000994
 21
41.2000000000000028
 31
0.0
  0
LINE
  5
2369
  8
0
 10
213.3280000000000882
 20
41.2000000000000028
 30
0.0
 11
213.5999999999999943
 21
40.9280000000000115
 31
0.0
  0
LINE
  5
236A
  8
0
 10
213.5999999999999943
 20
41.4720000000000013
 30
0.0
 11
213.5999999999999943
 21
40.9280000000000115
 31
0.0
  0
LINE
  5
236B
  8
0
 10
214.4000000000000909
 20
41.4720000000000013
 30
0.0
 11
214.4000000000000909
 21
40.9280000000000115
 31
0.0
  0
LINE
  5
236C
  8
0
 10
205.071999999999889
 20
40.3999999999999986
 30
0.0
 11
205.328000000000003
 21
40.3999999999999986
 31
0.0
  0
LINE
  5
236D
  8
0
 10
205.5999999999999091
 20
40.6720000000000113
 30
0.0
 11
205.328000000000003
 21
40.3999999999999986
 31
0.0
  0
LINE
  5
236E
  8
0
 10
205.8720000000000141
 20
40.3999999999999986
 30
0.0
 11
205.5999999999999091
 21
40.6720000000000113
 31
0.0
  0
LINE
  5
236F
  8
0
 10
205.8720000000000141
 20
40.3999999999999986
 30
0.0
 11
206.1279999999999006
 21
40.3999999999999986
 31
0.0
  0
LINE
  5
2370
  8
0
 10
206.4000000000000057
 20
40.6720000000000113
 30
0.0
 11
206.1279999999999006
 21
40.3999999999999986
 31
0.0
  0
LINE
  5
2371
  8
0
 10
206.671999999999997
 20
40.3999999999999986
 30
0.0
 11
206.4000000000000057
 21
40.6720000000000113
 31
0.0
  0
LINE
  5
2372
  8
0
 10
206.671999999999997
 20
40.3999999999999986
 30
0.0
 11
206.9279999999999973
 21
40.3999999999999986
 31
0.0
  0
LINE
  5
2373
  8
0
 10
215.1999999999999034
 20
40.6720000000000113
 30
0.0
 11
214.928000000000111
 21
40.3999999999999986
 31
0.0
  0
LINE
  5
2374
  8
0
 10
215.280398132393799
 20
40.5916018675927219
 30
0.0
 11
215.1999999999999034
 21
40.6720000000000113
 31
0.0
  0
LINE
  5
2375
  8
0
 10
204.8000000000000114
 20
40.6720000000000113
 30
0.0
 11
204.7196018675961966
 21
40.5916018676045027
 31
0.0
  0
LINE
  5
2376
  8
0
 10
205.071999999999889
 20
40.3999999999999986
 30
0.0
 11
204.8000000000000114
 21
40.6720000000000113
 31
0.0
  0
LINE
  5
2377
  8
0
 10
214.928000000000111
 20
40.3999999999999986
 30
0.0
 11
215.1765397114440077
 21
40.1514602885559881
 31
0.0
  0
LINE
  5
2378
  8
0
 10
206.4000000000000057
 20
40.1280000000000072
 30
0.0
 11
206.671999999999997
 21
40.3999999999999986
 31
0.0
  0
LINE
  5
2379
  8
0
 10
206.1279999999999006
 20
40.3999999999999986
 30
0.0
 11
206.4000000000000057
 21
40.1280000000000072
 31
0.0
  0
LINE
  5
237A
  8
0
 10
205.5999999999999091
 20
40.1280000000000072
 30
0.0
 11
205.8720000000000141
 21
40.3999999999999986
 31
0.0
  0
LINE
  5
237B
  8
0
 10
205.328000000000003
 20
40.3999999999999986
 30
0.0
 11
205.5999999999999091
 21
40.1280000000000072
 31
0.0
  0
LINE
  5
237C
  8
0
 10
204.8234602885000015
 20
40.1514602885000969
 30
0.0
 11
205.071999999999889
 21
40.3999999999999986
 31
0.0
  0
LINE
  5
237D
  8
0
 10
215.1999999999999034
 20
40.6720000000000113
 30
0.0
 11
215.2000000000001023
 21
40.1795918995001387
 31
0.0
  0
LINE
  5
237E
  8
0
 10
205.5999999999999091
 20
40.6720000000000113
 30
0.0
 11
205.5999999999999091
 21
40.1280000000000072
 31
0.0
  0
LINE
  5
237F
  8
0
 10
206.4000000000000057
 20
40.6720000000000113
 30
0.0
 11
206.4000000000000057
 21
40.1280000000000072
 31
0.0
  0
LINE
  5
2380
  8
0
 10
204.8000000000000114
 20
40.6720000000000113
 30
0.0
 11
204.8000000000000966
 21
40.1795918994997692
 31
0.0
  0
LINE
  5
2381
  8
0
 10
207.1999999999999034
 20
40.6720000000000113
 30
0.0
 11
206.9279999999999973
 21
40.3999999999999986
 31
0.0
  0
LINE
  5
2382
  8
0
 10
207.4720000000000084
 20
40.3999999999999986
 30
0.0
 11
207.1999999999999034
 21
40.6720000000000113
 31
0.0
  0
LINE
  5
2383
  8
0
 10
207.4720000000000084
 20
40.3999999999999986
 30
0.0
 11
207.7280000000000086
 21
40.3999999999999986
 31
0.0
  0
LINE
  5
2384
  8
0
 10
208.0
 20
40.6720000000000113
 30
0.0
 11
207.7280000000000086
 21
40.3999999999999986
 31
0.0
  0
LINE
  5
2385
  8
0
 10
208.272000000000105
 20
40.3999999999999986
 30
0.0
 11
208.0
 21
40.6720000000000113
 31
0.0
  0
LINE
  5
2386
  8
0
 10
208.272000000000105
 20
40.3999999999999986
 30
0.0
 11
208.5279999999999916
 21
40.3999999999999986
 31
0.0
  0
LINE
  5
2387
  8
0
 10
208.0
 20
40.1280000000000072
 30
0.0
 11
208.272000000000105
 21
40.3999999999999986
 31
0.0
  0
LINE
  5
2388
  8
0
 10
207.7280000000000086
 20
40.3999999999999986
 30
0.0
 11
208.0
 21
40.1280000000000072
 31
0.0
  0
LINE
  5
2389
  8
0
 10
207.1999999999999034
 20
40.1280000000000072
 30
0.0
 11
207.4720000000000084
 21
40.3999999999999986
 31
0.0
  0
LINE
  5
238A
  8
0
 10
206.9279999999999973
 20
40.3999999999999986
 30
0.0
 11
207.1999999999999034
 21
40.1280000000000072
 31
0.0
  0
LINE
  5
238B
  8
0
 10
207.1999999999999034
 20
40.6720000000000113
 30
0.0
 11
207.1999999999999034
 21
40.1280000000000072
 31
0.0
  0
LINE
  5
238C
  8
0
 10
208.0
 20
40.6720000000000113
 30
0.0
 11
208.0
 21
40.1280000000000072
 31
0.0
  0
LINE
  5
238D
  8
0
 10
208.8000000000000114
 20
40.6720000000000113
 30
0.0
 11
208.5279999999999916
 21
40.3999999999999986
 31
0.0
  0
LINE
  5
238E
  8
0
 10
209.0720000000000027
 20
40.3999999999999986
 30
0.0
 11
208.8000000000000114
 21
40.6720000000000113
 31
0.0
  0
LINE
  5
238F
  8
0
 10
209.0720000000000027
 20
40.3999999999999986
 30
0.0
 11
209.328000000000003
 21
40.3999999999999986
 31
0.0
  0
LINE
  5
2390
  8
0
 10
209.5999999999999943
 20
40.6720000000000113
 30
0.0
 11
209.328000000000003
 21
40.3999999999999986
 31
0.0
  0
LINE
  5
2391
  8
0
 10
209.8720000000000994
 20
40.3999999999999986
 30
0.0
 11
209.5999999999999943
 21
40.6720000000000113
 31
0.0
  0
LINE
  5
2392
  8
0
 10
209.8720000000000994
 20
40.3999999999999986
 30
0.0
 11
210.1279999999999859
 21
40.3999999999999986
 31
0.0
  0
LINE
  5
2393
  8
0
 10
209.5999999999999943
 20
40.1280000000000072
 30
0.0
 11
209.8720000000000994
 21
40.3999999999999986
 31
0.0
  0
LINE
  5
2394
  8
0
 10
209.328000000000003
 20
40.3999999999999986
 30
0.0
 11
209.5999999999999943
 21
40.1280000000000072
 31
0.0
  0
LINE
  5
2395
  8
0
 10
208.8000000000000114
 20
40.1280000000000072
 30
0.0
 11
209.0720000000000027
 21
40.3999999999999986
 31
0.0
  0
LINE
  5
2396
  8
0
 10
208.5279999999999916
 20
40.3999999999999986
 30
0.0
 11
208.8000000000000114
 21
40.1280000000000072
 31
0.0
  0
LINE
  5
2397
  8
0
 10
208.8000000000000114
 20
40.6720000000000113
 30
0.0
 11
208.8000000000000114
 21
40.1280000000000072
 31
0.0
  0
LINE
  5
2398
  8
0
 10
209.5999999999999943
 20
40.6720000000000113
 30
0.0
 11
209.5999999999999943
 21
40.1280000000000072
 31
0.0
  0
LINE
  5
2399
  8
0
 10
210.4000000000000057
 20
40.6720000000000113
 30
0.0
 11
210.1279999999999859
 21
40.3999999999999986
 31
0.0
  0
LINE
  5
239A
  8
0
 10
210.671999999999997
 20
40.3999999999999986
 30
0.0
 11
210.4000000000000057
 21
40.6720000000000113
 31
0.0
  0
LINE
  5
239B
  8
0
 10
210.671999999999997
 20
40.3999999999999986
 30
0.0
 11
210.9279999999999973
 21
40.3999999999999986
 31
0.0
  0
LINE
  5
239C
  8
0
 10
211.1999999999999886
 20
40.6720000000000113
 30
0.0
 11
210.9279999999999973
 21
40.3999999999999986
 31
0.0
  0
LINE
  5
239D
  8
0
 10
211.4720000000000937
 20
40.3999999999999986
 30
0.0
 11
211.1999999999999886
 21
40.6720000000000113
 31
0.0
  0
LINE
  5
239E
  8
0
 10
211.4720000000000937
 20
40.3999999999999986
 30
0.0
 11
211.7280000000000086
 21
40.3999999999999986
 31
0.0
  0
LINE
  5
239F
  8
0
 10
211.1999999999999886
 20
40.1280000000000072
 30
0.0
 11
211.4720000000000937
 21
40.3999999999999986
 31
0.0
  0
LINE
  5
23A0
  8
0
 10
210.9279999999999973
 20
40.3999999999999986
 30
0.0
 11
211.1999999999999886
 21
40.1280000000000072
 31
0.0
  0
LINE
  5
23A1
  8
0
 10
210.4000000000000057
 20
40.1280000000000072
 30
0.0
 11
210.671999999999997
 21
40.3999999999999986
 31
0.0
  0
LINE
  5
23A2
  8
0
 10
210.1279999999999859
 20
40.3999999999999986
 30
0.0
 11
210.4000000000000057
 21
40.1280000000000072
 31
0.0
  0
LINE
  5
23A3
  8
0
 10
210.4000000000000057
 20
40.6720000000000113
 30
0.0
 11
210.4000000000000057
 21
40.1280000000000072
 31
0.0
  0
LINE
  5
23A4
  8
0
 10
211.1999999999999886
 20
40.6720000000000113
 30
0.0
 11
211.1999999999999886
 21
40.1280000000000072
 31
0.0
  0
LINE
  5
23A5
  8
0
 10
212.0
 20
40.6720000000000113
 30
0.0
 11
211.7280000000000086
 21
40.3999999999999986
 31
0.0
  0
LINE
  5
23A6
  8
0
 10
212.272000000000105
 20
40.3999999999999986
 30
0.0
 11
212.0
 21
40.6720000000000113
 31
0.0
  0
LINE
  5
23A7
  8
0
 10
212.272000000000105
 20
40.3999999999999986
 30
0.0
 11
212.5279999999999916
 21
40.3999999999999986
 31
0.0
  0
LINE
  5
23A8
  8
0
 10
212.8000000000000966
 20
40.6720000000000113
 30
0.0
 11
212.5279999999999916
 21
40.3999999999999986
 31
0.0
  0
LINE
  5
23A9
  8
0
 10
213.072000000000088
 20
40.3999999999999986
 30
0.0
 11
212.8000000000000966
 21
40.6720000000000113
 31
0.0
  0
LINE
  5
23AA
  8
0
 10
213.072000000000088
 20
40.3999999999999986
 30
0.0
 11
213.3280000000000882
 21
40.3999999999999986
 31
0.0
  0
LINE
  5
23AB
  8
0
 10
212.8000000000000966
 20
40.1280000000000072
 30
0.0
 11
213.072000000000088
 21
40.3999999999999986
 31
0.0
  0
LINE
  5
23AC
  8
0
 10
212.5279999999999916
 20
40.3999999999999986
 30
0.0
 11
212.8000000000000966
 21
40.1280000000000072
 31
0.0
  0
LINE
  5
23AD
  8
0
 10
212.0
 20
40.1280000000000072
 30
0.0
 11
212.272000000000105
 21
40.3999999999999986
 31
0.0
  0
LINE
  5
23AE
  8
0
 10
211.7280000000000086
 20
40.3999999999999986
 30
0.0
 11
212.0
 21
40.1280000000000072
 31
0.0
  0
LINE
  5
23AF
  8
0
 10
212.0
 20
40.6720000000000113
 30
0.0
 11
212.0
 21
40.1280000000000072
 31
0.0
  0
LINE
  5
23B0
  8
0
 10
212.8000000000000966
 20
40.6720000000000113
 30
0.0
 11
212.8000000000000966
 21
40.1280000000000072
 31
0.0
  0
LINE
  5
23B1
  8
0
 10
213.5999999999999943
 20
40.6720000000000113
 30
0.0
 11
213.3280000000000882
 21
40.3999999999999986
 31
0.0
  0
LINE
  5
23B2
  8
0
 10
213.8720000000000994
 20
40.3999999999999986
 30
0.0
 11
213.5999999999999943
 21
40.6720000000000113
 31
0.0
  0
LINE
  5
23B3
  8
0
 10
213.8720000000000994
 20
40.3999999999999986
 30
0.0
 11
214.1279999999999859
 21
40.3999999999999986
 31
0.0
  0
LINE
  5
23B4
  8
0
 10
214.4000000000000909
 20
40.6720000000000113
 30
0.0
 11
214.1279999999999859
 21
40.3999999999999986
 31
0.0
  0
LINE
  5
23B5
  8
0
 10
214.6720000000001107
 20
40.3999999999999986
 30
0.0
 11
214.4000000000000909
 21
40.6720000000000113
 31
0.0
  0
LINE
  5
23B6
  8
0
 10
214.6720000000001107
 20
40.3999999999999986
 30
0.0
 11
214.928000000000111
 21
40.3999999999999986
 31
0.0
  0
LINE
  5
23B7
  8
0
 10
214.4000000000000909
 20
40.1280000000000072
 30
0.0
 11
214.6720000000001107
 21
40.3999999999999986
 31
0.0
  0
LINE
  5
23B8
  8
0
 10
214.1279999999999859
 20
40.3999999999999986
 30
0.0
 11
214.4000000000000909
 21
40.1280000000000072
 31
0.0
  0
LINE
  5
23B9
  8
0
 10
213.5999999999999943
 20
40.1280000000000072
 30
0.0
 11
213.8720000000000994
 21
40.3999999999999986
 31
0.0
  0
LINE
  5
23BA
  8
0
 10
213.3280000000000882
 20
40.3999999999999986
 30
0.0
 11
213.5999999999999943
 21
40.1280000000000072
 31
0.0
  0
LINE
  5
23BB
  8
0
 10
213.5999999999999943
 20
40.6720000000000113
 30
0.0
 11
213.5999999999999943
 21
40.1280000000000072
 31
0.0
  0
LINE
  5
23BC
  8
0
 10
214.4000000000000909
 20
40.6720000000000113
 30
0.0
 11
214.4000000000000909
 21
40.1280000000000072
 31
0.0
  0
LINE
  5
23BD
  8
0
 10
205.2185253319998992
 20
39.6000000000000085
 30
0.0
 11
205.328000000000003
 21
39.6000000000000085
 31
0.0
  0
LINE
  5
23BE
  8
0
 10
205.5999999999999091
 20
39.872000000000007
 30
0.0
 11
205.328000000000003
 21
39.6000000000000085
 31
0.0
  0
LINE
  5
23BF
  8
0
 10
205.8720000000000141
 20
39.6000000000000085
 30
0.0
 11
205.5999999999999091
 21
39.872000000000007
 31
0.0
  0
LINE
  5
23C0
  8
0
 10
205.8720000000000141
 20
39.6000000000000085
 30
0.0
 11
206.1279999999999006
 21
39.6000000000000085
 31
0.0
  0
LINE
  5
23C1
  8
0
 10
206.4000000000000057
 20
39.872000000000007
 30
0.0
 11
206.1279999999999006
 21
39.6000000000000085
 31
0.0
  0
LINE
  5
23C2
  8
0
 10
206.671999999999997
 20
39.6000000000000085
 30
0.0
 11
206.4000000000000057
 21
39.872000000000007
 31
0.0
  0
LINE
  5
23C3
  8
0
 10
206.671999999999997
 20
39.6000000000000085
 30
0.0
 11
206.9279999999999973
 21
39.6000000000000085
 31
0.0
  0
LINE
  5
23C4
  8
0
 10
206.4000000000000057
 20
39.3280000000000172
 30
0.0
 11
206.671999999999997
 21
39.6000000000000085
 31
0.0
  0
LINE
  5
23C5
  8
0
 10
206.1279999999999006
 20
39.6000000000000085
 30
0.0
 11
206.4000000000000057
 21
39.3280000000000172
 31
0.0
  0
LINE
  5
23C6
  8
0
 10
205.5999999999999091
 20
39.3280000000000172
 30
0.0
 11
205.8720000000000141
 21
39.6000000000000085
 31
0.0
  0
LINE
  5
23C7
  8
0
 10
205.328000000000003
 20
39.6000000000000085
 30
0.0
 11
205.5999999999999091
 21
39.3280000000000172
 31
0.0
  0
LINE
  5
23C8
  8
0
 10
205.5999999999999091
 20
39.872000000000007
 30
0.0
 11
205.5999999999999091
 21
39.3280000000000172
 31
0.0
  0
LINE
  5
23C9
  8
0
 10
206.4000000000000057
 20
39.872000000000007
 30
0.0
 11
206.4000000000000057
 21
39.3280000000000172
 31
0.0
  0
LINE
  5
23CA
  8
0
 10
207.1999999999999034
 20
39.872000000000007
 30
0.0
 11
206.9279999999999973
 21
39.6000000000000085
 31
0.0
  0
LINE
  5
23CB
  8
0
 10
207.4720000000000084
 20
39.6000000000000085
 30
0.0
 11
207.1999999999999034
 21
39.872000000000007
 31
0.0
  0
LINE
  5
23CC
  8
0
 10
207.4720000000000084
 20
39.6000000000000085
 30
0.0
 11
207.7280000000000086
 21
39.6000000000000085
 31
0.0
  0
LINE
  5
23CD
  8
0
 10
208.0
 20
39.872000000000007
 30
0.0
 11
207.7280000000000086
 21
39.6000000000000085
 31
0.0
  0
LINE
  5
23CE
  8
0
 10
208.272000000000105
 20
39.6000000000000085
 30
0.0
 11
208.0
 21
39.872000000000007
 31
0.0
  0
LINE
  5
23CF
  8
0
 10
208.272000000000105
 20
39.6000000000000085
 30
0.0
 11
208.5279999999999916
 21
39.6000000000000085
 31
0.0
  0
LINE
  5
23D0
  8
0
 10
208.0
 20
39.3280000000000172
 30
0.0
 11
208.272000000000105
 21
39.6000000000000085
 31
0.0
  0
LINE
  5
23D1
  8
0
 10
207.7280000000000086
 20
39.6000000000000085
 30
0.0
 11
208.0
 21
39.3280000000000172
 31
0.0
  0
LINE
  5
23D2
  8
0
 10
207.1999999999999034
 20
39.3280000000000172
 30
0.0
 11
207.4720000000000084
 21
39.6000000000000085
 31
0.0
  0
LINE
  5
23D3
  8
0
 10
206.9279999999999973
 20
39.6000000000000085
 30
0.0
 11
207.1999999999999034
 21
39.3280000000000172
 31
0.0
  0
LINE
  5
23D4
  8
0
 10
207.1999999999999034
 20
39.872000000000007
 30
0.0
 11
207.1999999999999034
 21
39.3280000000000172
 31
0.0
  0
LINE
  5
23D5
  8
0
 10
208.0
 20
39.872000000000007
 30
0.0
 11
208.0
 21
39.3280000000000172
 31
0.0
  0
LINE
  5
23D6
  8
0
 10
208.8000000000000114
 20
39.872000000000007
 30
0.0
 11
208.5279999999999916
 21
39.6000000000000085
 31
0.0
  0
LINE
  5
23D7
  8
0
 10
209.0720000000000027
 20
39.6000000000000085
 30
0.0
 11
208.8000000000000114
 21
39.872000000000007
 31
0.0
  0
LINE
  5
23D8
  8
0
 10
209.0720000000000027
 20
39.6000000000000085
 30
0.0
 11
209.328000000000003
 21
39.6000000000000085
 31
0.0
  0
LINE
  5
23D9
  8
0
 10
209.5999999999999943
 20
39.872000000000007
 30
0.0
 11
209.328000000000003
 21
39.6000000000000085
 31
0.0
  0
LINE
  5
23DA
  8
0
 10
209.8720000000000994
 20
39.6000000000000085
 30
0.0
 11
209.5999999999999943
 21
39.872000000000007
 31
0.0
  0
LINE
  5
23DB
  8
0
 10
209.8720000000000994
 20
39.6000000000000085
 30
0.0
 11
210.1279999999999859
 21
39.6000000000000085
 31
0.0
  0
LINE
  5
23DC
  8
0
 10
209.5999999999999943
 20
39.3280000000000172
 30
0.0
 11
209.8720000000000994
 21
39.6000000000000085
 31
0.0
  0
LINE
  5
23DD
  8
0
 10
209.328000000000003
 20
39.6000000000000085
 30
0.0
 11
209.5999999999999943
 21
39.3280000000000172
 31
0.0
  0
LINE
  5
23DE
  8
0
 10
208.8000000000000114
 20
39.3280000000000172
 30
0.0
 11
209.0720000000000027
 21
39.6000000000000085
 31
0.0
  0
LINE
  5
23DF
  8
0
 10
208.5279999999999916
 20
39.6000000000000085
 30
0.0
 11
208.8000000000000114
 21
39.3280000000000172
 31
0.0
  0
LINE
  5
23E0
  8
0
 10
208.8000000000000114
 20
39.872000000000007
 30
0.0
 11
208.8000000000000114
 21
39.3280000000000172
 31
0.0
  0
LINE
  5
23E1
  8
0
 10
209.5999999999999943
 20
39.872000000000007
 30
0.0
 11
209.5999999999999943
 21
39.3280000000000172
 31
0.0
  0
LINE
  5
23E2
  8
0
 10
210.4000000000000057
 20
39.872000000000007
 30
0.0
 11
210.1279999999999859
 21
39.6000000000000085
 31
0.0
  0
LINE
  5
23E3
  8
0
 10
210.671999999999997
 20
39.6000000000000085
 30
0.0
 11
210.4000000000000057
 21
39.872000000000007
 31
0.0
  0
LINE
  5
23E4
  8
0
 10
210.671999999999997
 20
39.6000000000000085
 30
0.0
 11
210.9279999999999973
 21
39.6000000000000085
 31
0.0
  0
LINE
  5
23E5
  8
0
 10
211.1999999999999886
 20
39.872000000000007
 30
0.0
 11
210.9279999999999973
 21
39.6000000000000085
 31
0.0
  0
LINE
  5
23E6
  8
0
 10
211.4720000000000937
 20
39.6000000000000085
 30
0.0
 11
211.1999999999999886
 21
39.872000000000007
 31
0.0
  0
LINE
  5
23E7
  8
0
 10
211.4720000000000937
 20
39.6000000000000085
 30
0.0
 11
211.7280000000000086
 21
39.6000000000000085
 31
0.0
  0
LINE
  5
23E8
  8
0
 10
211.1999999999999886
 20
39.3280000000000172
 30
0.0
 11
211.4720000000000937
 21
39.6000000000000085
 31
0.0
  0
LINE
  5
23E9
  8
0
 10
210.9279999999999973
 20
39.6000000000000085
 30
0.0
 11
211.1999999999999886
 21
39.3280000000000172
 31
0.0
  0
LINE
  5
23EA
  8
0
 10
210.4000000000000057
 20
39.3280000000000172
 30
0.0
 11
210.671999999999997
 21
39.6000000000000085
 31
0.0
  0
LINE
  5
23EB
  8
0
 10
210.1279999999999859
 20
39.6000000000000085
 30
0.0
 11
210.4000000000000057
 21
39.3280000000000172
 31
0.0
  0
LINE
  5
23EC
  8
0
 10
210.4000000000000057
 20
39.872000000000007
 30
0.0
 11
210.4000000000000057
 21
39.3280000000000172
 31
0.0
  0
LINE
  5
23ED
  8
0
 10
211.1999999999999886
 20
39.872000000000007
 30
0.0
 11
211.1999999999999886
 21
39.3280000000000172
 31
0.0
  0
LINE
  5
23EE
  8
0
 10
212.0
 20
39.872000000000007
 30
0.0
 11
211.7280000000000086
 21
39.6000000000000085
 31
0.0
  0
LINE
  5
23EF
  8
0
 10
212.272000000000105
 20
39.6000000000000085
 30
0.0
 11
212.0
 21
39.872000000000007
 31
0.0
  0
LINE
  5
23F0
  8
0
 10
212.272000000000105
 20
39.6000000000000085
 30
0.0
 11
212.5279999999999916
 21
39.6000000000000085
 31
0.0
  0
LINE
  5
23F1
  8
0
 10
212.8000000000000966
 20
39.872000000000007
 30
0.0
 11
212.5279999999999916
 21
39.6000000000000085
 31
0.0
  0
LINE
  5
23F2
  8
0
 10
213.072000000000088
 20
39.6000000000000085
 30
0.0
 11
212.8000000000000966
 21
39.872000000000007
 31
0.0
  0
LINE
  5
23F3
  8
0
 10
213.072000000000088
 20
39.6000000000000085
 30
0.0
 11
213.3280000000000882
 21
39.6000000000000085
 31
0.0
  0
LINE
  5
23F4
  8
0
 10
212.8000000000000966
 20
39.3280000000000172
 30
0.0
 11
213.072000000000088
 21
39.6000000000000085
 31
0.0
  0
LINE
  5
23F5
  8
0
 10
212.5279999999999916
 20
39.6000000000000085
 30
0.0
 11
212.8000000000000966
 21
39.3280000000000172
 31
0.0
  0
LINE
  5
23F6
  8
0
 10
212.0
 20
39.3280000000000172
 30
0.0
 11
212.272000000000105
 21
39.6000000000000085
 31
0.0
  0
LINE
  5
23F7
  8
0
 10
211.7280000000000086
 20
39.6000000000000085
 30
0.0
 11
212.0
 21
39.3280000000000172
 31
0.0
  0
LINE
  5
23F8
  8
0
 10
212.0
 20
39.872000000000007
 30
0.0
 11
212.0
 21
39.3280000000000172
 31
0.0
  0
LINE
  5
23F9
  8
0
 10
212.8000000000000966
 20
39.872000000000007
 30
0.0
 11
212.8000000000000966
 21
39.3280000000000172
 31
0.0
  0
LINE
  5
23FA
  8
0
 10
213.5999999999999943
 20
39.872000000000007
 30
0.0
 11
213.3280000000000882
 21
39.6000000000000085
 31
0.0
  0
LINE
  5
23FB
  8
0
 10
213.8720000000000994
 20
39.6000000000000085
 30
0.0
 11
213.5999999999999943
 21
39.872000000000007
 31
0.0
  0
LINE
  5
23FC
  8
0
 10
213.8720000000000994
 20
39.6000000000000085
 30
0.0
 11
214.1279999999999859
 21
39.6000000000000085
 31
0.0
  0
LINE
  5
23FD
  8
0
 10
214.4000000000000909
 20
39.872000000000007
 30
0.0
 11
214.1279999999999859
 21
39.6000000000000085
 31
0.0
  0
LINE
  5
23FE
  8
0
 10
214.6720000000001107
 20
39.6000000000000085
 30
0.0
 11
214.4000000000000909
 21
39.872000000000007
 31
0.0
  0
LINE
  5
23FF
  8
0
 10
214.6720000000001107
 20
39.6000000000000085
 30
0.0
 11
214.7814746678998858
 21
39.6000000000000227
 31
0.0
  0
LINE
  5
2400
  8
0
 10
214.4000000000000909
 20
39.3280000000000172
 30
0.0
 11
214.6720000000001107
 21
39.6000000000000085
 31
0.0
  0
LINE
  5
2401
  8
0
 10
214.1279999999999859
 20
39.6000000000000085
 30
0.0
 11
214.4000000000000909
 21
39.3280000000000172
 31
0.0
  0
LINE
  5
2402
  8
0
 10
213.5999999999999943
 20
39.3280000000000172
 30
0.0
 11
213.8720000000000994
 21
39.6000000000000085
 31
0.0
  0
LINE
  5
2403
  8
0
 10
213.3280000000000882
 20
39.6000000000000085
 30
0.0
 11
213.5999999999999943
 21
39.3280000000000172
 31
0.0
  0
LINE
  5
2404
  8
0
 10
213.5999999999999943
 20
39.872000000000007
 30
0.0
 11
213.5999999999999943
 21
39.3280000000000172
 31
0.0
  0
LINE
  5
2405
  8
0
 10
214.4000000000000909
 20
39.872000000000007
 30
0.0
 11
214.4000000000000909
 21
39.3280000000000172
 31
0.0
  0
LINE
  5
2406
  8
0
 10
205.5999999999999091
 20
39.0720000000000169
 30
0.0
 11
205.484766399799895
 21
38.9567663997999603
 31
0.0
  0
LINE
  5
2407
  8
0
 10
205.8720000000000141
 20
38.8000000000000114
 30
0.0
 11
205.5999999999999091
 21
39.0720000000000169
 31
0.0
  0
LINE
  5
2408
  8
0
 10
205.8720000000000141
 20
38.8000000000000114
 30
0.0
 11
206.1279999999999006
 21
38.8000000000000114
 31
0.0
  0
LINE
  5
2409
  8
0
 10
206.4000000000000057
 20
39.0720000000000169
 30
0.0
 11
206.1279999999999006
 21
38.8000000000000114
 31
0.0
  0
LINE
  5
240A
  8
0
 10
206.671999999999997
 20
38.8000000000000114
 30
0.0
 11
206.4000000000000057
 21
39.0720000000000169
 31
0.0
  0
LINE
  5
240B
  8
0
 10
206.671999999999997
 20
38.8000000000000114
 30
0.0
 11
206.9279999999999973
 21
38.8000000000000114
 31
0.0
  0
LINE
  5
240C
  8
0
 10
206.4000000000000057
 20
38.52800000000002
 30
0.0
 11
206.671999999999997
 21
38.8000000000000114
 31
0.0
  0
LINE
  5
240D
  8
0
 10
206.1279999999999006
 20
38.8000000000000114
 30
0.0
 11
206.4000000000000057
 21
38.52800000000002
 31
0.0
  0
LINE
  5
240E
  8
0
 10
205.7128421835998893
 20
38.6408421836000713
 30
0.0
 11
205.8720000000000141
 21
38.8000000000000114
 31
0.0
  0
LINE
  5
240F
  8
0
 10
205.5999999999999091
 20
39.0720000000000169
 30
0.0
 11
205.5999999999999943
 21
38.6842971102999869
 31
0.0
  0
LINE
  5
2410
  8
0
 10
206.4000000000000057
 20
39.0720000000000169
 30
0.0
 11
206.4000000000000057
 21
38.52800000000002
 31
0.0
  0
LINE
  5
2411
  8
0
 10
207.1999999999999034
 20
39.0720000000000169
 30
0.0
 11
206.9279999999999973
 21
38.8000000000000114
 31
0.0
  0
LINE
  5
2412
  8
0
 10
207.4720000000000084
 20
38.8000000000000114
 30
0.0
 11
207.1999999999999034
 21
39.0720000000000169
 31
0.0
  0
LINE
  5
2413
  8
0
 10
207.4720000000000084
 20
38.8000000000000114
 30
0.0
 11
207.7280000000000086
 21
38.8000000000000114
 31
0.0
  0
LINE
  5
2414
  8
0
 10
208.0
 20
39.0720000000000169
 30
0.0
 11
207.7280000000000086
 21
38.8000000000000114
 31
0.0
  0
LINE
  5
2415
  8
0
 10
208.272000000000105
 20
38.8000000000000114
 30
0.0
 11
208.0
 21
39.0720000000000169
 31
0.0
  0
LINE
  5
2416
  8
0
 10
208.272000000000105
 20
38.8000000000000114
 30
0.0
 11
208.5279999999999916
 21
38.8000000000000114
 31
0.0
  0
LINE
  5
2417
  8
0
 10
208.0
 20
38.52800000000002
 30
0.0
 11
208.272000000000105
 21
38.8000000000000114
 31
0.0
  0
LINE
  5
2418
  8
0
 10
207.7280000000000086
 20
38.8000000000000114
 30
0.0
 11
208.0
 21
38.52800000000002
 31
0.0
  0
LINE
  5
2419
  8
0
 10
207.1999999999999034
 20
38.52800000000002
 30
0.0
 11
207.4720000000000084
 21
38.8000000000000114
 31
0.0
  0
LINE
  5
241A
  8
0
 10
206.9279999999999973
 20
38.8000000000000114
 30
0.0
 11
207.1999999999999034
 21
38.52800000000002
 31
0.0
  0
LINE
  5
241B
  8
0
 10
207.1999999999999034
 20
39.0720000000000169
 30
0.0
 11
207.1999999999999034
 21
38.52800000000002
 31
0.0
  0
LINE
  5
241C
  8
0
 10
208.0
 20
39.0720000000000169
 30
0.0
 11
208.0
 21
38.52800000000002
 31
0.0
  0
LINE
  5
241D
  8
0
 10
208.8000000000000114
 20
39.0720000000000169
 30
0.0
 11
208.5279999999999916
 21
38.8000000000000114
 31
0.0
  0
LINE
  5
241E
  8
0
 10
209.0720000000000027
 20
38.8000000000000114
 30
0.0
 11
208.8000000000000114
 21
39.0720000000000169
 31
0.0
  0
LINE
  5
241F
  8
0
 10
209.0720000000000027
 20
38.8000000000000114
 30
0.0
 11
209.328000000000003
 21
38.8000000000000114
 31
0.0
  0
LINE
  5
2420
  8
0
 10
209.5999999999999943
 20
39.0720000000000169
 30
0.0
 11
209.328000000000003
 21
38.8000000000000114
 31
0.0
  0
LINE
  5
2421
  8
0
 10
209.8720000000000994
 20
38.8000000000000114
 30
0.0
 11
209.5999999999999943
 21
39.0720000000000169
 31
0.0
  0
LINE
  5
2422
  8
0
 10
209.8720000000000994
 20
38.8000000000000114
 30
0.0
 11
210.1279999999999859
 21
38.8000000000000114
 31
0.0
  0
LINE
  5
2423
  8
0
 10
209.5999999999999943
 20
38.52800000000002
 30
0.0
 11
209.8720000000000994
 21
38.8000000000000114
 31
0.0
  0
LINE
  5
2424
  8
0
 10
209.328000000000003
 20
38.8000000000000114
 30
0.0
 11
209.5999999999999943
 21
38.52800000000002
 31
0.0
  0
LINE
  5
2425
  8
0
 10
208.8000000000000114
 20
38.52800000000002
 30
0.0
 11
209.0720000000000027
 21
38.8000000000000114
 31
0.0
  0
LINE
  5
2426
  8
0
 10
208.5279999999999916
 20
38.8000000000000114
 30
0.0
 11
208.8000000000000114
 21
38.52800000000002
 31
0.0
  0
LINE
  5
2427
  8
0
 10
208.8000000000000114
 20
39.0720000000000169
 30
0.0
 11
208.8000000000000114
 21
38.52800000000002
 31
0.0
  0
LINE
  5
2428
  8
0
 10
209.5999999999999943
 20
39.0720000000000169
 30
0.0
 11
209.5999999999999943
 21
38.52800000000002
 31
0.0
  0
LINE
  5
2429
  8
0
 10
210.4000000000000057
 20
39.0720000000000169
 30
0.0
 11
210.1279999999999859
 21
38.8000000000000114
 31
0.0
  0
LINE
  5
242A
  8
0
 10
210.671999999999997
 20
38.8000000000000114
 30
0.0
 11
210.4000000000000057
 21
39.0720000000000169
 31
0.0
  0
LINE
  5
242B
  8
0
 10
210.671999999999997
 20
38.8000000000000114
 30
0.0
 11
210.9279999999999973
 21
38.8000000000000114
 31
0.0
  0
LINE
  5
242C
  8
0
 10
211.1999999999999886
 20
39.0720000000000169
 30
0.0
 11
210.9279999999999973
 21
38.8000000000000114
 31
0.0
  0
LINE
  5
242D
  8
0
 10
211.4720000000000937
 20
38.8000000000000114
 30
0.0
 11
211.1999999999999886
 21
39.0720000000000169
 31
0.0
  0
LINE
  5
242E
  8
0
 10
211.4720000000000937
 20
38.8000000000000114
 30
0.0
 11
211.7280000000000086
 21
38.8000000000000114
 31
0.0
  0
LINE
  5
242F
  8
0
 10
211.1999999999999886
 20
38.52800000000002
 30
0.0
 11
211.4720000000000937
 21
38.8000000000000114
 31
0.0
  0
LINE
  5
2430
  8
0
 10
210.9279999999999973
 20
38.8000000000000114
 30
0.0
 11
211.1999999999999886
 21
38.52800000000002
 31
0.0
  0
LINE
  5
2431
  8
0
 10
210.4000000000000057
 20
38.52800000000002
 30
0.0
 11
210.671999999999997
 21
38.8000000000000114
 31
0.0
  0
LINE
  5
2432
  8
0
 10
210.1279999999999859
 20
38.8000000000000114
 30
0.0
 11
210.4000000000000057
 21
38.52800000000002
 31
0.0
  0
LINE
  5
2433
  8
0
 10
210.4000000000000057
 20
39.0720000000000169
 30
0.0
 11
210.4000000000000057
 21
38.52800000000002
 31
0.0
  0
LINE
  5
2434
  8
0
 10
211.1999999999999886
 20
39.0720000000000169
 30
0.0
 11
211.1999999999999886
 21
38.52800000000002
 31
0.0
  0
LINE
  5
2435
  8
0
 10
212.0
 20
39.0720000000000169
 30
0.0
 11
211.7280000000000086
 21
38.8000000000000114
 31
0.0
  0
LINE
  5
2436
  8
0
 10
212.272000000000105
 20
38.8000000000000114
 30
0.0
 11
212.0
 21
39.0720000000000169
 31
0.0
  0
LINE
  5
2437
  8
0
 10
212.272000000000105
 20
38.8000000000000114
 30
0.0
 11
212.5279999999999916
 21
38.8000000000000114
 31
0.0
  0
LINE
  5
2438
  8
0
 10
212.8000000000000966
 20
39.0720000000000169
 30
0.0
 11
212.5279999999999916
 21
38.8000000000000114
 31
0.0
  0
LINE
  5
2439
  8
0
 10
213.072000000000088
 20
38.8000000000000114
 30
0.0
 11
212.8000000000000966
 21
39.0720000000000169
 31
0.0
  0
LINE
  5
243A
  8
0
 10
213.072000000000088
 20
38.8000000000000114
 30
0.0
 11
213.3280000000000882
 21
38.8000000000000114
 31
0.0
  0
LINE
  5
243B
  8
0
 10
212.8000000000000966
 20
38.52800000000002
 30
0.0
 11
213.072000000000088
 21
38.8000000000000114
 31
0.0
  0
LINE
  5
243C
  8
0
 10
212.5279999999999916
 20
38.8000000000000114
 30
0.0
 11
212.8000000000000966
 21
38.52800000000002
 31
0.0
  0
LINE
  5
243D
  8
0
 10
212.0
 20
38.52800000000002
 30
0.0
 11
212.272000000000105
 21
38.8000000000000114
 31
0.0
  0
LINE
  5
243E
  8
0
 10
211.7280000000000086
 20
38.8000000000000114
 30
0.0
 11
212.0
 21
38.52800000000002
 31
0.0
  0
LINE
  5
243F
  8
0
 10
212.0
 20
39.0720000000000169
 30
0.0
 11
212.0
 21
38.52800000000002
 31
0.0
  0
LINE
  5
2440
  8
0
 10
212.8000000000000966
 20
39.0720000000000169
 30
0.0
 11
212.8000000000000966
 21
38.52800000000002
 31
0.0
  0
LINE
  5
2441
  8
0
 10
213.5999999999999943
 20
39.0720000000000169
 30
0.0
 11
213.3280000000000882
 21
38.8000000000000114
 31
0.0
  0
LINE
  5
2442
  8
0
 10
213.8720000000000994
 20
38.8000000000000114
 30
0.0
 11
213.5999999999999943
 21
39.0720000000000169
 31
0.0
  0
LINE
  5
2443
  8
0
 10
213.8720000000000994
 20
38.8000000000000114
 30
0.0
 11
214.1279999999999859
 21
38.8000000000000114
 31
0.0
  0
LINE
  5
2444
  8
0
 10
214.4000000000000909
 20
39.0720000000000169
 30
0.0
 11
214.1279999999999859
 21
38.8000000000000114
 31
0.0
  0
LINE
  5
2445
  8
0
 10
214.5152336001576998
 20
38.956766399842337
 30
0.0
 11
214.4000000000000909
 21
39.0720000000000169
 31
0.0
  0
LINE
  5
2446
  8
0
 10
214.1279999999999859
 20
38.8000000000000114
 30
0.0
 11
214.2871578164001107
 21
38.6408421836000713
 31
0.0
  0
LINE
  5
2447
  8
0
 10
213.5999999999999943
 20
38.52800000000002
 30
0.0
 11
213.8720000000000994
 21
38.8000000000000114
 31
0.0
  0
LINE
  5
2448
  8
0
 10
213.3280000000000882
 20
38.8000000000000114
 30
0.0
 11
213.5999999999999943
 21
38.52800000000002
 31
0.0
  0
LINE
  5
2449
  8
0
 10
213.5999999999999943
 20
39.0720000000000169
 30
0.0
 11
213.5999999999999943
 21
38.52800000000002
 31
0.0
  0
LINE
  5
244A
  8
0
 10
214.4000000000000909
 20
39.0720000000000169
 30
0.0
 11
214.4000000000000909
 21
38.6842971103002213
 31
0.0
  0
LINE
  5
244B
  8
0
 10
206.4000000000000057
 20
38.2720000000000127
 30
0.0
 11
206.2349766443998931
 21
38.1069766444000422
 31
0.0
  0
LINE
  5
244C
  8
0
 10
206.671999999999997
 20
38.0
 30
0.0
 11
206.4000000000000057
 21
38.2720000000000127
 31
0.0
  0
LINE
  5
244D
  8
0
 10
206.671999999999997
 20
38.0
 30
0.0
 11
206.9279999999999973
 21
38.0
 31
0.0
  0
LINE
  5
244E
  8
0
 10
206.4902870274999884
 20
37.8182870275000624
 30
0.0
 11
206.671999999999997
 21
38.0
 31
0.0
  0
LINE
  5
244F
  8
0
 10
206.4000000000000057
 20
38.2720000000000127
 30
0.0
 11
206.4000000000000057
 21
37.8294022428000218
 31
0.0
  0
LINE
  5
2450
  8
0
 10
207.1999999999999034
 20
38.2720000000000127
 30
0.0
 11
206.9279999999999973
 21
38.0
 31
0.0
  0
LINE
  5
2451
  8
0
 10
207.4720000000000084
 20
38.0
 30
0.0
 11
207.1999999999999034
 21
38.2720000000000127
 31
0.0
  0
LINE
  5
2452
  8
0
 10
207.4720000000000084
 20
38.0
 30
0.0
 11
207.7280000000000086
 21
38.0
 31
0.0
  0
LINE
  5
2453
  8
0
 10
208.0
 20
38.2720000000000127
 30
0.0
 11
207.7280000000000086
 21
38.0
 31
0.0
  0
LINE
  5
2454
  8
0
 10
208.272000000000105
 20
38.0
 30
0.0
 11
208.0
 21
38.2720000000000127
 31
0.0
  0
LINE
  5
2455
  8
0
 10
208.272000000000105
 20
38.0
 30
0.0
 11
208.5279999999999916
 21
38.0
 31
0.0
  0
LINE
  5
2456
  8
0
 10
208.0
 20
37.7280000000000086
 30
0.0
 11
208.272000000000105
 21
38.0
 31
0.0
  0
LINE
  5
2457
  8
0
 10
207.7280000000000086
 20
38.0
 30
0.0
 11
208.0
 21
37.7280000000000086
 31
0.0
  0
LINE
  5
2458
  8
0
 10
207.1999999999999034
 20
37.7280000000000086
 30
0.0
 11
207.4720000000000084
 21
38.0
 31
0.0
  0
LINE
  5
2459
  8
0
 10
206.9279999999999973
 20
38.0
 30
0.0
 11
207.1999999999999034
 21
37.7280000000000086
 31
0.0
  0
LINE
  5
245A
  8
0
 10
207.1999999999999034
 20
38.2720000000000127
 30
0.0
 11
207.1999999999999034
 21
37.7280000000000086
 31
0.0
  0
LINE
  5
245B
  8
0
 10
208.0
 20
38.2720000000000127
 30
0.0
 11
208.0
 21
37.7280000000000086
 31
0.0
  0
LINE
  5
245C
  8
0
 10
208.8000000000000114
 20
38.2720000000000127
 30
0.0
 11
208.5279999999999916
 21
38.0
 31
0.0
  0
LINE
  5
245D
  8
0
 10
209.0720000000000027
 20
38.0
 30
0.0
 11
208.8000000000000114
 21
38.2720000000000127
 31
0.0
  0
LINE
  5
245E
  8
0
 10
209.0720000000000027
 20
38.0
 30
0.0
 11
209.328000000000003
 21
38.0
 31
0.0
  0
LINE
  5
245F
  8
0
 10
209.5999999999999943
 20
38.2720000000000127
 30
0.0
 11
209.328000000000003
 21
38.0
 31
0.0
  0
LINE
  5
2460
  8
0
 10
209.8720000000000994
 20
38.0
 30
0.0
 11
209.5999999999999943
 21
38.2720000000000127
 31
0.0
  0
LINE
  5
2461
  8
0
 10
209.8720000000000994
 20
38.0
 30
0.0
 11
210.1279999999999859
 21
38.0
 31
0.0
  0
LINE
  5
2462
  8
0
 10
209.5999999999999943
 20
37.7280000000000086
 30
0.0
 11
209.8720000000000994
 21
38.0
 31
0.0
  0
LINE
  5
2463
  8
0
 10
209.328000000000003
 20
38.0
 30
0.0
 11
209.5999999999999943
 21
37.7280000000000086
 31
0.0
  0
LINE
  5
2464
  8
0
 10
208.8000000000000114
 20
37.7280000000000086
 30
0.0
 11
209.0720000000000027
 21
38.0
 31
0.0
  0
LINE
  5
2465
  8
0
 10
208.5279999999999916
 20
38.0
 30
0.0
 11
208.8000000000000114
 21
37.7280000000000086
 31
0.0
  0
LINE
  5
2466
  8
0
 10
208.8000000000000114
 20
38.2720000000000127
 30
0.0
 11
208.8000000000000114
 21
37.7280000000000086
 31
0.0
  0
LINE
  5
2467
  8
0
 10
209.5999999999999943
 20
38.2720000000000127
 30
0.0
 11
209.5999999999999943
 21
37.7280000000000086
 31
0.0
  0
LINE
  5
2468
  8
0
 10
210.4000000000000057
 20
38.2720000000000127
 30
0.0
 11
210.1279999999999859
 21
38.0
 31
0.0
  0
LINE
  5
2469
  8
0
 10
210.671999999999997
 20
38.0
 30
0.0
 11
210.4000000000000057
 21
38.2720000000000127
 31
0.0
  0
LINE
  5
246A
  8
0
 10
210.671999999999997
 20
38.0
 30
0.0
 11
210.9279999999999973
 21
38.0
 31
0.0
  0
LINE
  5
246B
  8
0
 10
211.1999999999999886
 20
38.2720000000000127
 30
0.0
 11
210.9279999999999973
 21
38.0
 31
0.0
  0
LINE
  5
246C
  8
0
 10
211.4720000000000937
 20
38.0
 30
0.0
 11
211.1999999999999886
 21
38.2720000000000127
 31
0.0
  0
LINE
  5
246D
  8
0
 10
211.4720000000000937
 20
38.0
 30
0.0
 11
211.7280000000000086
 21
38.0
 31
0.0
  0
LINE
  5
246E
  8
0
 10
211.1999999999999886
 20
37.7280000000000086
 30
0.0
 11
211.4720000000000937
 21
38.0
 31
0.0
  0
LINE
  5
246F
  8
0
 10
210.9279999999999973
 20
38.0
 30
0.0
 11
211.1999999999999886
 21
37.7280000000000086
 31
0.0
  0
LINE
  5
2470
  8
0
 10
210.4000000000000057
 20
37.7280000000000086
 30
0.0
 11
210.671999999999997
 21
38.0
 31
0.0
  0
LINE
  5
2471
  8
0
 10
210.1279999999999859
 20
38.0
 30
0.0
 11
210.4000000000000057
 21
37.7280000000000086
 31
0.0
  0
LINE
  5
2472
  8
0
 10
210.4000000000000057
 20
38.2720000000000127
 30
0.0
 11
210.4000000000000057
 21
37.7280000000000086
 31
0.0
  0
LINE
  5
2473
  8
0
 10
211.1999999999999886
 20
38.2720000000000127
 30
0.0
 11
211.1999999999999886
 21
37.7280000000000086
 31
0.0
  0
LINE
  5
2474
  8
0
 10
212.0
 20
38.2720000000000127
 30
0.0
 11
211.7280000000000086
 21
38.0
 31
0.0
  0
LINE
  5
2475
  8
0
 10
212.272000000000105
 20
38.0
 30
0.0
 11
212.0
 21
38.2720000000000127
 31
0.0
  0
LINE
  5
2476
  8
0
 10
212.272000000000105
 20
38.0
 30
0.0
 11
212.5279999999999916
 21
38.0
 31
0.0
  0
LINE
  5
2477
  8
0
 10
212.8000000000000966
 20
38.2720000000000127
 30
0.0
 11
212.5279999999999916
 21
38.0
 31
0.0
  0
LINE
  5
2478
  8
0
 10
213.072000000000088
 20
38.0
 30
0.0
 11
212.8000000000000966
 21
38.2720000000000127
 31
0.0
  0
LINE
  5
2479
  8
0
 10
213.072000000000088
 20
38.0
 30
0.0
 11
213.3280000000000882
 21
38.0
 31
0.0
  0
LINE
  5
247A
  8
0
 10
212.8000000000000966
 20
37.7280000000000086
 30
0.0
 11
213.072000000000088
 21
38.0
 31
0.0
  0
LINE
  5
247B
  8
0
 10
212.5279999999999916
 20
38.0
 30
0.0
 11
212.8000000000000966
 21
37.7280000000000086
 31
0.0
  0
LINE
  5
247C
  8
0
 10
212.0
 20
37.7280000000000086
 30
0.0
 11
212.272000000000105
 21
38.0
 31
0.0
  0
LINE
  5
247D
  8
0
 10
211.7280000000000086
 20
38.0
 30
0.0
 11
212.0
 21
37.7280000000000086
 31
0.0
  0
LINE
  5
247E
  8
0
 10
212.0
 20
38.2720000000000127
 30
0.0
 11
212.0
 21
37.7280000000000086
 31
0.0
  0
LINE
  5
247F
  8
0
 10
212.8000000000000966
 20
38.2720000000000127
 30
0.0
 11
212.8000000000000966
 21
37.7280000000000086
 31
0.0
  0
LINE
  5
2480
  8
0
 10
213.5999999999999943
 20
38.2720000000000127
 30
0.0
 11
213.3280000000000882
 21
38.0
 31
0.0
  0
LINE
  5
2481
  8
0
 10
213.765023355565404
 20
38.1069766444345035
 30
0.0
 11
213.5999999999999943
 21
38.2720000000000127
 31
0.0
  0
LINE
  5
2482
  8
0
 10
213.3280000000000882
 20
38.0
 30
0.0
 11
213.5097129725000968
 21
37.8182870275000127
 31
0.0
  0
LINE
  5
2483
  8
0
 10
213.5999999999999943
 20
38.2720000000000127
 30
0.0
 11
213.5999999999999943
 21
37.8294022428001426
 31
0.0
  0
LINE
  5
2484
  8
0
 10
207.1999999999999034
 20
37.4720000000000084
 30
0.0
 11
207.1039522397998951
 21
37.3759522398000072
 31
0.0
  0
LINE
  5
2485
  8
0
 10
207.3990131116480029
 20
37.2729868883520084
 30
0.0
 11
207.1999999999999034
 21
37.4720000000000084
 31
0.0
  0
LINE
  5
2486
  8
0
 10
207.6372685297999112
 20
37.2000000000000099
 30
0.0
 11
207.7280000000000086
 21
37.2000000000000099
 31
0.0
  0
LINE
  5
2487
  8
0
 10
208.0
 20
37.4720000000000084
 30
0.0
 11
207.7280000000000086
 21
37.2000000000000099
 31
0.0
  0
LINE
  5
2488
  8
0
 10
208.272000000000105
 20
37.2000000000000099
 30
0.0
 11
208.0
 21
37.4720000000000084
 31
0.0
  0
LINE
  5
2489
  8
0
 10
208.272000000000105
 20
37.2000000000000099
 30
0.0
 11
208.5279999999999916
 21
37.2000000000000099
 31
0.0
  0
LINE
  5
248A
  8
0
 10
208.0
 20
36.9280000000000115
 30
0.0
 11
208.272000000000105
 21
37.2000000000000099
 31
0.0
  0
LINE
  5
248B
  8
0
 10
207.7280000000000086
 20
37.2000000000000099
 30
0.0
 11
208.0
 21
36.9280000000000115
 31
0.0
  0
LINE
  5
248C
  8
0
 10
207.1999999999999034
 20
37.4720000000000084
 30
0.0
 11
207.1999999999999034
 21
37.25512005920001
 31
0.0
  0
LINE
  5
248D
  8
0
 10
208.0
 20
37.4720000000000084
 30
0.0
 11
208.0
 21
36.9280000000000115
 31
0.0
  0
LINE
  5
248E
  8
0
 10
208.8000000000000114
 20
37.4720000000000084
 30
0.0
 11
208.5279999999999916
 21
37.2000000000000099
 31
0.0
  0
LINE
  5
248F
  8
0
 10
209.0720000000000027
 20
37.2000000000000099
 30
0.0
 11
208.8000000000000114
 21
37.4720000000000084
 31
0.0
  0
LINE
  5
2490
  8
0
 10
209.0720000000000027
 20
37.2000000000000099
 30
0.0
 11
209.328000000000003
 21
37.2000000000000099
 31
0.0
  0
LINE
  5
2491
  8
0
 10
209.5999999999999943
 20
37.4720000000000084
 30
0.0
 11
209.328000000000003
 21
37.2000000000000099
 31
0.0
  0
LINE
  5
2492
  8
0
 10
209.8720000000000994
 20
37.2000000000000099
 30
0.0
 11
209.5999999999999943
 21
37.4720000000000084
 31
0.0
  0
LINE
  5
2493
  8
0
 10
209.8720000000000994
 20
37.2000000000000099
 30
0.0
 11
210.1279999999999859
 21
37.2000000000000099
 31
0.0
  0
LINE
  5
2494
  8
0
 10
209.5999999999999943
 20
36.9280000000000115
 30
0.0
 11
209.8720000000000994
 21
37.2000000000000099
 31
0.0
  0
LINE
  5
2495
  8
0
 10
209.328000000000003
 20
37.2000000000000099
 30
0.0
 11
209.5999999999999943
 21
36.9280000000000115
 31
0.0
  0
LINE
  5
2496
  8
0
 10
208.8000000000000114
 20
36.9280000000000115
 30
0.0
 11
209.0720000000000027
 21
37.2000000000000099
 31
0.0
  0
LINE
  5
2497
  8
0
 10
208.5279999999999916
 20
37.2000000000000099
 30
0.0
 11
208.8000000000000114
 21
36.9280000000000115
 31
0.0
  0
LINE
  5
2498
  8
0
 10
208.8000000000000114
 20
37.4720000000000084
 30
0.0
 11
208.8000000000000114
 21
36.9280000000000115
 31
0.0
  0
LINE
  5
2499
  8
0
 10
209.5999999999999943
 20
37.4720000000000084
 30
0.0
 11
209.5999999999999943
 21
36.9280000000000115
 31
0.0
  0
LINE
  5
249A
  8
0
 10
210.4000000000000057
 20
37.4720000000000084
 30
0.0
 11
210.1279999999999859
 21
37.2000000000000099
 31
0.0
  0
LINE
  5
249B
  8
0
 10
210.671999999999997
 20
37.2000000000000099
 30
0.0
 11
210.4000000000000057
 21
37.4720000000000084
 31
0.0
  0
LINE
  5
249C
  8
0
 10
210.671999999999997
 20
37.2000000000000099
 30
0.0
 11
210.9279999999999973
 21
37.2000000000000099
 31
0.0
  0
LINE
  5
249D
  8
0
 10
211.1999999999999886
 20
37.4720000000000084
 30
0.0
 11
210.9279999999999973
 21
37.2000000000000099
 31
0.0
  0
LINE
  5
249E
  8
0
 10
211.4720000000000937
 20
37.2000000000000099
 30
0.0
 11
211.1999999999999886
 21
37.4720000000000084
 31
0.0
  0
LINE
  5
249F
  8
0
 10
211.4720000000000937
 20
37.2000000000000099
 30
0.0
 11
211.7280000000000086
 21
37.2000000000000099
 31
0.0
  0
LINE
  5
24A0
  8
0
 10
211.1999999999999886
 20
36.9280000000000115
 30
0.0
 11
211.4720000000000937
 21
37.2000000000000099
 31
0.0
  0
LINE
  5
24A1
  8
0
 10
210.9279999999999973
 20
37.2000000000000099
 30
0.0
 11
211.1999999999999886
 21
36.9280000000000115
 31
0.0
  0
LINE
  5
24A2
  8
0
 10
210.4000000000000057
 20
36.9280000000000115
 30
0.0
 11
210.671999999999997
 21
37.2000000000000099
 31
0.0
  0
LINE
  5
24A3
  8
0
 10
210.1279999999999859
 20
37.2000000000000099
 30
0.0
 11
210.4000000000000057
 21
36.9280000000000115
 31
0.0
  0
LINE
  5
24A4
  8
0
 10
210.4000000000000057
 20
37.4720000000000084
 30
0.0
 11
210.4000000000000057
 21
36.9280000000000115
 31
0.0
  0
LINE
  5
24A5
  8
0
 10
211.1999999999999886
 20
37.4720000000000084
 30
0.0
 11
211.1999999999999886
 21
36.9280000000000115
 31
0.0
  0
LINE
  5
24A6
  8
0
 10
212.0
 20
37.4720000000000084
 30
0.0
 11
211.7280000000000086
 21
37.2000000000000099
 31
0.0
  0
LINE
  5
24A7
  8
0
 10
212.272000000000105
 20
37.2000000000000099
 30
0.0
 11
212.0
 21
37.4720000000000084
 31
0.0
  0
LINE
  5
24A8
  8
0
 10
212.272000000000105
 20
37.2000000000000099
 30
0.0
 11
212.3627314700999023
 21
37.2000000000000099
 31
0.0
  0
LINE
  5
24A9
  8
0
 10
212.8000000000000966
 20
37.4720000000000084
 30
0.0
 11
212.6009868884000014
 21
37.2729868883999913
 31
0.0
  0
LINE
  5
24AA
  8
0
 10
212.8960477601729053
 20
37.3759522398272566
 30
0.0
 11
212.8000000000000966
 21
37.4720000000000084
 31
0.0
  0
LINE
  5
24AB
  8
0
 10
212.0
 20
36.9280000000000115
 30
0.0
 11
212.272000000000105
 21
37.2000000000000099
 31
0.0
  0
LINE
  5
24AC
  8
0
 10
211.7280000000000086
 20
37.2000000000000099
 30
0.0
 11
212.0
 21
36.9280000000000115
 31
0.0
  0
LINE
  5
24AD
  8
0
 10
212.0
 20
37.4720000000000084
 30
0.0
 11
212.0
 21
36.9280000000000115
 31
0.0
  0
LINE
  5
24AE
  8
0
 10
212.8000000000000966
 20
37.4720000000000084
 30
0.0
 11
212.8000000000000966
 21
37.2551200592001805
 31
0.0
  0
ARC
  5
24AF
  8
0
 10
165.283844628899999
 20
41.9999999999999929
 30
0.0
 40
5.9999999999999858
 50
286.6201810261994183
 51
294.851825662298495
  0
ARC
  5
24B0
  8
0
 10
165.283844628899999
 20
41.9999999999999929
 30
0.0
 40
6.0000000000000018
 50
65.148174337701434
 51
73.3798189738004965
  0
LINE
  5
24B1
  8
0
 10
167.7059178742998995
 20
47.3647342994999789
 30
0.0
 11
167.7871417211999869
 21
47.4297133768999686
 31
0.0
  0
LINE
  5
24B2
  8
0
 10
167.4999999999998863
 20
47.1999999999999673
 30
0.0
 11
167.6944536002000063
 21
47.3555628800999671
 31
0.0
  0
LINE
  5
24B3
  8
0
 10
167.9999999999998863
 20
46.7999999999999829
 30
0.0
 11
167.4999999999998863
 21
47.1999999999999673
 31
0.0
  0
LINE
  5
24B4
  8
0
 10
167.9087663894999025
 20
46.7270131115999803
 30
0.0
 11
167.9999999999998863
 21
46.7999999999999829
 31
0.0
  0
LINE
  5
24B5
  8
0
 10
167.4999999999998863
 20
46.3999999999999773
 30
0.0
 11
167.7800597003000007
 21
46.6240477601999785
 31
0.0
  0
LINE
  5
24B6
  8
0
 10
167.7728587843998866
 20
46.1817129724999873
 30
0.0
 11
167.4999999999998863
 21
46.3999999999999773
 31
0.0
  0
LINE
  5
24B7
  8
0
 10
167.4999999999998863
 20
45.5999999999999801
 30
0.0
 11
167.9999999999998863
 21
45.9999999999999929
 31
0.0
  0
LINE
  5
24B8
  8
0
 10
167.9999999999998863
 20
45.1999999999999815
 30
0.0
 11
167.4999999999998863
 21
45.5999999999999801
 31
0.0
  0
LINE
  5
24B9
  8
0
 10
167.4999999999998863
 20
44.7999999999999901
 30
0.0
 11
167.8040420002998871
 21
45.0432336001999829
 31
0.0
  0
LINE
  5
24BA
  8
0
 10
167.9999999999998863
 20
44.3999999999999773
 30
0.0
 11
167.4999999999998863
 21
44.7999999999999901
 31
0.0
  0
LINE
  5
24BB
  8
0
 10
167.4999999999998863
 20
43.9999999999999929
 30
0.0
 11
167.9999999999998863
 21
44.3999999999999773
 31
0.0
  0
LINE
  5
24BC
  8
0
 10
167.6893253606999963
 20
43.8485397114999884
 30
0.0
 11
167.4999999999998863
 21
43.9999999999999929
 31
0.0
  0
LINE
  5
24BD
  8
0
 10
167.4999999999998863
 20
43.1999999999999815
 30
0.0
 11
167.9999999999998863
 21
43.5999999999999801
 31
0.0
  0
LINE
  5
24BE
  8
0
 10
167.9999999999998863
 20
42.7999999999999901
 30
0.0
 11
167.4999999999998863
 21
43.1999999999999815
 31
0.0
  0
LINE
  5
24BF
  8
0
 10
167.4999999999998863
 20
42.3999999999999773
 30
0.0
 11
167.8708039768999072
 21
42.6966431814999794
 31
0.0
  0
LINE
  5
24C0
  8
0
 10
167.905505437100004
 20
42.0755956503999826
 30
0.0
 11
167.4999999999998863
 21
42.3999999999999773
 31
0.0
  0
LINE
  5
24C1
  8
0
 10
167.4999999999998863
 20
41.5999999999999872
 30
0.0
 11
167.905505437100004
 21
41.9244043496999765
 31
0.0
  0
LINE
  5
24C2
  8
0
 10
167.8708039768999072
 20
41.3033568185999869
 30
0.0
 11
167.4999999999998863
 21
41.5999999999999872
 31
0.0
  0
LINE
  5
24C3
  8
0
 10
167.4999999999998863
 20
40.7999999999999901
 30
0.0
 11
167.9999999999998863
 21
41.1999999999999815
 31
0.0
  0
LINE
  5
24C4
  8
0
 10
167.9999999999998863
 20
40.3999999999999773
 30
0.0
 11
167.4999999999998863
 21
40.7999999999999901
 31
0.0
  0
LINE
  5
24C5
  8
0
 10
167.4999999999998863
 20
40.0
 30
0.0
 11
167.6893253606999963
 21
40.1514602885999778
 31
0.0
  0
LINE
  5
24C6
  8
0
 10
167.9999999999998863
 20
39.5999999999999872
 30
0.0
 11
167.4999999999998863
 21
40.0
 31
0.0
  0
LINE
  5
24C7
  8
0
 10
167.4999999999998863
 20
39.1999999999999815
 30
0.0
 11
167.9999999999998863
 21
39.5999999999999872
 31
0.0
  0
LINE
  5
24C8
  8
0
 10
167.8040420002998871
 20
38.9567663997999816
 30
0.0
 11
167.4999999999998863
 21
39.1999999999999815
 31
0.0
  0
LINE
  5
24C9
  8
0
 10
167.4999999999998863
 20
38.3999999999999773
 30
0.0
 11
167.9999999999998863
 21
38.7999999999999901
 31
0.0
  0
LINE
  5
24CA
  8
0
 10
167.8662791945000095
 20
38.1069766444999871
 30
0.0
 11
167.4999999999998863
 21
38.3999999999999773
 31
0.0
  0
LINE
  5
24CB
  8
0
 10
167.4999999999998863
 20
37.5999999999999872
 30
0.0
 11
167.7728587843998866
 21
37.8182870274999914
 31
0.0
  0
LINE
  5
24CC
  8
0
 10
167.7800597003000007
 20
37.3759522397999788
 30
0.0
 11
167.4999999999998863
 21
37.5999999999999872
 31
0.0
  0
LINE
  5
24CD
  8
0
 10
167.9999999999998863
 20
37.1999999999999815
 30
0.0
 11
167.9087663894999025
 21
37.2729868883999771
 31
0.0
  0
LINE
  5
24CE
  8
0
 10
167.4999999999998863
 20
36.7999999999999901
 30
0.0
 11
167.9999999999998863
 21
37.1999999999999815
 31
0.0
  0
LINE
  5
24CF
  8
0
 10
167.6944536002000063
 20
36.6444371198999832
 30
0.0
 11
167.4999999999998863
 21
36.7999999999999901
 31
0.0
  0
LINE
  5
24D0
  8
0
 10
167.7871417211999869
 20
36.5702866230999817
 30
0.0
 11
167.7059178742998995
 21
36.6352657005999802
 31
0.0
  0
LINE
  5
24D1
  8
0
 10
167.8054827566554934
 20
36.5556137946826922
 30
0.0
 11
167.7994288284000106
 21
36.5604569372999819
 31
0.0
  0
LINE
  5
24D2
  8
0
 10
167.7994288284000106
 20
47.4395430626999683
 30
0.0
 11
167.8054827566554934
 21
47.4443862053173078
 31
0.0
  0
LINE
  5
24D3
  8
0
 10
167.8708039768999072
 20
41.3033568185999869
 30
0.0
 11
167.9999999999998863
 21
41.1999999999999815
 31
0.0
  0
LINE
  5
24D4
  8
0
 10
167.905505437100004
 20
42.0755956503999826
 30
0.0
 11
167.9999999999998863
 21
41.9999999999999929
 31
0.0
  0
LINE
  5
24D5
  8
0
 10
167.9999999999998863
 20
41.9999999999999929
 30
0.0
 11
167.905505437100004
 21
41.9244043496999765
 31
0.0
  0
LINE
  5
24D6
  8
0
 10
167.6893253606999963
 20
43.8485397114999884
 30
0.0
 11
167.9999999999998863
 21
43.5999999999999801
 31
0.0
  0
LINE
  5
24D7
  8
0
 10
167.9999999999998863
 20
40.3999999999999773
 30
0.0
 11
167.6893253606999963
 21
40.1514602885999778
 31
0.0
  0
LINE
  5
24D8
  8
0
 10
167.9999999999998863
 20
42.7999999999999901
 30
0.0
 11
167.8708039768999072
 21
42.6966431814999794
 31
0.0
  0
LINE
  5
24D9
  8
0
 10
167.8040420002998871
 20
38.9567663997999816
 30
0.0
 11
167.9999999999998863
 21
38.7999999999999901
 31
0.0
  0
LINE
  5
24DA
  8
0
 10
167.9999999999998863
 20
45.1999999999999815
 30
0.0
 11
167.8040420002998871
 21
45.0432336001999829
 31
0.0
  0
LINE
  5
24DB
  8
0
 10
167.7728587843998866
 20
46.1817129724999873
 30
0.0
 11
167.9999999999998863
 21
45.9999999999999929
 31
0.0
  0
LINE
  5
24DC
  8
0
 10
167.9999999999998863
 20
37.9999999999999929
 30
0.0
 11
167.7728587843998866
 21
37.8182870274999914
 31
0.0
  0
LINE
  5
24DD
  8
0
 10
167.8662791945000095
 20
38.1069766444999871
 30
0.0
 11
167.9999999999998863
 21
37.9999999999999929
 31
0.0
  0
LINE
  5
24DE
  8
0
 10
167.9087663894999025
 20
46.7270131115999803
 30
0.0
 11
167.7800597003000007
 21
46.6240477601999785
 31
0.0
  0
LINE
  5
24DF
  8
0
 10
167.7800597003000007
 20
37.3759522397999788
 30
0.0
 11
167.9087663894999025
 21
37.2729868883999771
 31
0.0
  0
LINE
  5
24E0
  8
0
 10
167.7059178742998995
 20
47.3647342994999789
 30
0.0
 11
167.6944536002000063
 21
47.3555628800999671
 31
0.0
  0
LINE
  5
24E1
  8
0
 10
167.6944536002000063
 20
36.6444371198999832
 30
0.0
 11
167.7059178742998995
 21
36.6352657005999802
 31
0.0
  0
LINE
  5
24E2
  8
0
 10
167.7871417211999869
 20
36.5702866230999817
 30
0.0
 11
167.7994288284000106
 21
36.5604569372999819
 31
0.0
  0
LINE
  5
24E3
  8
0
 10
167.7994288284000106
 20
47.4395430626999683
 30
0.0
 11
167.7871417211999869
 21
47.4297133768999686
 31
0.0
  0
ARC
  5
24E4
  8
0
 10
165.283844628899999
 20
95.9999999999999147
 30
0.0
 40
5.9999999999999991
 50
64.0866039909008549
 51
73.3798189738004965
  0
ARC
  5
24E5
  8
0
 10
165.283844628899999
 20
95.9999999999999147
 30
0.0
 40
5.9999999999999858
 50
286.6201810261994183
 51
295.913396009099074
  0
LINE
  5
24E6
  8
0
 10
167.7871417211999869
 20
95.4982866230999576
 30
0.0
 11
167.6599999999999966
 21
95.5999999999999233
 31
0.0
  0
LINE
  5
24E7
  8
0
 10
167.6599999999999966
 20
94.7999999999999545
 30
0.0
 11
167.7059178742998995
 21
94.8367342993999358
 31
0.0
  0
LINE
  5
24E8
  8
0
 10
167.6944536002000063
 20
94.7724371198999052
 30
0.0
 11
167.6599999999999966
 21
94.7999999999999545
 31
0.0
  0
LINE
  5
24E9
  8
0
 10
167.6599999999999966
 20
93.1999999999999318
 30
0.0
 11
167.9999999999998863
 21
93.4719999999999231
 31
0.0
  0
LINE
  5
24EA
  8
0
 10
167.7800597003000007
 20
93.1039522397999519
 30
0.0
 11
167.6599999999999966
 21
93.1999999999999318
 31
0.0
  0
LINE
  5
24EB
  8
0
 10
167.6599999999999966
 20
92.3999999999999346
 30
0.0
 11
167.7728587843998866
 21
92.4902870274999458
 31
0.0
  0
LINE
  5
24EC
  8
0
 10
167.9999999999998863
 20
92.1279999999999148
 30
0.0
 11
167.6599999999999966
 21
92.3999999999999346
 31
0.0
  0
LINE
  5
24ED
  8
0
 10
167.6599999999999966
 20
91.5999999999999375
 30
0.0
 11
167.9999999999998863
 21
91.8719999999999288
 31
0.0
  0
LINE
  5
24EE
  8
0
 10
167.8040420002998871
 20
91.4847663997999376
 30
0.0
 11
167.6599999999999966
 21
91.5999999999999375
 31
0.0
  0
LINE
  5
24EF
  8
0
 10
167.6599999999999966
 20
90.7999999999999403
 30
0.0
 11
167.6893253606999963
 21
90.8234602885999465
 31
0.0
  0
LINE
  5
24F0
  8
0
 10
167.8438197399999865
 20
90.6529442079999512
 30
0.0
 11
167.6599999999999966
 21
90.7999999999999403
 31
0.0
  0
LINE
  5
24F1
  8
0
 10
167.8708039768999072
 20
90.6313568184999383
 30
0.0
 11
167.8438197399999865
 21
90.6529442079999512
 31
0.0
  0
LINE
  5
24F2
  8
0
 10
167.9059172112156944
 20
90.6032662310366845
 30
0.0
 11
167.905505437100004
 21
90.6035956503999245
 31
0.0
  0
LINE
  5
24F3
  8
0
 10
167.905505437100004
 20
101.396404349599905
 30
0.0
 11
167.9059172112156944
 21
101.3967337689631023
 31
0.0
  0
LINE
  5
24F4
  8
0
 10
167.8438197399999865
 20
101.3470557919999067
 30
0.0
 11
167.8708039768999072
 21
101.3686431814999054
 31
0.0
  0
LINE
  5
24F5
  8
0
 10
167.6599999999999966
 20
101.1999999999999034
 30
0.0
 11
167.8438197399999865
 21
101.3470557919999067
 31
0.0
  0
LINE
  5
24F6
  8
0
 10
167.6893253606999963
 20
101.1765397113998972
 30
0.0
 11
167.6599999999999966
 21
101.1999999999999034
 31
0.0
  0
LINE
  5
24F7
  8
0
 10
167.6599999999999966
 20
100.3999999999999062
 30
0.0
 11
167.8040420002998871
 21
100.515233600199906
 31
0.0
  0
LINE
  5
24F8
  8
0
 10
167.9999999999998863
 20
100.1279999999999006
 30
0.0
 11
167.6599999999999966
 21
100.3999999999999062
 31
0.0
  0
LINE
  5
24F9
  8
0
 10
167.6599999999999966
 20
99.5999999999999233
 30
0.0
 11
167.8662791945000095
 21
99.7650233554999346
 31
0.0
  0
LINE
  5
24FA
  8
0
 10
167.7728587843998866
 20
99.5097129724999405
 30
0.0
 11
167.6599999999999966
 21
99.5999999999999233
 31
0.0
  0
LINE
  5
24FB
  8
0
 10
167.6599999999999966
 20
98.7999999999999545
 30
0.0
 11
167.7800597003000007
 21
98.8960477601999486
 31
0.0
  0
LINE
  5
24FC
  8
0
 10
167.9999999999998863
 20
98.5279999999999347
 30
0.0
 11
167.6599999999999966
 21
98.7999999999999545
 31
0.0
  0
LINE
  5
24FD
  8
0
 10
167.6599999999999966
 20
97.199999999999946
 30
0.0
 11
167.6944536002000063
 21
97.2275628800999385
 31
0.0
  0
LINE
  5
24FE
  8
0
 10
167.7059178742998995
 20
97.1632657004999345
 30
0.0
 11
167.6599999999999966
 21
97.199999999999946
 31
0.0
  0
LINE
  5
24FF
  8
0
 10
167.6599999999999966
 20
96.3999999999999346
 30
0.0
 11
167.7871417211999869
 21
96.5017133768999287
 31
0.0
  0
LINE
  5
2500
  8
0
 10
167.7994288284000106
 20
96.288456937299955
 30
0.0
 11
167.6599999999999966
 21
96.3999999999999346
 31
0.0
  0
LINE
  5
2501
  8
0
 10
167.6599999999999966
 20
95.5999999999999233
 30
0.0
 11
167.7994288284000106
 21
95.7115430626999455
 31
0.0
  0
LINE
  5
2502
  8
0
 10
167.9999999999998863
 20
98.2719999999999487
 30
0.0
 11
167.9999999999998863
 21
98.5279999999999347
 31
0.0
  0
LINE
  5
2503
  8
0
 10
167.6599999999999966
 20
97.9999999999999289
 30
0.0
 11
167.9999999999998863
 21
98.2719999999999487
 31
0.0
  0
LINE
  5
2504
  8
0
 10
167.9999999999998863
 20
97.7279999999999376
 30
0.0
 11
167.6599999999999966
 21
97.9999999999999289
 31
0.0
  0
LINE
  5
2505
  8
0
 10
167.9999999999998863
 20
97.4719999999999374
 30
0.0
 11
167.9999999999998863
 21
97.7279999999999376
 31
0.0
  0
LINE
  5
2506
  8
0
 10
167.6944536002000063
 20
97.2275628800999385
 30
0.0
 11
167.9999999999998863
 21
97.4719999999999374
 31
0.0
  0
LINE
  5
2507
  8
0
 10
167.9999999999998863
 20
96.9279999999999262
 30
0.0
 11
167.7059178742998995
 21
97.1632657004999345
 31
0.0
  0
LINE
  5
2508
  8
0
 10
167.9999999999998863
 20
96.6719999999999402
 30
0.0
 11
167.9999999999998863
 21
96.9279999999999262
 31
0.0
  0
LINE
  5
2509
  8
0
 10
167.7871417211999869
 20
96.5017133768999287
 30
0.0
 11
167.9999999999998863
 21
96.6719999999999402
 31
0.0
  0
LINE
  5
250A
  8
0
 10
167.9999999999998863
 20
96.1279999999999433
 30
0.0
 11
167.7994288284000106
 21
96.288456937299955
 31
0.0
  0
LINE
  5
250B
  8
0
 10
167.9999999999998863
 20
95.8719999999999288
 30
0.0
 11
167.9999999999998863
 21
96.1279999999999433
 31
0.0
  0
LINE
  5
250C
  8
0
 10
167.7994288284000106
 20
95.7115430626999455
 30
0.0
 11
167.9999999999998863
 21
95.8719999999999288
 31
0.0
  0
LINE
  5
250D
  8
0
 10
167.9999999999998863
 20
95.3279999999999177
 30
0.0
 11
167.7871417211999869
 21
95.4982866230999576
 31
0.0
  0
LINE
  5
250E
  8
0
 10
167.9999999999998863
 20
95.0719999999999317
 30
0.0
 11
167.9999999999998863
 21
95.3279999999999177
 31
0.0
  0
LINE
  5
250F
  8
0
 10
167.7059178742998995
 20
94.8367342993999358
 30
0.0
 11
167.9999999999998863
 21
95.0719999999999317
 31
0.0
  0
LINE
  5
2510
  8
0
 10
167.9999999999998863
 20
94.5279999999999347
 30
0.0
 11
167.6944536002000063
 21
94.7724371198999052
 31
0.0
  0
LINE
  5
2511
  8
0
 10
167.9999999999998863
 20
94.2719999999999487
 30
0.0
 11
167.9999999999998863
 21
94.5279999999999347
 31
0.0
  0
LINE
  5
2512
  8
0
 10
167.6599999999999966
 20
93.9999999999999289
 30
0.0
 11
167.9999999999998863
 21
94.2719999999999487
 31
0.0
  0
LINE
  5
2513
  8
0
 10
167.9999999999998863
 20
93.7279999999999376
 30
0.0
 11
167.6599999999999966
 21
93.9999999999999289
 31
0.0
  0
LINE
  5
2514
  8
0
 10
167.9999999999998863
 20
99.3279999999999319
 30
0.0
 11
167.7728587843998866
 21
99.5097129724999405
 31
0.0
  0
LINE
  5
2515
  8
0
 10
167.9999999999998863
 20
99.0719999999999459
 30
0.0
 11
167.9999999999998863
 21
99.3279999999999319
 31
0.0
  0
LINE
  5
2516
  8
0
 10
167.7800597003000007
 20
98.8960477601999486
 30
0.0
 11
167.9999999999998863
 21
99.0719999999999459
 31
0.0
  0
LINE
  5
2517
  8
0
 10
167.9999999999998863
 20
93.4719999999999231
 30
0.0
 11
167.9999999999998863
 21
93.7279999999999376
 31
0.0
  0
LINE
  5
2518
  8
0
 10
167.9999999999998863
 20
92.9279999999999404
 30
0.0
 11
167.7800597003000007
 21
93.1039522397999519
 31
0.0
  0
LINE
  5
2519
  8
0
 10
167.9999999999998863
 20
92.671999999999926
 30
0.0
 11
167.9999999999998863
 21
92.9279999999999404
 31
0.0
  0
LINE
  5
251A
  8
0
 10
167.7728587843998866
 20
92.4902870274999458
 30
0.0
 11
167.9999999999998863
 21
92.671999999999926
 31
0.0
  0
LINE
  5
251B
  8
0
 10
167.9999999999998863
 20
99.871999999999943
 30
0.0
 11
167.9999999999998863
 21
100.1279999999999006
 31
0.0
  0
LINE
  5
251C
  8
0
 10
167.8662791945000095
 20
99.7650233554999346
 30
0.0
 11
167.9999999999998863
 21
99.871999999999943
 31
0.0
  0
LINE
  5
251D
  8
0
 10
167.9999999999998863
 20
91.8719999999999288
 30
0.0
 11
167.9999999999998863
 21
92.1279999999999148
 31
0.0
  0
LINE
  5
251E
  8
0
 10
167.9999999999998863
 20
100.6719999999998976
 30
0.0
 11
167.9999999999998863
 21
100.9279999999998978
 31
0.0
  0
LINE
  5
251F
  8
0
 10
167.8040420002998871
 20
100.515233600199906
 30
0.0
 11
167.9999999999998863
 21
100.6719999999998976
 31
0.0
  0
LINE
  5
2520
  8
0
 10
167.9999999999998863
 20
91.3279999999999461
 30
0.0
 11
167.8040420002998871
 21
91.4847663997999376
 31
0.0
  0
LINE
  5
2521
  8
0
 10
167.9999999999998863
 20
100.9279999999998978
 30
0.0
 11
167.6893253606999963
 21
101.1765397113998972
 31
0.0
  0
LINE
  5
2522
  8
0
 10
167.9999999999998863
 20
91.0719999999999317
 30
0.0
 11
167.9999999999998863
 21
91.3279999999999461
 31
0.0
  0
LINE
  5
2523
  8
0
 10
167.6893253606999963
 20
90.8234602885999465
 30
0.0
 11
167.9999999999998863
 21
91.0719999999999317
 31
0.0
  0
LINE
  5
2524
  8
0
 10
167.8708039768999072
 20
101.3686431814999054
 30
0.0
 11
167.905505437100004
 21
101.396404349599905
 31
0.0
  0
LINE
  5
2525
  8
0
 10
167.905505437100004
 20
90.6035956503999245
 30
0.0
 11
167.8708039768999072
 21
90.6313568184999383
 31
0.0
  0
ENDSEC
  0
EOF
