  0
SECTION
  2
HEADER
  9
$ACADVER
  1
AC1009
  9
$INSBASE
 10
0.0
 20
0.0
 30
0.0
  9
$EXTMIN
 10
0.0
 20
-1.4802182810368341
 30
0.0
  9
$EXTMAX
 10
211.5
 20
95.9999999999999716
 30
0.0
  9
$LIMMIN
 10
0.0
 20
0.0
  9
$LIMMAX
 10
187.5
 20
135.0
  9
$ORTHOMODE
 70
     1
  9
$REGENMODE
 70
     1
  9
$FILLMODE
 70
     1
  9
$QTEXTMODE
 70
     0
  9
$MIRRTEXT
 70
     0
  9
$DRAGMODE
 70
     2
  9
$LTSCALE
 40
5.0
  9
$OSMODE
 70
    37
  9
$ATTMODE
 70
     1
  9
$TEXTSIZE
 40
2.5000000000000488
  9
$TRACEWID
 40
0.05
  9
$TEXTSTYLE
  7
STANDARD
  9
$CLAYER
  8
0
  9
$CELTYPE
  6
BYLAYER
  9
$CECOLOR
 62
   256
  9
$DIMSCALE
 40
0.5
  9
$DIMASZ
 40
3.0
  9
$DIMEXO
 40
2.0
  9
$DIMDLI
 40
0.38
  9
$DIMRND
 40
0.0
  9
$DIMDLE
 40
0.0
  9
$DIMEXE
 40
2.0
  9
$DIMTP
 40
0.0
  9
$DIMTM
 40
0.0
  9
$DIMTXT
 40
3.2000000000000002
  9
$DIMCEN
 40
0.0
  9
$DIMTSZ
 40
0.0
  9
$DIMTOL
 70
     0
  9
$DIMLIM
 70
     0
  9
$DIMTIH
 70
     0
  9
$DIMTOH
 70
     0
  9
$DIMSE1
 70
     0
  9
$DIMSE2
 70
     0
  9
$DIMTAD
 70
     1
  9
$DIMZIN
 70
     0
  9
$DIMBLK
  1

  9
$DIMASO
 70
     0
  9
$DIMSHO
 70
     0
  9
$DIMPOST
  1

  9
$DIMAPOST
  1

  9
$DIMALT
 70
     0
  9
$DIMALTD
 70
     2
  9
$DIMALTF
 40
25.3999999999999986
  9
$DIMLFAC
 40
1.0
  9
$DIMTOFL
 70
     1
  9
$DIMTVP
 40
1.6000000000000001
  9
$DIMTIX
 70
     1
  9
$DIMSOXD
 70
     0
  9
$DIMSAH
 70
     0
  9
$DIMBLK1
  1

  9
$DIMBLK2
  1

  9
$DIMSTYLE
  2
STANDARD
  9
$DIMCLRD
 70
     0
  9
$DIMCLRE
 70
     0
  9
$DIMCLRT
 70
     0
  9
$DIMTFAC
 40
1.0
  9
$DIMGAP
 40
0.09
  9
$LUNITS
 70
     2
  9
$LUPREC
 70
     1
  9
$SKETCHINC
 40
0.1
  9
$FILLETRAD
 40
0.4
  9
$AUNITS
 70
     0
  9
$AUPREC
 70
     0
  9
$MENU
  1
E:\r13\win\SUPPORT\ACAD
  9
$ELEVATION
 40
0.0
  9
$PELEVATION
 40
0.0
  9
$THICKNESS
 40
0.0
  9
$LIMCHECK
 70
     0
  9
$BLIPMODE
 70
     0
  9
$CHAMFERA
 40
0.0
  9
$CHAMFERB
 40
0.0
  9
$SKPOLY
 70
     0
  9
$TDCREATE
 40
2449840.6215393519960344
  9
$TDUPDATE
 40
2460864.3914004629477859
  9
$TDINDWG
 40
0.1264859954
  9
$TDUSRTIMER
 40
0.1264859954
  9
$USRTIMER
 70
     1
  9
$ANGBASE
 50
0.0
  9
$ANGDIR
 70
     0
  9
$PDMODE
 70
     0
  9
$PDSIZE
 40
0.0
  9
$PLINEWID
 40
0.0
  9
$COORDS
 70
     1
  9
$SPLFRAME
 70
     0
  9
$SPLINETYPE
 70
     6
  9
$SPLINESEGS
 70
     8
  9
$ATTDIA
 70
     1
  9
$ATTREQ
 70
     1
  9
$HANDLING
 70
     1
  9
$HANDSEED
  5
2451
  9
$SURFTAB1
 70
     6
  9
$SURFTAB2
 70
     6
  9
$SURFTYPE
 70
     6
  9
$SURFU
 70
     6
  9
$SURFV
 70
     6
  9
$UCSNAME
  2

  9
$UCSORG
 10
0.0
 20
0.0
 30
0.0
  9
$UCSXDIR
 10
1.0
 20
0.0
 30
0.0
  9
$UCSYDIR
 10
0.0
 20
1.0
 30
0.0
  9
$PUCSNAME
  2

  9
$PUCSORG
 10
0.0
 20
0.0
 30
0.0
  9
$PUCSXDIR
 10
1.0
 20
0.0
 30
0.0
  9
$PUCSYDIR
 10
0.0
 20
1.0
 30
0.0
  9
$USERI1
 70
     0
  9
$USERI2
 70
     1
  9
$USERI3
 70
     0
  9
$USERI4
 70
     0
  9
$USERI5
 70
     0
  9
$USERR1
 40
0.0
  9
$USERR2
 40
0.0
  9
$USERR3
 40
0.0
  9
$USERR4
 40
0.0
  9
$USERR5
 40
0.0
  9
$WORLDVIEW
 70
     1
  9
$SHADEDGE
 70
     3
  9
$SHADEDIF
 70
    70
  9
$TILEMODE
 70
     1
  9
$MAXACTVP
 70
    16
  9
$PLIMCHECK
 70
     0
  9
$PEXTMIN
 10
1.0000000000000000E+20
 20
1.0000000000000000E+20
 30
1.0000000000000000E+20
  9
$PEXTMAX
 10
-1.0000000000000000E+20
 20
-1.0000000000000000E+20
 30
-1.0000000000000000E+20
  9
$PLIMMIN
 10
0.0
 20
0.0
  9
$PLIMMAX
 10
12.0
 20
9.0
  9
$UNITMODE
 70
     0
  9
$VISRETAIN
 70
     0
  9
$PLINEGEN
 70
     0
  9
$PSLTSCALE
 70
     0
  0
ENDSEC
  0
SECTION
  2
TABLES
  0
TABLE
  2
VPORT
 70
     1
  0
VPORT
  2
*ACTIVE
 70
     0
 10
0.0
 20
0.0
 11
1.0
 21
1.0
 12
201.7898383371824025
 22
85.9220496747730209
 13
0.0
 23
0.0
 14
5.0
 24
5.0
 15
5.0
 25
5.0
 16
0.0
 26
0.0
 36
1.0
 17
0.0
 27
0.0
 37
0.0
 40
171.8440993495460134
 41
2.3485221674876842
 42
50.0
 43
0.0
 44
0.0
 50
0.0
 51
0.0
 71
     0
 72
   500
 73
     1
 74
     0
 75
     0
 76
     0
 77
     0
 78
     2
  0
ENDTAB
  0
TABLE
  2
LTYPE
 70
     3
  0
LTYPE
  2
CONTINUOUS
 70
     0
  3
Solid Line
 72
    65
 73
     0
 40
0.0
  0
LTYPE
  2
CENTER
 70
     0
  3
____ _ ____ _ ____ _ ____ _ ____ _ ____ _ ____
 72
    65
 73
     4
 40
2.0
 49
1.25
 49
-0.25
 49
0.25
 49
-0.25
  0
LTYPE
  2
HIDDEN
 70
     0
  3
_ _ _ _ _ _ _ _ _ _ _ _ _ _ _ _ _ _ _ _ _ _ _
 72
    65
 73
     2
 40
0.375
 49
0.25
 49
-0.125
  0
ENDTAB
  0
TABLE
  2
LAYER
 70
     5
  0
LAYER
  2
0
 70
     0
 62
     7
  6
CONTINUOUS
  0
LAYER
  2
1
 70
     0
 62
     1
  6
CENTER
  0
LAYER
  2
2
 70
     0
 62
     2
  6
HIDDEN
  0
LAYER
  2
3
 70
     0
 62
     3
  6
CONTINUOUS
  0
LAYER
  2
DEFPOINTS
 70
     0
 62
     7
  6
CONTINUOUS
  0
ENDTAB
  0
TABLE
  2
STYLE
 70
     2
  0
STYLE
  2
STANDARD
 70
     0
 40
0.0
 41
1.0
 50
0.0
 71
     0
 42
2.5000000000000488
  3
TXT
  4
BIGFONT
  0
STYLE
  2
STANDARD1
 70
     0
 40
0.0
 41
1.0
 50
0.0
 71
     0
 42
3.0
  3
txt
  4

  0
ENDTAB
  0
TABLE
  2
VIEW
 70
     1
  0
VIEW
  2
ALL
 70
     0
 40
135.0
 10
110.4957983193277045
 20
67.5
 41
0.0
 11
0.0
 21
0.0
 31
1.0
 12
0.0
 22
0.0
 32
0.0
 42
0.0
 43
0.0
 44
0.0
 50
0.0
 71
     0
  0
ENDTAB
  0
TABLE
  2
UCS
 70
     0
  0
ENDTAB
  0
TABLE
  2
APPID
 70
     6
  0
APPID
  2
ACAD
 70
     0
  0
APPID
  2
ACAD_MLEADERVER
 70
     0
  0
APPID
  2
ACAD_EXEMPT_FROM_CAD_STANDARDS
 70
     0
  0
APPID
  2
ACAD_NAV_VCDISPLAY
 70
     0
  0
APPID
  2
ACAD_DSTYLE_DIMJAG
 70
     0
  0
APPID
  2
ACAD_DSTYLE_DIMTALN
 70
     0
  0
ENDTAB
  0
TABLE
  2
DIMSTYLE
 70
     1
  0
DIMSTYLE
  2
STANDARD
 70
     0
  3

  4

  5

  6

  7

 40
1.0
 41
0.18
 42
0.0625
 43
0.38
 44
0.18
 45
0.0
 46
0.0
 47
0.0
 48
0.0
140
0.18
141
0.09
142
0.0
143
25.3999999999999986
144
1.0
145
0.0
146
1.0
147
0.09
 71
     0
 72
     0
 73
     1
 74
     1
 75
     0
 76
     0
 77
     0
 78
     0
170
     0
171
     2
172
     0
173
     0
174
     0
175
     0
176
     0
177
     0
178
     0
  0
ENDTAB
  0
ENDSEC
  0
SECTION
  2
BLOCKS
  0
BLOCK
  8
0
  2
$MODEL_SPACE
 70
     0
 10
0.0
 20
0.0
 30
0.0
  3
$MODEL_SPACE
  1

  0
ENDBLK
  5
E4
  8
0
  0
BLOCK
 67
     1
  8
0
  2
$PAPER_SPACE
 70
     0
 10
0.0
 20
0.0
 30
0.0
  3
$PAPER_SPACE
  1

  0
ENDBLK
  5
E2
 67
     1
  8
0
  0
ENDSEC
  0
SECTION
  2
ENTITIES
  0
TEXT
  5
1D8
  8
0
 62
     3
 10
0.0
 20
0.0
 30
0.0
 40
5.0
  1
BCFN12X80-S
  7
STANDARD1
  0
LINE
  5
11E8
  8
0
 10
69.5
 20
47.9999999999999787
 30
0.0
 11
69.0
 21
47.4999999999999929
 31
0.0
  0
LINE
  5
11E9
  8
0
 10
69.0
 20
30.5
 30
0.0
 11
69.5
 21
30.0
 31
0.0
  0
LINE
  5
11EA
  8
0
 10
81.0
 20
47.9999999999999787
 30
0.0
 11
69.5
 21
47.9999999999999787
 31
0.0
  0
LINE
  5
11EB
  8
0
 10
69.5
 20
30.0
 30
0.0
 11
81.0
 21
30.0
 31
0.0
  0
LINE
  5
11EC
  8
0
 10
157.4000000000000057
 20
44.9999999999999503
 30
0.0
 11
81.9000000000001052
 21
44.9999999999999929
 31
0.0
  0
LINE
  5
11ED
  8
0
 10
81.9000000000001052
 20
33.0
 30
0.0
 11
157.4000000000000057
 21
33.0
 31
0.0
  0
LINE
  5
11EE
  8
0
 10
157.4000000000000057
 20
32.9999999999999929
 30
0.0
 11
158.75
 21
34.3499999999999872
 31
0.0
  0
LINE
  5
11EF
  8
0
 10
158.75
 20
43.6499999999999773
 30
0.0
 11
157.4000000000000057
 21
44.9999999999999787
 31
0.0
  0
LINE
  5
11F0
  8
0
 10
160.25
 20
43.6499999999999773
 30
0.0
 11
158.75
 21
43.6499999999999773
 31
0.0
  0
LINE
  5
11F1
  8
0
 10
158.75
 20
34.3499999999999872
 30
0.0
 11
160.25
 21
34.3499999999999872
 31
0.0
  0
LINE
  5
11F4
  8
0
 10
69.5
 20
47.9999999999999787
 30
0.0
 11
69.5
 21
30.0
 31
0.0
  0
LINE
  5
11F5
  8
0
 10
69.0
 20
47.4999999999999929
 30
0.0
 11
69.0
 21
30.5
 31
0.0
  0
LINE
  5
11F7
  8
0
 10
81.0
 20
30.0
 30
0.0
 11
81.0
 21
47.9999999999999787
 31
0.0
  0
LINE
  5
11F8
  8
0
 10
157.4000000000000057
 20
44.9999999999999787
 30
0.0
 11
157.4000000000000057
 21
32.9999999999999929
 31
0.0
  0
LINE
  5
11F9
  8
0
 10
158.75
 20
43.6499999999999773
 30
0.0
 11
158.75
 21
34.3499999999999872
 31
0.0
  0
LINE
  5
11FA
  8
0
 10
160.25
 20
43.6499999999999773
 30
0.0
 11
160.25
 21
34.3499999999999872
 31
0.0
  0
CIRCLE
  5
1210
  8
0
 10
200.0
 20
39.0
 30
0.0
 40
4.6499999999999764
  0
CIRCLE
  5
1211
  8
0
 10
200.0
 20
39.0
 30
0.0
 40
4.25
  0
CIRCLE
  5
1212
  8
0
 10
200.0
 20
39.0
 30
0.0
 40
5.9999999999999716
  0
CIRCLE
  5
1213
  8
0
 10
200.0
 20
39.0
 30
0.0
 40
9.0
  0
CIRCLE
  5
1215
  8
0
 10
30.0
 20
39.0
 30
0.0
 40
9.0
  0
CIRCLE
  5
1216
  8
0
 10
30.0
 20
39.0
 30
0.0
 40
8.5
  0
LINE
  5
1217
  8
0
 10
30.0
 20
44.7735026918999921
 30
0.0
 11
35.0
 21
41.8867513459999827
 31
0.0
  0
LINE
  5
1218
  8
0
 10
25.0
 20
41.8867513459999827
 30
0.0
 11
30.0
 21
44.7735026918999921
 31
0.0
  0
LINE
  5
1219
  8
0
 10
25.0
 20
36.1132486540999906
 30
0.0
 11
25.0
 21
41.8867513459999827
 31
0.0
  0
LINE
  5
121A
  8
0
 10
30.0
 20
33.2264973080999866
 30
0.0
 11
25.0
 21
36.1132486540999906
 31
0.0
  0
LINE
  5
121B
  8
0
 10
35.0
 20
36.1132486540999906
 30
0.0
 11
30.0
 21
33.2264973080999866
 31
0.0
  0
LINE
  5
121C
  8
0
 10
35.0
 20
41.8867513459999827
 30
0.0
 11
35.0
 21
36.1132486540999906
 31
0.0
  0
LINE
  5
12BE
  8
1
 10
66.5
 20
39.0
 30
0.0
 11
163.5
 21
39.0000000000000426
 31
0.0
  0
LINE
  5
12C0
  8
1
 10
41.5
 20
39.0
 30
0.0
 11
18.5
 21
39.0
 31
0.0
  0
LINE
  5
12C1
  8
1
 10
30.0
 20
50.5
 30
0.0
 11
30.0
 21
27.5
 31
0.0
  0
ARC
  5
12C4
  8
0
 10
81.9000000000001052
 20
32.0999999999999872
 30
0.0
 40
0.9000000000000039
 50
90.0
 51
179.999999999999801
  0
ARC
  5
12C5
  8
0
 10
81.9000000000001052
 20
45.8999999999999915
 30
0.0
 40
0.9000000000000021
 50
180.000000000000199
 51
270.0
  0
LINE
  5
12C6
  8
0
 10
125.0
 20
32.9999999999999929
 30
0.0
 11
125.0
 21
44.9999999999999929
 31
0.0
  0
LINE
  5
12CB
  8
3
 10
125.0
 20
33.9469999999999672
 30
0.0
 11
123.3597478852322951
 21
32.9999999999999716
 31
0.0
  0
LINE
  5
12CC
  8
3
 10
125.0
 20
44.0530000000000186
 30
0.0
 11
123.3597478852322951
 21
45.0000000000000213
 31
0.0
  0
LINE
  5
12CD
  8
3
 10
125.0
 20
44.0530000000000186
 30
0.0
 11
158.3470000000000084
 21
44.0530000000000115
 31
0.0
  0
LINE
  5
12CE
  8
3
 10
125.0
 20
33.9469999999999885
 30
0.0
 11
158.3470000000000084
 21
33.9470000000000383
 31
0.0
  0
ARC
  5
12CF
  8
2
 10
158.7411286003998896
 20
39.0
 30
0.0
 40
4.2500000000000071
 50
71.3531338721799671
 51
288.6468661278198056
  0
LINE
  5
12D1
  8
1
 10
211.5
 20
39.0
 30
0.0
 11
188.5
 21
39.0
 31
0.0
  0
LINE
  5
12D2
  8
1
 10
200.0
 20
50.5
 30
0.0
 11
200.0
 21
27.5
 31
0.0
  0
LINE
  5
12D3
  8
1
 10
158.7411286003998896
 20
44.75
 30
0.0
 11
158.7411286003998896
 21
33.2499999999999929
 31
0.0
  0
CIRCLE
  5
12D6
  8
3
 10
200.0
 20
39.0
 30
0.0
 40
5.0530000000000177
  0
LINE
  5
12D9
  8
0
 10
69.5
 20
95.9999999999999716
 30
0.0
 11
69.0
 21
95.4999999999999716
 31
0.0
  0
LINE
  5
12DA
  8
0
 10
69.0
 20
78.4999999999999858
 30
0.0
 11
69.5
 21
77.9999999999999858
 31
0.0
  0
LINE
  5
12DB
  8
0
 10
81.0
 20
95.9999999999999716
 30
0.0
 11
69.5
 21
95.9999999999999716
 31
0.0
  0
LINE
  5
12DC
  8
0
 10
69.5
 20
77.9999999999999858
 30
0.0
 11
81.0
 21
77.9999999999999858
 31
0.0
  0
LINE
  5
12DD
  8
0
 10
157.4000000000000057
 20
92.9999999999999289
 30
0.0
 11
81.9000000000001052
 21
92.9999999999999716
 31
0.0
  0
LINE
  5
12DE
  8
0
 10
81.9000000000001052
 20
80.9999999999999858
 30
0.0
 11
157.4000000000000057
 21
80.9999999999999858
 31
0.0
  0
LINE
  5
12DF
  8
0
 10
157.4000000000000057
 20
81.0
 30
0.0
 11
158.75
 21
82.3499999999999943
 31
0.0
  0
LINE
  5
12E0
  8
0
 10
158.75
 20
91.6499999999999915
 30
0.0
 11
157.4000000000000057
 21
92.9999999999999858
 31
0.0
  0
LINE
  5
12E1
  8
0
 10
160.25
 20
91.6499999999999915
 30
0.0
 11
158.75
 21
91.6499999999999915
 31
0.0
  0
LINE
  5
12E2
  8
0
 10
158.75
 20
82.3499999999999943
 30
0.0
 11
160.25
 21
82.3499999999999943
 31
0.0
  0
LINE
  5
12E5
  8
0
 10
69.5
 20
95.9999999999999716
 30
0.0
 11
69.5
 21
77.9999999999999858
 31
0.0
  0
LINE
  5
12E6
  8
0
 10
69.0
 20
95.4999999999999716
 30
0.0
 11
69.0
 21
78.4999999999999858
 31
0.0
  0
LINE
  5
12E7
  8
0
 10
81.0
 20
77.9999999999999858
 30
0.0
 11
81.0
 21
95.9999999999999716
 31
0.0
  0
LINE
  5
12E8
  8
0
 10
157.4000000000000057
 20
92.9999999999999858
 30
0.0
 11
157.4000000000000057
 21
81.0
 31
0.0
  0
LINE
  5
12E9
  8
0
 10
158.75
 20
91.6499999999999915
 30
0.0
 11
158.75
 21
82.3499999999999943
 31
0.0
  0
LINE
  5
12EA
  8
0
 10
160.25
 20
91.6499999999999915
 30
0.0
 11
160.25
 21
82.3499999999999943
 31
0.0
  0
LINE
  5
12EC
  8
1
 10
66.5
 20
86.9999999999999716
 30
0.0
 11
163.5
 21
86.9999999999999289
 31
0.0
  0
ARC
  5
12ED
  8
0
 10
81.9000000000001052
 20
80.0999999999999801
 30
0.0
 40
0.9000000000000039
 50
90.0
 51
179.9999999999996021
  0
ARC
  5
12EE
  8
0
 10
81.9000000000001052
 20
93.8999999999999773
 30
0.0
 40
0.9000000000000021
 50
180.0
 51
270.0
  0
LINE
  5
12EF
  8
0
 10
125.0
 20
80.9999999999999716
 30
0.0
 11
125.0
 21
92.9999999999999716
 31
0.0
  0
LINE
  5
12F0
  8
3
 10
125.0
 20
81.9469999999999459
 30
0.0
 11
123.3597478852322951
 21
80.9999999999999432
 31
0.0
  0
LINE
  5
12F1
  8
3
 10
125.0
 20
92.0529999999999831
 30
0.0
 11
123.3597478852322951
 21
93.0
 31
0.0
  0
LINE
  5
12F2
  8
3
 10
125.0
 20
92.0529999999999546
 30
0.0
 11
158.3470000000000084
 21
92.0529999999999262
 31
0.0
  0
LINE
  5
12F3
  8
3
 10
125.0
 20
81.9469999999999743
 30
0.0
 11
158.3470000000000084
 21
81.9470000000000454
 31
0.0
  0
ARC
  5
12F4
  8
2
 10
158.7411286003998896
 20
86.9999999999999858
 30
0.0
 40
4.2500000000000071
 50
71.3531338721799671
 51
288.6468661278198056
  0
LINE
  5
12F5
  8
1
 10
158.7411286003998896
 20
92.75
 30
0.0
 11
158.7411286003998896
 21
81.2499999999999858
 31
0.0
  0
LINE
  5
12F8
  8
2
 10
77.0
 20
44.7735026918999921
 30
0.0
 11
69.0
 21
44.7735026918999921
 31
0.0
  0
LINE
  5
12F9
  8
2
 10
77.0
 20
33.2264973080999866
 30
0.0
 11
69.0
 21
33.2264973080999866
 31
0.0
  0
LINE
  5
12FA
  8
2
 10
77.0
 20
44.7735026918999921
 30
0.0
 11
77.0
 21
33.2264973080999866
 31
0.0
  0
LINE
  5
12FB
  8
2
 10
79.8867513459481415
 20
39.0
 30
0.0
 11
77.0
 21
44.7735026918999921
 31
0.0
  0
LINE
  5
12FC
  8
2
 10
77.0
 20
33.2264973080999866
 30
0.0
 11
79.8867513459481415
 21
39.0
 31
0.0
  0
LINE
  5
12FD
  8
2
 10
77.0
 20
36.1132486540999906
 30
0.0
 11
69.0
 21
36.1132486540999906
 31
0.0
  0
LINE
  5
12FF
  8
2
 10
77.0
 20
91.9999999999999716
 30
0.0
 11
69.0
 21
91.9999999999999716
 31
0.0
  0
LINE
  5
1300
  8
2
 10
77.0
 20
81.9999999999999716
 30
0.0
 11
69.0
 21
81.9999999999999716
 31
0.0
  0
LINE
  5
1301
  8
2
 10
77.0
 20
91.9999999999999716
 30
0.0
 11
77.0
 21
81.9999999999999716
 31
0.0
  0
LINE
  5
1302
  8
2
 10
79.8867513459481415
 20
86.9999999999999716
 30
0.0
 11
77.0
 21
91.9999999999999716
 31
0.0
  0
LINE
  5
1303
  8
2
 10
77.0
 20
81.9999999999999716
 30
0.0
 11
79.8867513459481415
 21
86.9999999999999716
 31
0.0
  0
LINE
  5
1304
  8
2
 10
77.0
 20
86.9999999999999716
 30
0.0
 11
69.0
 21
86.9999999999999716
 31
0.0
  0
LINE
  5
1309
  8
2
 10
77.0
 20
41.8867513459999827
 30
0.0
 11
69.0
 21
41.8867513459999827
 31
0.0
  0
LINE
  5
19B3
  8
0
 10
196.3218385842999965
 20
40.2000000000000028
 30
0.0
 11
203.6781614155999875
 21
40.2000000000000028
 31
0.0
  0
ARC
  5
19B4
  8
0
 10
202.1394908083979089
 20
40.6184687984735717
 30
0.0
 40
1.5945605578853299
 50
338.9118448174497189
 51
344.7853932660834175
  0
ARC
  5
19B5
  8
0
 10
197.8792563581797026
 20
40.624614931354543
 30
0.0
 40
1.6142639072734619
 50
195.2504832359927889
 51
201.0522787471126946
  0
LINE
  5
19B6
  8
0
 10
196.6880713474000117
 20
37.0
 30
0.0
 11
203.3119286525000007
 21
37.0
 31
0.0
  0
ARC
  5
19B7
  8
0
 10
201.0164767110150876
 20
39.9268452456198872
 30
0.0
 40
3.719613247029169
 50
301.0142160266780138
 51
308.1062077875502041
  0
ARC
  5
19B8
  8
0
 10
198.9956475613751081
 20
39.9444465167389495
 30
0.0
 40
3.7409455052486091
 50
231.9140384308732052
 51
238.9655377549034085
  0
ARC
  5
19B9
  8
0
 10
201.9490585630439909
 20
36.9129554999505274
 30
0.0
 40
1.3656469623305629
 50
3.6544331816439142
 51
20.8939972329825991
  0
ARC
  5
19BA
  8
0
 10
198.0419094905537918
 20
36.9149205249424099
 30
0.0
 40
1.3565088407136581
 50
159.0474889669850995
 51
176.4040805910370864
  0
ARC
  5
19BB
  8
0
 10
198.6297206249163878
 20
39.9583629437169776
 30
0.0
 40
3.159881344324579
 50
223.0825917578580118
 51
234.0606686792887956
  0
LINE
  5
19BC
  8
0
 10
196.3218385842999965
 20
37.8000000000000114
 30
0.0
 11
203.6781614155999875
 21
37.8000000000000114
 31
0.0
  0
ARC
  5
19BD
  8
0
 10
201.3996660627728943
 20
39.92506354168043
 30
0.0
 40
3.1156758703423981
 50
305.8612081060747983
 51
316.9955314693319792
  0
LINE
  5
19BE
  8
0
 10
203.328000000000003
 20
39.0
 30
0.0
 11
203.5999999999999943
 21
39.2720000000000127
 31
0.0
  0
LINE
  5
19BF
  8
0
 10
203.5999999999999943
 20
38.7280000000000086
 30
0.0
 11
203.5999999999999943
 21
39.2720000000000127
 31
0.0
  0
LINE
  5
19C0
  8
0
 10
203.5999999999999943
 20
38.7280000000000086
 30
0.0
 11
203.328000000000003
 21
39.0
 31
0.0
  0
LINE
  5
19C1
  8
0
 10
202.8000000000000114
 20
39.2720000000000127
 30
0.0
 11
203.0720000000000027
 21
39.0
 31
0.0
  0
LINE
  5
19C2
  8
0
 10
203.0720000000000027
 20
39.0
 30
0.0
 11
202.8000000000000114
 21
38.7280000000000086
 31
0.0
  0
LINE
  5
19C3
  8
0
 10
202.8000000000000114
 20
38.7280000000000086
 30
0.0
 11
202.8000000000000114
 21
39.2720000000000127
 31
0.0
  0
LINE
  5
19C4
  8
0
 10
196.1517703551000125
 20
38.6000000000000085
 30
0.0
 11
203.8482296448
 21
38.6000000000000085
 31
0.0
  0
ARC
  5
19C5
  8
0
 10
201.8707391451347064
 20
39.9389855575090422
 30
0.0
 40
2.3881689637637309
 50
319.4538690555614835
 51
325.8975398310370792
  0
ARC
  5
19C6
  8
0
 10
198.1125512728659999
 20
39.9262450662340314
 30
0.0
 40
2.3671898494175139
 50
214.0738762608170873
 51
220.5747148525883858
  0
LINE
  5
19C7
  8
0
 10
196.671999999999997
 20
39.0
 30
0.0
 11
196.9279999999999973
 21
39.0
 31
0.0
  0
LINE
  5
19C8
  8
0
 10
197.1999999999999886
 20
38.7280000000000086
 30
0.0
 11
196.9279999999999973
 21
39.0
 31
0.0
  0
LINE
  5
19C9
  8
0
 10
197.4719999999998947
 20
39.0
 30
0.0
 11
197.1999999999999886
 21
38.7280000000000086
 31
0.0
  0
LINE
  5
19CA
  8
0
 10
197.4719999999998947
 20
39.0
 30
0.0
 11
197.7280000000000086
 21
39.0
 31
0.0
  0
LINE
  5
19CB
  8
0
 10
198.0
 20
38.7280000000000086
 30
0.0
 11
197.7280000000000086
 21
39.0
 31
0.0
  0
LINE
  5
19CC
  8
0
 10
198.2719999999999914
 20
39.0
 30
0.0
 11
198.0
 21
38.7280000000000086
 31
0.0
  0
LINE
  5
19CD
  8
0
 10
198.2719999999999914
 20
39.0
 30
0.0
 11
198.5279999999999063
 21
39.0
 31
0.0
  0
LINE
  5
19CE
  8
0
 10
198.8000000000000114
 20
38.7280000000000086
 30
0.0
 11
198.5279999999999063
 21
39.0
 31
0.0
  0
LINE
  5
19CF
  8
0
 10
199.0720000000000027
 20
39.0
 30
0.0
 11
198.8000000000000114
 21
38.7280000000000086
 31
0.0
  0
LINE
  5
19D0
  8
0
 10
199.0720000000000027
 20
39.0
 30
0.0
 11
199.328000000000003
 21
39.0
 31
0.0
  0
LINE
  5
19D1
  8
0
 10
199.5999999999999943
 20
38.7280000000000086
 30
0.0
 11
199.328000000000003
 21
39.0
 31
0.0
  0
LINE
  5
19D2
  8
0
 10
199.8720000000000141
 20
39.0
 30
0.0
 11
199.5999999999999943
 21
38.7280000000000086
 31
0.0
  0
LINE
  5
19D3
  8
0
 10
199.8720000000000141
 20
39.0
 30
0.0
 11
200.1279999999999859
 21
39.0
 31
0.0
  0
LINE
  5
19D4
  8
0
 10
200.4000000000000057
 20
38.7280000000000086
 30
0.0
 11
200.1279999999999859
 21
39.0
 31
0.0
  0
LINE
  5
19D5
  8
0
 10
200.671999999999997
 20
39.0
 30
0.0
 11
200.4000000000000057
 21
38.7280000000000086
 31
0.0
  0
LINE
  5
19D6
  8
0
 10
200.671999999999997
 20
39.0
 30
0.0
 11
200.9279999999999973
 21
39.0
 31
0.0
  0
LINE
  5
19D7
  8
0
 10
201.1999999999999886
 20
38.7280000000000086
 30
0.0
 11
200.9279999999999973
 21
39.0
 31
0.0
  0
LINE
  5
19D8
  8
0
 10
201.4720000000000084
 20
39.0
 30
0.0
 11
201.1999999999999886
 21
38.7280000000000086
 31
0.0
  0
LINE
  5
19D9
  8
0
 10
201.4720000000000084
 20
39.0
 30
0.0
 11
201.7280000000000086
 21
39.0
 31
0.0
  0
LINE
  5
19DA
  8
0
 10
202.0
 20
38.7280000000000086
 30
0.0
 11
201.7280000000000086
 21
39.0
 31
0.0
  0
LINE
  5
19DB
  8
0
 10
202.2719999999999914
 20
39.0
 30
0.0
 11
202.0
 21
38.7280000000000086
 31
0.0
  0
LINE
  5
19DC
  8
0
 10
202.2719999999999914
 20
39.0
 30
0.0
 11
202.5279999999999063
 21
39.0
 31
0.0
  0
LINE
  5
19DD
  8
0
 10
202.8000000000000114
 20
38.7280000000000086
 30
0.0
 11
202.5279999999999063
 21
39.0
 31
0.0
  0
LINE
  5
19DE
  8
0
 10
203.0720000000000027
 20
39.0
 30
0.0
 11
203.328000000000003
 21
39.0
 31
0.0
  0
LINE
  5
19DF
  8
0
 10
203.7135505443000056
 20
38.8415505443000129
 30
0.0
 11
203.5999999999999943
 21
38.7280000000000086
 31
0.0
  0
ARC
  5
19E0
  8
0
 10
202.037359686884912
 20
37.7486511658713084
 30
0.0
 40
2.0010109549554929
 50
25.1797426710110805
 51
33.1049006213209509
  0
ARC
  5
19E1
  8
0
 10
198.4730175100966107
 20
37.4640848767066004
 30
0.0
 40
2.584277756338579
 50
147.7904267736140014
 51
153.9249298978843967
  0
LINE
  5
19E2
  8
0
 10
196.4000000000000057
 20
38.7280000000000086
 30
0.0
 11
196.2864494556999944
 21
38.8415505443000129
 31
0.0
  0
LINE
  5
19E3
  8
0
 10
196.671999999999997
 20
39.0
 30
0.0
 11
196.4000000000000057
 21
38.7280000000000086
 31
0.0
  0
ARC
  5
19E4
  8
0
 10
198.0473412350436888
 20
41.0862612264816391
 30
0.0
 40
1.362004268219863
 50
183.631203270676707
 51
200.9172271713005102
  0
LINE
  5
19E5
  8
0
 10
196.6880713474000117
 20
41.0
 30
0.0
 11
203.3119286525000007
 21
41.0
 31
0.0
  0
ARC
  5
19E6
  8
0
 10
201.965281816067403
 20
41.0835149061268226
 30
0.0
 40
1.349234020331304
 50
339.000333107022584
 51
356.4512364783499265
  0
LINE
  5
19E7
  8
0
 10
196.1517703551000125
 20
39.4000000000000128
 30
0.0
 11
203.8482296448
 21
39.4000000000000128
 31
0.0
  0
ARC
  5
19E8
  8
0
 10
202.0512053057742037
 20
40.2436290605994316
 30
0.0
 40
1.9851968332986709
 50
326.8634823571102856
 51
334.8518743505530892
  0
LINE
  5
19E9
  8
0
 10
203.5999999999999943
 20
39.2720000000000127
 30
0.0
 11
203.7135505443000056
 21
39.1584494557000085
 31
0.0
  0
LINE
  5
19EA
  8
0
 10
202.5279999999999063
 20
39.0
 30
0.0
 11
202.8000000000000114
 21
39.2720000000000127
 31
0.0
  0
LINE
  5
19EB
  8
0
 10
202.0
 20
39.2720000000000127
 30
0.0
 11
202.2719999999999914
 21
39.0
 31
0.0
  0
LINE
  5
19EC
  8
0
 10
201.7280000000000086
 20
39.0
 30
0.0
 11
202.0
 21
39.2720000000000127
 31
0.0
  0
LINE
  5
19ED
  8
0
 10
201.1999999999999886
 20
39.2720000000000127
 30
0.0
 11
201.4720000000000084
 21
39.0
 31
0.0
  0
LINE
  5
19EE
  8
0
 10
200.9279999999999973
 20
39.0
 30
0.0
 11
201.1999999999999886
 21
39.2720000000000127
 31
0.0
  0
LINE
  5
19EF
  8
0
 10
200.4000000000000057
 20
39.2720000000000127
 30
0.0
 11
200.671999999999997
 21
39.0
 31
0.0
  0
LINE
  5
19F0
  8
0
 10
200.1279999999999859
 20
39.0
 30
0.0
 11
200.4000000000000057
 21
39.2720000000000127
 31
0.0
  0
LINE
  5
19F1
  8
0
 10
199.5999999999999943
 20
39.2720000000000127
 30
0.0
 11
199.8720000000000141
 21
39.0
 31
0.0
  0
LINE
  5
19F2
  8
0
 10
199.328000000000003
 20
39.0
 30
0.0
 11
199.5999999999999943
 21
39.2720000000000127
 31
0.0
  0
LINE
  5
19F3
  8
0
 10
198.8000000000000114
 20
39.2720000000000127
 30
0.0
 11
199.0720000000000027
 21
39.0
 31
0.0
  0
LINE
  5
19F4
  8
0
 10
198.5279999999999063
 20
39.0
 30
0.0
 11
198.8000000000000114
 21
39.2720000000000127
 31
0.0
  0
LINE
  5
19F5
  8
0
 10
198.0
 20
39.2720000000000127
 30
0.0
 11
198.2719999999999914
 21
39.0
 31
0.0
  0
LINE
  5
19F6
  8
0
 10
197.7280000000000086
 20
39.0
 30
0.0
 11
198.0
 21
39.2720000000000127
 31
0.0
  0
LINE
  5
19F7
  8
0
 10
197.1999999999999886
 20
39.2720000000000127
 30
0.0
 11
197.4719999999998947
 21
39.0
 31
0.0
  0
LINE
  5
19F8
  8
0
 10
196.9279999999999973
 20
39.0
 30
0.0
 11
197.1999999999999886
 21
39.2720000000000127
 31
0.0
  0
LINE
  5
19F9
  8
0
 10
196.4000000000000057
 20
39.2720000000000127
 30
0.0
 11
196.671999999999997
 21
39.0
 31
0.0
  0
LINE
  5
19FA
  8
0
 10
196.2864494556999944
 20
39.1584494557000085
 30
0.0
 11
196.4000000000000057
 21
39.2720000000000127
 31
0.0
  0
ARC
  5
19FB
  8
0
 10
198.0803574408506904
 20
40.3169832839103677
 30
0.0
 40
2.1354874128159351
 50
205.4296368751712976
 51
212.8550064533266948
  0
ARC
  5
19FC
  8
0
 10
201.8624096276446096
 20
38.0546634677417615
 30
0.0
 40
2.3986270084287158
 50
34.1165221264171876
 51
40.5320689611105891
  0
ARC
  5
19FD
  8
0
 10
198.1837196110714103
 20
38.0194914827142085
 30
0.0
 40
2.456546670662175
 50
139.5436392216915067
 51
145.8077696908040082
  0
ARC
  5
19FE
  8
0
 10
201.4008795386183976
 20
38.0763115033655382
 30
0.0
 40
3.113850603026195
 50
43.0011948711677405
 51
54.1420655534389184
  0
ARC
  5
19FF
  8
0
 10
198.5989369662198101
 20
38.0765194295666518
 30
0.0
 40
3.1135745974603091
 50
125.8574390815089004
 51
136.9993004813456992
  0
ARC
  5
1A00
  8
0
 10
201.0068870190536927
 20
38.0592330321978025
 30
0.0
 40
3.7364859548561311
 50
51.9098250575239888
 51
58.9697511077181176
  0
ARC
  5
1A01
  8
0
 10
198.9616783604496106
 20
38.1048678755540777
 30
0.0
 40
3.681179005126912
 50
120.977145119153505
 51
128.1432787155922028
  0
ARC
  5
1A02
  8
0
 10
202.0821911025641953
 20
37.3627458801734633
 30
0.0
 40
1.654784700617254
 50
15.3215761699790498
 51
20.981185746488201
  0
ARC
  5
1A03
  8
0
 10
197.9106980865755929
 20
37.365077110439131
 30
0.0
 40
1.6473106682819041
 50
159.005964558437995
 51
164.6912734584514055
  0
ARC
  5
1A04
  8
0
 10
199.9697960333357116
 20
36.8788238555518006
 30
0.0
 40
5.8869364847707093
 50
93.6014845688001458
 51
103.6288000199966035
  0
ARC
  5
1A05
  8
0
 10
199.1670476154938001
 20
41.9939843253744201
 30
0.0
 40
0.8418857423600629
 50
133.9594492987000081
 51
165.8354571098269048
  0
ARC
  5
1A06
  8
0
 10
200.1442233656046881
 20
35.6945841333899523
 30
0.0
 40
6.7481074763947468
 50
105.4128970998959005
 51
106.3851403238635953
  0
ARC
  5
1A07
  8
0
 10
197.8388587608498881
 20
40.9230367001622781
 30
0.0
 40
1.308789096319221
 50
72.1226281699818657
 51
82.927661035398728
  0
ARC
  5
1A08
  8
0
 10
201.1105462045298964
 20
39.9514951131423075
 30
0.0
 40
3.850985605208181
 50
143.8744730847674873
 51
147.0186089465082091
  0
ARC
  5
1A09
  8
0
 10
199.5069323712872063
 20
37.7022736959112521
 30
0.0
 40
4.6400831989894238
 50
110.5235213673578016
 51
117.9795825233820068
  0
ARC
  5
1A0A
  8
0
 10
198.3728066703012871
 20
41.5642766909074695
 30
0.0
 40
1.069111808823844
 50
167.2624684892649896
 51
179.7845123761518096
  0
ARC
  5
1A0B
  8
0
 10
197.362102234118197
 20
40.5111025929685979
 30
0.0
 40
1.058806768428121
 50
93.1618249120369484
 51
98.8065598184572451
  0
ARC
  5
1A0C
  8
0
 10
201.4298471608192926
 20
39.4813297306550197
 30
0.0
 40
4.7118771869920373
 50
153.8572326022039931
 51
157.8086538627401865
  0
ARC
  5
1A0D
  8
0
 10
202.3245119806815921
 20
39.0218843277912271
 30
0.0
 40
6.039025331414984
 50
170.248562049270987
 51
174.3782852140678017
  0
ARC
  5
1A0E
  8
0
 10
202.4831261935381121
 20
39.0000000000000213
 30
0.0
 40
6.1987021886258562
 50
178.5352621014546912
 51
181.4647378985451951
  0
ARC
  5
1A0F
  8
0
 10
202.3265152330081094
 20
38.9783860445128525
 30
0.0
 40
6.0410454349105489
 50
185.6224055647934961
 51
189.7507471683443043
  0
ARC
  5
1A10
  8
0
 10
201.7383346945671008
 20
38.6570969242378126
 30
0.0
 40
5.0498116542519558
 50
202.3236083916291932
 51
206.0105051434263999
  0
ARC
  5
1A11
  8
0
 10
197.3556682805748892
 20
37.4279292237067196
 30
0.0
 40
0.9975767550137044
 50
261.0225098266092232
 51
267.0142359667844971
  0
ARC
  5
1A12
  8
0
 10
198.3700652431672893
 20
36.435392479587513
 30
0.0
 40
1.0663649415414691
 50
180.1980388270903859
 51
192.7526702668172049
  0
ARC
  5
1A13
  8
0
 10
199.5033869934107997
 20
40.2898564262949321
 30
0.0
 40
4.6314698887043599
 50
242.0134744965671132
 51
249.4834216126843103
  0
ARC
  5
1A14
  8
0
 10
201.0938468407053108
 20
38.0370047764458192
 30
0.0
 40
3.8307171512131371
 50
212.9730710843381871
 51
216.1338468843551084
  0
ARC
  5
1A15
  8
0
 10
197.8361365254610007
 20
37.0892680603808031
 30
0.0
 40
1.321335936881463
 50
277.123789370402676
 51
287.825921469633272
  0
ARC
  5
1A16
  8
0
 10
200.4628568253880019
 20
43.424060008053452
 30
0.0
 40
7.9112106223966814
 50
253.686330395795494
 51
254.5156320841581135
  0
ARC
  5
1A17
  8
0
 10
199.1682470744754028
 20
36.0067110479111179
 30
0.0
 40
0.8432189830941627
 50
194.1904120691384037
 51
226.0146815223369003
  0
ARC
  5
1A18
  8
0
 10
199.9700817775405142
 20
41.1230621724916503
 30
0.0
 40
5.8888367397743648
 50
256.3728219711875909
 51
266.3968934511657949
  0
ARC
  5
1A19
  8
0
 10
199.9999999999560885
 20
41.4306317759993306
 30
0.0
 40
6.1976875223663264
 50
266.2995468200682012
 51
273.7004531807443755
  0
ARC
  5
1A1A
  8
0
 10
200.0301762371699112
 20
41.1213591740996023
 30
0.0
 40
5.8871208947389491
 50
273.6016420143914729
 51
283.6286425626270216
  0
ARC
  5
1A1B
  8
0
 10
200.8327261751173864
 20
36.0061468168516825
 30
0.0
 40
0.8421371687357831
 50
313.9643343176520034
 51
345.8305721123214767
  0
ARC
  5
1A1C
  8
0
 10
199.9538834942626124
 20
41.9609866506370324
 30
0.0
 40
6.3899920047415213
 50
285.3856526371732798
 51
286.4123848827687198
  0
ARC
  5
1A1D
  8
0
 10
202.1615185252499884
 20
37.0786686673098131
 30
0.0
 40
1.310527951175946
 50
252.1298176769487895
 51
262.9204714930581872
  0
ARC
  5
1A1E
  8
0
 10
197.6596159821679066
 20
38.8954395819019823
 30
0.0
 40
5.3438318791489401
 50
324.3137123932194754
 51
326.5793696723659991
  0
ARC
  5
1A1F
  8
0
 10
200.4732212797605087
 20
40.3417803800253623
 30
0.0
 40
4.6883001109820173
 50
290.5619157253285039
 51
297.9411881504589132
  0
ARC
  5
1A20
  8
0
 10
201.6366249635642021
 20
36.4346526269964812
 30
0.0
 40
1.0596767205175499
 50
347.2064959986777808
 51
359.8404848667703959
  0
ARC
  5
1A21
  8
0
 10
202.6423975981697083
 20
37.4459704300157483
 30
0.0
 40
1.0156991672805831
 50
273.0419367485255862
 51
278.9264480913315083
  0
ARC
  5
1A22
  8
0
 10
198.5242474269103923
 20
38.5392692613125902
 30
0.0
 40
4.762162851604697
 50
333.8781031135478088
 51
337.7877833835540855
  0
ARC
  5
1A23
  8
0
 10
197.6780743293527109
 20
38.9777666048376901
 30
0.0
 40
6.0364172665953868
 50
350.2476695430290761
 51
354.3791777499253044
  0
ARC
  5
1A24
  8
0
 10
197.4224150252175889
 20
39.0000000000000071
 30
0.0
 40
6.2931305682840923
 50
358.5572451651611914
 51
1.442754834838454
  0
ARC
  5
1A25
  8
0
 10
197.6757653744037952
 20
39.021921762896973
 30
0.0
 40
6.0387456430748196
 50
5.6216190961471044
 51
9.7515336144226872
  0
ARC
  5
1A26
  8
0
 10
198.1180643999674942
 20
39.2784654882994673
 30
0.0
 40
5.2071284082323848
 50
22.3793206434532017
 51
25.9547928594337307
  0
ARC
  5
1A27
  8
0
 10
202.6412674498961053
 20
40.5432483059373681
 30
0.0
 40
1.0265253643447789
 50
81.1046091857352138
 51
86.9270060837014711
  0
ARC
  5
1A28
  8
0
 10
201.6283547562692888
 20
41.5644085364238407
 30
0.0
 40
1.0679499022097809
 50
0.2086484774148124
 51
12.7443706571402302
  0
ARC
  5
1A29
  8
0
 10
200.4984903426305891
 20
37.714310803753861
 30
0.0
 40
4.6269090265124673
 50
62.0097876063112565
 51
69.4871085029436557
  0
ARC
  5
1A2A
  8
0
 10
199.029103568754806
 20
40.0476657115239902
 30
0.0
 40
3.6814916294386788
 50
32.9089944141832191
 51
36.1979235545300284
  0
ARC
  5
1A2B
  8
0
 10
202.1636270670396129
 20
40.9118005208800994
 30
0.0
 40
1.320246290725948
 50
97.119360014551404
 51
107.830350770005694
  0
ARC
  5
1A2C
  8
0
 10
200.1698111767865953
 20
36.7970826249444372
 30
0.0
 40
5.6018061786051296
 50
73.5153811199732559
 51
74.6865814563299892
  0
ARC
  5
1A2D
  8
0
 10
200.8329719541825966
 20
41.9939956708854112
 30
0.0
 40
0.8418639912564435
 50
14.1641201325535295
 51
46.0409734374712087
  0
ARC
  5
1A2E
  8
0
 10
200.0302178534570032
 20
36.8789155136875593
 30
0.0
 40
5.8868441353338454
 50
76.3711211274822972
 51
86.3985942841857337
  0
ARC
  5
1A2F
  8
0
 10
199.9999999999674003
 20
36.57691386251566
 30
0.0
 40
6.1901576349525911
 50
86.295039200065176
 51
93.7049607993342875
  0
LINE
  5
1A30
  8
0
 10
197.3300053558999991
 20
36.2000000000000028
 30
0.0
 11
202.6699946441000009
 21
36.2000000000000028
 31
0.0
  0
LINE
  5
1A31
  8
0
 10
202.0
 20
38.7280000000000086
 30
0.0
 11
202.0
 21
39.2720000000000127
 31
0.0
  0
LINE
  5
1A32
  8
0
 10
201.1999999999999886
 20
38.7280000000000086
 30
0.0
 11
201.1999999999999886
 21
39.2720000000000127
 31
0.0
  0
LINE
  5
1A33
  8
0
 10
198.582653394700003
 20
35.4000000000000128
 30
0.0
 11
201.417346605299997
 21
35.4000000000000128
 31
0.0
  0
LINE
  5
1A34
  8
0
 10
202.8000000000000114
 20
36.442573060400008
 30
0.0
 11
202.8000000000000114
 21
36.8719999999999999
 31
0.0
  0
LINE
  5
1A35
  8
0
 10
197.3300053558999991
 20
41.8000000000000114
 30
0.0
 11
202.6699946441000009
 21
41.8000000000000114
 31
0.0
  0
LINE
  5
1A36
  8
0
 10
198.582653394700003
 20
42.6000000000000014
 30
0.0
 11
201.417346605299997
 21
42.6000000000000014
 31
0.0
  0
LINE
  5
1A37
  8
0
 10
198.8000000000000114
 20
38.7280000000000086
 30
0.0
 11
198.8000000000000114
 21
39.2720000000000127
 31
0.0
  0
LINE
  5
1A38
  8
0
 10
199.5999999999999943
 20
38.7280000000000086
 30
0.0
 11
199.5999999999999943
 21
39.2720000000000127
 31
0.0
  0
LINE
  5
1A39
  8
0
 10
200.4000000000000057
 20
38.7280000000000086
 30
0.0
 11
200.4000000000000057
 21
39.2720000000000127
 31
0.0
  0
LINE
  5
1A3A
  8
0
 10
197.1999999999999886
 20
38.7280000000000086
 30
0.0
 11
197.1999999999999886
 21
39.2720000000000127
 31
0.0
  0
LINE
  5
1A3B
  8
0
 10
198.0
 20
38.7280000000000086
 30
0.0
 11
198.0
 21
39.2720000000000127
 31
0.0
  0
LINE
  5
1A3C
  8
0
 10
196.4000000000000057
 20
38.7280000000000086
 30
0.0
 11
196.4000000000000057
 21
39.2720000000000127
 31
0.0
  0
LINE
  5
1A3D
  8
0
 10
202.0
 20
35.7781321331000228
 30
0.0
 11
202.0
 21
36.0720000000000098
 31
0.0
  0
LINE
  5
1A3E
  8
0
 10
203.328000000000003
 20
38.2000000000000028
 30
0.0
 11
203.5999999999999943
 21
38.4720000000000084
 31
0.0
  0
LINE
  5
1A3F
  8
0
 10
203.5999999999999943
 20
37.9280000000000115
 30
0.0
 11
203.5999999999999943
 21
38.4720000000000084
 31
0.0
  0
LINE
  5
1A40
  8
0
 10
203.5999999999999943
 20
37.9280000000000115
 30
0.0
 11
203.328000000000003
 21
38.2000000000000028
 31
0.0
  0
LINE
  5
1A41
  8
0
 10
202.8000000000000114
 20
38.4720000000000084
 30
0.0
 11
203.0720000000000027
 21
38.2000000000000028
 31
0.0
  0
LINE
  5
1A42
  8
0
 10
203.0720000000000027
 20
38.2000000000000028
 30
0.0
 11
202.8000000000000114
 21
37.9280000000000115
 31
0.0
  0
LINE
  5
1A43
  8
0
 10
202.8000000000000114
 20
37.9280000000000115
 30
0.0
 11
202.8000000000000114
 21
38.4720000000000084
 31
0.0
  0
LINE
  5
1A44
  8
0
 10
196.671999999999997
 20
38.2000000000000028
 30
0.0
 11
196.9279999999999973
 21
38.2000000000000028
 31
0.0
  0
LINE
  5
1A45
  8
0
 10
197.1999999999999886
 20
37.9280000000000115
 30
0.0
 11
196.9279999999999973
 21
38.2000000000000028
 31
0.0
  0
LINE
  5
1A46
  8
0
 10
197.4719999999998947
 20
38.2000000000000028
 30
0.0
 11
197.1999999999999886
 21
37.9280000000000115
 31
0.0
  0
LINE
  5
1A47
  8
0
 10
197.4719999999998947
 20
38.2000000000000028
 30
0.0
 11
197.7280000000000086
 21
38.2000000000000028
 31
0.0
  0
LINE
  5
1A48
  8
0
 10
198.0
 20
37.9280000000000115
 30
0.0
 11
197.7280000000000086
 21
38.2000000000000028
 31
0.0
  0
LINE
  5
1A49
  8
0
 10
198.2719999999999914
 20
38.2000000000000028
 30
0.0
 11
198.0
 21
37.9280000000000115
 31
0.0
  0
LINE
  5
1A4A
  8
0
 10
198.2719999999999914
 20
38.2000000000000028
 30
0.0
 11
198.5279999999999063
 21
38.2000000000000028
 31
0.0
  0
LINE
  5
1A4B
  8
0
 10
198.8000000000000114
 20
37.9280000000000115
 30
0.0
 11
198.5279999999999063
 21
38.2000000000000028
 31
0.0
  0
LINE
  5
1A4C
  8
0
 10
199.0720000000000027
 20
38.2000000000000028
 30
0.0
 11
198.8000000000000114
 21
37.9280000000000115
 31
0.0
  0
LINE
  5
1A4D
  8
0
 10
199.0720000000000027
 20
38.2000000000000028
 30
0.0
 11
199.328000000000003
 21
38.2000000000000028
 31
0.0
  0
LINE
  5
1A4E
  8
0
 10
199.5999999999999943
 20
37.9280000000000115
 30
0.0
 11
199.328000000000003
 21
38.2000000000000028
 31
0.0
  0
LINE
  5
1A4F
  8
0
 10
199.8720000000000141
 20
38.2000000000000028
 30
0.0
 11
199.5999999999999943
 21
37.9280000000000115
 31
0.0
  0
LINE
  5
1A50
  8
0
 10
199.8720000000000141
 20
38.2000000000000028
 30
0.0
 11
200.1279999999999859
 21
38.2000000000000028
 31
0.0
  0
LINE
  5
1A51
  8
0
 10
200.4000000000000057
 20
37.9280000000000115
 30
0.0
 11
200.1279999999999859
 21
38.2000000000000028
 31
0.0
  0
LINE
  5
1A52
  8
0
 10
200.671999999999997
 20
38.2000000000000028
 30
0.0
 11
200.4000000000000057
 21
37.9280000000000115
 31
0.0
  0
LINE
  5
1A53
  8
0
 10
200.671999999999997
 20
38.2000000000000028
 30
0.0
 11
200.9279999999999973
 21
38.2000000000000028
 31
0.0
  0
LINE
  5
1A54
  8
0
 10
201.1999999999999886
 20
37.9280000000000115
 30
0.0
 11
200.9279999999999973
 21
38.2000000000000028
 31
0.0
  0
LINE
  5
1A55
  8
0
 10
201.4720000000000084
 20
38.2000000000000028
 30
0.0
 11
201.1999999999999886
 21
37.9280000000000115
 31
0.0
  0
LINE
  5
1A56
  8
0
 10
201.4720000000000084
 20
38.2000000000000028
 30
0.0
 11
201.7280000000000086
 21
38.2000000000000028
 31
0.0
  0
LINE
  5
1A57
  8
0
 10
202.0
 20
37.9280000000000115
 30
0.0
 11
201.7280000000000086
 21
38.2000000000000028
 31
0.0
  0
LINE
  5
1A58
  8
0
 10
202.2719999999999914
 20
38.2000000000000028
 30
0.0
 11
202.0
 21
37.9280000000000115
 31
0.0
  0
LINE
  5
1A59
  8
0
 10
202.2719999999999914
 20
38.2000000000000028
 30
0.0
 11
202.5279999999999063
 21
38.2000000000000028
 31
0.0
  0
LINE
  5
1A5A
  8
0
 10
202.8000000000000114
 20
37.9280000000000115
 30
0.0
 11
202.5279999999999063
 21
38.2000000000000028
 31
0.0
  0
LINE
  5
1A5B
  8
0
 10
203.0720000000000027
 20
38.2000000000000028
 30
0.0
 11
203.328000000000003
 21
38.2000000000000028
 31
0.0
  0
LINE
  5
1A5C
  8
0
 10
203.6272603568000079
 20
37.9552603568000819
 30
0.0
 11
203.5999999999999943
 21
37.9280000000000115
 31
0.0
  0
LINE
  5
1A5D
  8
0
 10
196.4000000000000057
 20
37.9280000000000115
 30
0.0
 11
196.3727396431999068
 21
37.9552603568000535
 31
0.0
  0
LINE
  5
1A5E
  8
0
 10
196.671999999999997
 20
38.2000000000000028
 30
0.0
 11
196.4000000000000057
 21
37.9280000000000115
 31
0.0
  0
LINE
  5
1A5F
  8
0
 10
203.5999999999999943
 20
38.4720000000000084
 30
0.0
 11
203.6854677229999879
 21
38.3865322770000219
 31
0.0
  0
LINE
  5
1A60
  8
0
 10
202.5279999999999063
 20
38.2000000000000028
 30
0.0
 11
202.8000000000000114
 21
38.4720000000000084
 31
0.0
  0
LINE
  5
1A61
  8
0
 10
202.0
 20
38.4720000000000084
 30
0.0
 11
202.2719999999999914
 21
38.2000000000000028
 31
0.0
  0
LINE
  5
1A62
  8
0
 10
201.7280000000000086
 20
38.2000000000000028
 30
0.0
 11
202.0
 21
38.4720000000000084
 31
0.0
  0
LINE
  5
1A63
  8
0
 10
201.1999999999999886
 20
38.4720000000000084
 30
0.0
 11
201.4720000000000084
 21
38.2000000000000028
 31
0.0
  0
LINE
  5
1A64
  8
0
 10
200.9279999999999973
 20
38.2000000000000028
 30
0.0
 11
201.1999999999999886
 21
38.4720000000000084
 31
0.0
  0
LINE
  5
1A65
  8
0
 10
200.4000000000000057
 20
38.4720000000000084
 30
0.0
 11
200.671999999999997
 21
38.2000000000000028
 31
0.0
  0
LINE
  5
1A66
  8
0
 10
200.1279999999999859
 20
38.2000000000000028
 30
0.0
 11
200.4000000000000057
 21
38.4720000000000084
 31
0.0
  0
LINE
  5
1A67
  8
0
 10
199.5999999999999943
 20
38.4720000000000084
 30
0.0
 11
199.8720000000000141
 21
38.2000000000000028
 31
0.0
  0
LINE
  5
1A68
  8
0
 10
199.328000000000003
 20
38.2000000000000028
 30
0.0
 11
199.5999999999999943
 21
38.4720000000000084
 31
0.0
  0
LINE
  5
1A69
  8
0
 10
198.8000000000000114
 20
38.4720000000000084
 30
0.0
 11
199.0720000000000027
 21
38.2000000000000028
 31
0.0
  0
LINE
  5
1A6A
  8
0
 10
198.5279999999999063
 20
38.2000000000000028
 30
0.0
 11
198.8000000000000114
 21
38.4720000000000084
 31
0.0
  0
LINE
  5
1A6B
  8
0
 10
198.0
 20
38.4720000000000084
 30
0.0
 11
198.2719999999999914
 21
38.2000000000000028
 31
0.0
  0
LINE
  5
1A6C
  8
0
 10
197.7280000000000086
 20
38.2000000000000028
 30
0.0
 11
198.0
 21
38.4720000000000084
 31
0.0
  0
LINE
  5
1A6D
  8
0
 10
197.1999999999999886
 20
38.4720000000000084
 30
0.0
 11
197.4719999999998947
 21
38.2000000000000028
 31
0.0
  0
LINE
  5
1A6E
  8
0
 10
196.9279999999999973
 20
38.2000000000000028
 30
0.0
 11
197.1999999999999886
 21
38.4720000000000084
 31
0.0
  0
LINE
  5
1A6F
  8
0
 10
196.4000000000000057
 20
38.4720000000000084
 30
0.0
 11
196.671999999999997
 21
38.2000000000000028
 31
0.0
  0
LINE
  5
1A70
  8
0
 10
196.3145322769462098
 20
38.3865322769461628
 30
0.0
 11
196.4000000000000057
 21
38.4720000000000084
 31
0.0
  0
LINE
  5
1A71
  8
0
 10
202.0
 20
37.9280000000000115
 30
0.0
 11
202.0
 21
38.4720000000000084
 31
0.0
  0
LINE
  5
1A72
  8
0
 10
201.1999999999999886
 20
37.9280000000000115
 30
0.0
 11
201.1999999999999886
 21
38.4720000000000084
 31
0.0
  0
LINE
  5
1A73
  8
0
 10
198.8000000000000114
 20
37.9280000000000115
 30
0.0
 11
198.8000000000000114
 21
38.4720000000000084
 31
0.0
  0
LINE
  5
1A74
  8
0
 10
199.5999999999999943
 20
37.9280000000000115
 30
0.0
 11
199.5999999999999943
 21
38.4720000000000084
 31
0.0
  0
LINE
  5
1A75
  8
0
 10
200.4000000000000057
 20
37.9280000000000115
 30
0.0
 11
200.4000000000000057
 21
38.4720000000000084
 31
0.0
  0
LINE
  5
1A76
  8
0
 10
197.1999999999999886
 20
37.9280000000000115
 30
0.0
 11
197.1999999999999886
 21
38.4720000000000084
 31
0.0
  0
LINE
  5
1A77
  8
0
 10
198.0
 20
37.9280000000000115
 30
0.0
 11
198.0
 21
38.4720000000000084
 31
0.0
  0
LINE
  5
1A78
  8
0
 10
196.4000000000000057
 20
37.9280000000000115
 30
0.0
 11
196.4000000000000057
 21
38.4720000000000084
 31
0.0
  0
LINE
  5
1A79
  8
0
 10
203.328000000000003
 20
39.8000000000000114
 30
0.0
 11
203.5999999999999943
 21
40.0720000000000098
 31
0.0
  0
LINE
  5
1A7A
  8
0
 10
203.5999999999999943
 20
39.52800000000002
 30
0.0
 11
203.5999999999999943
 21
40.0720000000000098
 31
0.0
  0
LINE
  5
1A7B
  8
0
 10
203.5999999999999943
 20
39.52800000000002
 30
0.0
 11
203.328000000000003
 21
39.8000000000000114
 31
0.0
  0
LINE
  5
1A7C
  8
0
 10
202.8000000000000114
 20
40.0720000000000098
 30
0.0
 11
203.0720000000000027
 21
39.8000000000000114
 31
0.0
  0
LINE
  5
1A7D
  8
0
 10
203.0720000000000027
 20
39.8000000000000114
 30
0.0
 11
202.8000000000000114
 21
39.52800000000002
 31
0.0
  0
LINE
  5
1A7E
  8
0
 10
202.8000000000000114
 20
39.52800000000002
 30
0.0
 11
202.8000000000000114
 21
40.0720000000000098
 31
0.0
  0
LINE
  5
1A7F
  8
0
 10
196.671999999999997
 20
39.8000000000000114
 30
0.0
 11
196.9279999999999973
 21
39.8000000000000114
 31
0.0
  0
LINE
  5
1A80
  8
0
 10
197.1999999999999886
 20
39.52800000000002
 30
0.0
 11
196.9279999999999973
 21
39.8000000000000114
 31
0.0
  0
LINE
  5
1A81
  8
0
 10
197.4719999999998947
 20
39.8000000000000114
 30
0.0
 11
197.1999999999999886
 21
39.52800000000002
 31
0.0
  0
LINE
  5
1A82
  8
0
 10
197.4719999999998947
 20
39.8000000000000114
 30
0.0
 11
197.7280000000000086
 21
39.8000000000000114
 31
0.0
  0
LINE
  5
1A83
  8
0
 10
198.0
 20
39.52800000000002
 30
0.0
 11
197.7280000000000086
 21
39.8000000000000114
 31
0.0
  0
LINE
  5
1A84
  8
0
 10
198.2719999999999914
 20
39.8000000000000114
 30
0.0
 11
198.0
 21
39.52800000000002
 31
0.0
  0
LINE
  5
1A85
  8
0
 10
198.2719999999999914
 20
39.8000000000000114
 30
0.0
 11
198.5279999999999063
 21
39.8000000000000114
 31
0.0
  0
LINE
  5
1A86
  8
0
 10
198.8000000000000114
 20
39.52800000000002
 30
0.0
 11
198.5279999999999063
 21
39.8000000000000114
 31
0.0
  0
LINE
  5
1A87
  8
0
 10
199.0720000000000027
 20
39.8000000000000114
 30
0.0
 11
198.8000000000000114
 21
39.52800000000002
 31
0.0
  0
LINE
  5
1A88
  8
0
 10
199.0720000000000027
 20
39.8000000000000114
 30
0.0
 11
199.328000000000003
 21
39.8000000000000114
 31
0.0
  0
LINE
  5
1A89
  8
0
 10
199.5999999999999943
 20
39.52800000000002
 30
0.0
 11
199.328000000000003
 21
39.8000000000000114
 31
0.0
  0
LINE
  5
1A8A
  8
0
 10
199.8720000000000141
 20
39.8000000000000114
 30
0.0
 11
199.5999999999999943
 21
39.52800000000002
 31
0.0
  0
LINE
  5
1A8B
  8
0
 10
199.8720000000000141
 20
39.8000000000000114
 30
0.0
 11
200.1279999999999859
 21
39.8000000000000114
 31
0.0
  0
LINE
  5
1A8C
  8
0
 10
200.4000000000000057
 20
39.52800000000002
 30
0.0
 11
200.1279999999999859
 21
39.8000000000000114
 31
0.0
  0
LINE
  5
1A8D
  8
0
 10
200.671999999999997
 20
39.8000000000000114
 30
0.0
 11
200.4000000000000057
 21
39.52800000000002
 31
0.0
  0
LINE
  5
1A8E
  8
0
 10
200.671999999999997
 20
39.8000000000000114
 30
0.0
 11
200.9279999999999973
 21
39.8000000000000114
 31
0.0
  0
LINE
  5
1A8F
  8
0
 10
201.1999999999999886
 20
39.52800000000002
 30
0.0
 11
200.9279999999999973
 21
39.8000000000000114
 31
0.0
  0
LINE
  5
1A90
  8
0
 10
201.4720000000000084
 20
39.8000000000000114
 30
0.0
 11
201.1999999999999886
 21
39.52800000000002
 31
0.0
  0
LINE
  5
1A91
  8
0
 10
201.4720000000000084
 20
39.8000000000000114
 30
0.0
 11
201.7280000000000086
 21
39.8000000000000114
 31
0.0
  0
LINE
  5
1A92
  8
0
 10
202.0
 20
39.52800000000002
 30
0.0
 11
201.7280000000000086
 21
39.8000000000000114
 31
0.0
  0
LINE
  5
1A93
  8
0
 10
202.2719999999999914
 20
39.8000000000000114
 30
0.0
 11
202.0
 21
39.52800000000002
 31
0.0
  0
LINE
  5
1A94
  8
0
 10
202.2719999999999914
 20
39.8000000000000114
 30
0.0
 11
202.5279999999999063
 21
39.8000000000000114
 31
0.0
  0
LINE
  5
1A95
  8
0
 10
202.8000000000000114
 20
39.52800000000002
 30
0.0
 11
202.5279999999999063
 21
39.8000000000000114
 31
0.0
  0
LINE
  5
1A96
  8
0
 10
203.0720000000000027
 20
39.8000000000000114
 30
0.0
 11
203.328000000000003
 21
39.8000000000000114
 31
0.0
  0
LINE
  5
1A97
  8
0
 10
203.6854677230460879
 20
39.6134677230461207
 30
0.0
 11
203.5999999999999943
 21
39.52800000000002
 31
0.0
  0
LINE
  5
1A98
  8
0
 10
196.4000000000000057
 20
39.52800000000002
 30
0.0
 11
196.3145322768999108
 21
39.6134677230999799
 31
0.0
  0
LINE
  5
1A99
  8
0
 10
196.671999999999997
 20
39.8000000000000114
 30
0.0
 11
196.4000000000000057
 21
39.52800000000002
 31
0.0
  0
LINE
  5
1A9A
  8
0
 10
203.5999999999999943
 20
40.0720000000000098
 30
0.0
 11
203.6272603568000079
 21
40.0447396432000104
 31
0.0
  0
LINE
  5
1A9B
  8
0
 10
202.5279999999999063
 20
39.8000000000000114
 30
0.0
 11
202.8000000000000114
 21
40.0720000000000098
 31
0.0
  0
LINE
  5
1A9C
  8
0
 10
202.0
 20
40.0720000000000098
 30
0.0
 11
202.2719999999999914
 21
39.8000000000000114
 31
0.0
  0
LINE
  5
1A9D
  8
0
 10
201.7280000000000086
 20
39.8000000000000114
 30
0.0
 11
202.0
 21
40.0720000000000098
 31
0.0
  0
LINE
  5
1A9E
  8
0
 10
201.1999999999999886
 20
40.0720000000000098
 30
0.0
 11
201.4720000000000084
 21
39.8000000000000114
 31
0.0
  0
LINE
  5
1A9F
  8
0
 10
200.9279999999999973
 20
39.8000000000000114
 30
0.0
 11
201.1999999999999886
 21
40.0720000000000098
 31
0.0
  0
LINE
  5
1AA0
  8
0
 10
200.4000000000000057
 20
40.0720000000000098
 30
0.0
 11
200.671999999999997
 21
39.8000000000000114
 31
0.0
  0
LINE
  5
1AA1
  8
0
 10
200.1279999999999859
 20
39.8000000000000114
 30
0.0
 11
200.4000000000000057
 21
40.0720000000000098
 31
0.0
  0
LINE
  5
1AA2
  8
0
 10
199.5999999999999943
 20
40.0720000000000098
 30
0.0
 11
199.8720000000000141
 21
39.8000000000000114
 31
0.0
  0
LINE
  5
1AA3
  8
0
 10
199.328000000000003
 20
39.8000000000000114
 30
0.0
 11
199.5999999999999943
 21
40.0720000000000098
 31
0.0
  0
LINE
  5
1AA4
  8
0
 10
198.8000000000000114
 20
40.0720000000000098
 30
0.0
 11
199.0720000000000027
 21
39.8000000000000114
 31
0.0
  0
LINE
  5
1AA5
  8
0
 10
198.5279999999999063
 20
39.8000000000000114
 30
0.0
 11
198.8000000000000114
 21
40.0720000000000098
 31
0.0
  0
LINE
  5
1AA6
  8
0
 10
198.0
 20
40.0720000000000098
 30
0.0
 11
198.2719999999999914
 21
39.8000000000000114
 31
0.0
  0
LINE
  5
1AA7
  8
0
 10
197.7280000000000086
 20
39.8000000000000114
 30
0.0
 11
198.0
 21
40.0720000000000098
 31
0.0
  0
LINE
  5
1AA8
  8
0
 10
197.1999999999999886
 20
40.0720000000000098
 30
0.0
 11
197.4719999999998947
 21
39.8000000000000114
 31
0.0
  0
LINE
  5
1AA9
  8
0
 10
196.9279999999999973
 20
39.8000000000000114
 30
0.0
 11
197.1999999999999886
 21
40.0720000000000098
 31
0.0
  0
LINE
  5
1AAA
  8
0
 10
196.4000000000000057
 20
40.0720000000000098
 30
0.0
 11
196.671999999999997
 21
39.8000000000000114
 31
0.0
  0
LINE
  5
1AAB
  8
0
 10
196.3727396431999068
 20
40.0447396431999678
 30
0.0
 11
196.4000000000000057
 21
40.0720000000000098
 31
0.0
  0
LINE
  5
1AAC
  8
0
 10
202.0
 20
39.52800000000002
 30
0.0
 11
202.0
 21
40.0720000000000098
 31
0.0
  0
LINE
  5
1AAD
  8
0
 10
201.1999999999999886
 20
39.52800000000002
 30
0.0
 11
201.1999999999999886
 21
40.0720000000000098
 31
0.0
  0
LINE
  5
1AAE
  8
0
 10
198.8000000000000114
 20
39.52800000000002
 30
0.0
 11
198.8000000000000114
 21
40.0720000000000098
 31
0.0
  0
LINE
  5
1AAF
  8
0
 10
199.5999999999999943
 20
39.52800000000002
 30
0.0
 11
199.5999999999999943
 21
40.0720000000000098
 31
0.0
  0
LINE
  5
1AB0
  8
0
 10
200.4000000000000057
 20
39.52800000000002
 30
0.0
 11
200.4000000000000057
 21
40.0720000000000098
 31
0.0
  0
LINE
  5
1AB1
  8
0
 10
197.1999999999999886
 20
39.52800000000002
 30
0.0
 11
197.1999999999999886
 21
40.0720000000000098
 31
0.0
  0
LINE
  5
1AB2
  8
0
 10
198.0
 20
39.52800000000002
 30
0.0
 11
198.0
 21
40.0720000000000098
 31
0.0
  0
LINE
  5
1AB3
  8
0
 10
196.4000000000000057
 20
39.52800000000002
 30
0.0
 11
196.4000000000000057
 21
40.0720000000000098
 31
0.0
  0
LINE
  5
1AB4
  8
0
 10
202.8000000000000114
 20
40.872000000000007
 30
0.0
 11
203.0720000000000027
 21
40.6000000000000085
 31
0.0
  0
LINE
  5
1AB5
  8
0
 10
203.0720000000000027
 20
40.6000000000000085
 30
0.0
 11
202.8000000000000114
 21
40.3280000000000101
 31
0.0
  0
LINE
  5
1AB6
  8
0
 10
202.8000000000000114
 20
40.3280000000000101
 30
0.0
 11
202.8000000000000114
 21
40.872000000000007
 31
0.0
  0
LINE
  5
1AB7
  8
0
 10
196.7750969006999924
 20
40.6000000000000014
 30
0.0
 11
196.9279999999999973
 21
40.6000000000000085
 31
0.0
  0
LINE
  5
1AB8
  8
0
 10
197.1999999999999886
 20
40.3280000000000101
 30
0.0
 11
196.9279999999999973
 21
40.6000000000000085
 31
0.0
  0
LINE
  5
1AB9
  8
0
 10
197.4719999999998947
 20
40.6000000000000085
 30
0.0
 11
197.1999999999999886
 21
40.3280000000000101
 31
0.0
  0
LINE
  5
1ABA
  8
0
 10
197.4719999999998947
 20
40.6000000000000085
 30
0.0
 11
197.7280000000000086
 21
40.6000000000000085
 31
0.0
  0
LINE
  5
1ABB
  8
0
 10
198.0
 20
40.3280000000000101
 30
0.0
 11
197.7280000000000086
 21
40.6000000000000085
 31
0.0
  0
LINE
  5
1ABC
  8
0
 10
198.2719999999999914
 20
40.6000000000000085
 30
0.0
 11
198.0
 21
40.3280000000000101
 31
0.0
  0
LINE
  5
1ABD
  8
0
 10
198.2719999999999914
 20
40.6000000000000085
 30
0.0
 11
198.5279999999999063
 21
40.6000000000000085
 31
0.0
  0
LINE
  5
1ABE
  8
0
 10
198.8000000000000114
 20
40.3280000000000101
 30
0.0
 11
198.5279999999999063
 21
40.6000000000000085
 31
0.0
  0
LINE
  5
1ABF
  8
0
 10
199.0720000000000027
 20
40.6000000000000085
 30
0.0
 11
198.8000000000000114
 21
40.3280000000000101
 31
0.0
  0
LINE
  5
1AC0
  8
0
 10
199.0720000000000027
 20
40.6000000000000085
 30
0.0
 11
199.328000000000003
 21
40.6000000000000085
 31
0.0
  0
LINE
  5
1AC1
  8
0
 10
199.5999999999999943
 20
40.3280000000000101
 30
0.0
 11
199.328000000000003
 21
40.6000000000000085
 31
0.0
  0
LINE
  5
1AC2
  8
0
 10
199.8720000000000141
 20
40.6000000000000085
 30
0.0
 11
199.5999999999999943
 21
40.3280000000000101
 31
0.0
  0
LINE
  5
1AC3
  8
0
 10
199.8720000000000141
 20
40.6000000000000085
 30
0.0
 11
200.1279999999999859
 21
40.6000000000000085
 31
0.0
  0
LINE
  5
1AC4
  8
0
 10
200.4000000000000057
 20
40.3280000000000101
 30
0.0
 11
200.1279999999999859
 21
40.6000000000000085
 31
0.0
  0
LINE
  5
1AC5
  8
0
 10
200.671999999999997
 20
40.6000000000000085
 30
0.0
 11
200.4000000000000057
 21
40.3280000000000101
 31
0.0
  0
LINE
  5
1AC6
  8
0
 10
200.671999999999997
 20
40.6000000000000085
 30
0.0
 11
200.9279999999999973
 21
40.6000000000000085
 31
0.0
  0
LINE
  5
1AC7
  8
0
 10
201.1999999999999886
 20
40.3280000000000101
 30
0.0
 11
200.9279999999999973
 21
40.6000000000000085
 31
0.0
  0
LINE
  5
1AC8
  8
0
 10
201.4720000000000084
 20
40.6000000000000085
 30
0.0
 11
201.1999999999999886
 21
40.3280000000000101
 31
0.0
  0
LINE
  5
1AC9
  8
0
 10
201.4720000000000084
 20
40.6000000000000085
 30
0.0
 11
201.7280000000000086
 21
40.6000000000000085
 31
0.0
  0
LINE
  5
1ACA
  8
0
 10
202.0
 20
40.3280000000000101
 30
0.0
 11
201.7280000000000086
 21
40.6000000000000085
 31
0.0
  0
LINE
  5
1ACB
  8
0
 10
202.2719999999999914
 20
40.6000000000000085
 30
0.0
 11
202.0
 21
40.3280000000000101
 31
0.0
  0
LINE
  5
1ACC
  8
0
 10
202.2719999999999914
 20
40.6000000000000085
 30
0.0
 11
202.5279999999999063
 21
40.6000000000000085
 31
0.0
  0
LINE
  5
1ACD
  8
0
 10
202.8000000000000114
 20
40.3280000000000101
 30
0.0
 11
202.5279999999999063
 21
40.6000000000000085
 31
0.0
  0
LINE
  5
1ACE
  8
0
 10
203.0720000000000027
 20
40.6000000000000085
 30
0.0
 11
203.2249030993000076
 21
40.6000000000000014
 31
0.0
  0
LINE
  5
1ACF
  8
0
 10
202.5279999999999063
 20
40.6000000000000085
 30
0.0
 11
202.8000000000000114
 21
40.872000000000007
 31
0.0
  0
LINE
  5
1AD0
  8
0
 10
202.0
 20
40.872000000000007
 30
0.0
 11
202.2719999999999914
 21
40.6000000000000085
 31
0.0
  0
LINE
  5
1AD1
  8
0
 10
201.7280000000000086
 20
40.6000000000000085
 30
0.0
 11
202.0
 21
40.872000000000007
 31
0.0
  0
LINE
  5
1AD2
  8
0
 10
201.1999999999999886
 20
40.872000000000007
 30
0.0
 11
201.4720000000000084
 21
40.6000000000000085
 31
0.0
  0
LINE
  5
1AD3
  8
0
 10
200.9279999999999973
 20
40.6000000000000085
 30
0.0
 11
201.1999999999999886
 21
40.872000000000007
 31
0.0
  0
LINE
  5
1AD4
  8
0
 10
200.4000000000000057
 20
40.872000000000007
 30
0.0
 11
200.671999999999997
 21
40.6000000000000085
 31
0.0
  0
LINE
  5
1AD5
  8
0
 10
200.1279999999999859
 20
40.6000000000000085
 30
0.0
 11
200.4000000000000057
 21
40.872000000000007
 31
0.0
  0
LINE
  5
1AD6
  8
0
 10
199.5999999999999943
 20
40.872000000000007
 30
0.0
 11
199.8720000000000141
 21
40.6000000000000085
 31
0.0
  0
LINE
  5
1AD7
  8
0
 10
199.328000000000003
 20
40.6000000000000085
 30
0.0
 11
199.5999999999999943
 21
40.872000000000007
 31
0.0
  0
LINE
  5
1AD8
  8
0
 10
198.8000000000000114
 20
40.872000000000007
 30
0.0
 11
199.0720000000000027
 21
40.6000000000000085
 31
0.0
  0
LINE
  5
1AD9
  8
0
 10
198.5279999999999063
 20
40.6000000000000085
 30
0.0
 11
198.8000000000000114
 21
40.872000000000007
 31
0.0
  0
LINE
  5
1ADA
  8
0
 10
198.0
 20
40.872000000000007
 30
0.0
 11
198.2719999999999914
 21
40.6000000000000085
 31
0.0
  0
LINE
  5
1ADB
  8
0
 10
197.7280000000000086
 20
40.6000000000000085
 30
0.0
 11
198.0
 21
40.872000000000007
 31
0.0
  0
LINE
  5
1ADC
  8
0
 10
197.1999999999999886
 20
40.872000000000007
 30
0.0
 11
197.4719999999998947
 21
40.6000000000000085
 31
0.0
  0
LINE
  5
1ADD
  8
0
 10
196.9279999999999973
 20
40.6000000000000085
 30
0.0
 11
197.1999999999999886
 21
40.872000000000007
 31
0.0
  0
LINE
  5
1ADE
  8
0
 10
202.0
 20
40.3280000000000101
 30
0.0
 11
202.0
 21
40.872000000000007
 31
0.0
  0
LINE
  5
1ADF
  8
0
 10
201.1999999999999886
 20
40.3280000000000101
 30
0.0
 11
201.1999999999999886
 21
40.872000000000007
 31
0.0
  0
LINE
  5
1AE0
  8
0
 10
198.8000000000000114
 20
40.3280000000000101
 30
0.0
 11
198.8000000000000114
 21
40.872000000000007
 31
0.0
  0
LINE
  5
1AE1
  8
0
 10
199.5999999999999943
 20
40.3280000000000101
 30
0.0
 11
199.5999999999999943
 21
40.872000000000007
 31
0.0
  0
LINE
  5
1AE2
  8
0
 10
200.4000000000000057
 20
40.3280000000000101
 30
0.0
 11
200.4000000000000057
 21
40.872000000000007
 31
0.0
  0
LINE
  5
1AE3
  8
0
 10
197.1999999999999886
 20
40.3280000000000101
 30
0.0
 11
197.1999999999999886
 21
40.872000000000007
 31
0.0
  0
LINE
  5
1AE4
  8
0
 10
198.0
 20
40.3280000000000101
 30
0.0
 11
198.0
 21
40.872000000000007
 31
0.0
  0
LINE
  5
1AE5
  8
0
 10
202.9330101756625027
 20
41.261010175662463
 30
0.0
 11
202.8000000000000114
 21
41.1280000000000072
 31
0.0
  0
LINE
  5
1AE6
  8
0
 10
202.8000000000000114
 20
41.1280000000000072
 30
0.0
 11
202.8000000000000114
 21
41.5574269397000293
 31
0.0
  0
LINE
  5
1AE7
  8
0
 10
197.1999999999999886
 20
41.1280000000000072
 30
0.0
 11
197.0669898242998954
 21
41.2610101756999725
 31
0.0
  0
LINE
  5
1AE8
  8
0
 10
197.4719999999998947
 20
41.3999999999999986
 30
0.0
 11
197.1999999999999886
 21
41.1280000000000072
 31
0.0
  0
LINE
  5
1AE9
  8
0
 10
197.4719999999998947
 20
41.3999999999999986
 30
0.0
 11
197.7280000000000086
 21
41.3999999999999986
 31
0.0
  0
LINE
  5
1AEA
  8
0
 10
198.0
 20
41.1280000000000072
 30
0.0
 11
197.7280000000000086
 21
41.3999999999999986
 31
0.0
  0
LINE
  5
1AEB
  8
0
 10
198.2719999999999914
 20
41.3999999999999986
 30
0.0
 11
198.0
 21
41.1280000000000072
 31
0.0
  0
LINE
  5
1AEC
  8
0
 10
198.2719999999999914
 20
41.3999999999999986
 30
0.0
 11
198.5279999999999063
 21
41.3999999999999986
 31
0.0
  0
LINE
  5
1AED
  8
0
 10
198.8000000000000114
 20
41.1280000000000072
 30
0.0
 11
198.5279999999999063
 21
41.3999999999999986
 31
0.0
  0
LINE
  5
1AEE
  8
0
 10
199.0720000000000027
 20
41.3999999999999986
 30
0.0
 11
198.8000000000000114
 21
41.1280000000000072
 31
0.0
  0
LINE
  5
1AEF
  8
0
 10
199.0720000000000027
 20
41.3999999999999986
 30
0.0
 11
199.328000000000003
 21
41.3999999999999986
 31
0.0
  0
LINE
  5
1AF0
  8
0
 10
199.5999999999999943
 20
41.1280000000000072
 30
0.0
 11
199.328000000000003
 21
41.3999999999999986
 31
0.0
  0
LINE
  5
1AF1
  8
0
 10
199.8720000000000141
 20
41.3999999999999986
 30
0.0
 11
199.5999999999999943
 21
41.1280000000000072
 31
0.0
  0
LINE
  5
1AF2
  8
0
 10
199.8720000000000141
 20
41.3999999999999986
 30
0.0
 11
200.1279999999999859
 21
41.3999999999999986
 31
0.0
  0
LINE
  5
1AF3
  8
0
 10
200.4000000000000057
 20
41.1280000000000072
 30
0.0
 11
200.1279999999999859
 21
41.3999999999999986
 31
0.0
  0
LINE
  5
1AF4
  8
0
 10
200.671999999999997
 20
41.3999999999999986
 30
0.0
 11
200.4000000000000057
 21
41.1280000000000072
 31
0.0
  0
LINE
  5
1AF5
  8
0
 10
200.671999999999997
 20
41.3999999999999986
 30
0.0
 11
200.9279999999999973
 21
41.3999999999999986
 31
0.0
  0
LINE
  5
1AF6
  8
0
 10
201.1999999999999886
 20
41.1280000000000072
 30
0.0
 11
200.9279999999999973
 21
41.3999999999999986
 31
0.0
  0
LINE
  5
1AF7
  8
0
 10
201.4720000000000084
 20
41.3999999999999986
 30
0.0
 11
201.1999999999999886
 21
41.1280000000000072
 31
0.0
  0
LINE
  5
1AF8
  8
0
 10
201.4720000000000084
 20
41.3999999999999986
 30
0.0
 11
201.7280000000000086
 21
41.3999999999999986
 31
0.0
  0
LINE
  5
1AF9
  8
0
 10
202.0
 20
41.1280000000000072
 30
0.0
 11
201.7280000000000086
 21
41.3999999999999986
 31
0.0
  0
LINE
  5
1AFA
  8
0
 10
202.2719999999999914
 20
41.3999999999999986
 30
0.0
 11
202.0
 21
41.1280000000000072
 31
0.0
  0
LINE
  5
1AFB
  8
0
 10
202.2719999999999914
 20
41.3999999999999986
 30
0.0
 11
202.5279999999999063
 21
41.3999999999999986
 31
0.0
  0
LINE
  5
1AFC
  8
0
 10
202.8000000000000114
 20
41.1280000000000072
 30
0.0
 11
202.5279999999999063
 21
41.3999999999999986
 31
0.0
  0
LINE
  5
1AFD
  8
0
 10
202.5279999999999063
 20
41.3999999999999986
 30
0.0
 11
202.6962975772999016
 21
41.5682975773000081
 31
0.0
  0
LINE
  5
1AFE
  8
0
 10
202.0
 20
41.6720000000000113
 30
0.0
 11
202.2719999999999914
 21
41.3999999999999986
 31
0.0
  0
LINE
  5
1AFF
  8
0
 10
201.7280000000000086
 20
41.3999999999999986
 30
0.0
 11
202.0
 21
41.6720000000000113
 31
0.0
  0
LINE
  5
1B00
  8
0
 10
201.1999999999999886
 20
41.6720000000000113
 30
0.0
 11
201.4720000000000084
 21
41.3999999999999986
 31
0.0
  0
LINE
  5
1B01
  8
0
 10
200.9279999999999973
 20
41.3999999999999986
 30
0.0
 11
201.1999999999999886
 21
41.6720000000000113
 31
0.0
  0
LINE
  5
1B02
  8
0
 10
200.4000000000000057
 20
41.6720000000000113
 30
0.0
 11
200.671999999999997
 21
41.3999999999999986
 31
0.0
  0
LINE
  5
1B03
  8
0
 10
200.1279999999999859
 20
41.3999999999999986
 30
0.0
 11
200.4000000000000057
 21
41.6720000000000113
 31
0.0
  0
LINE
  5
1B04
  8
0
 10
199.5999999999999943
 20
41.6720000000000113
 30
0.0
 11
199.8720000000000141
 21
41.3999999999999986
 31
0.0
  0
LINE
  5
1B05
  8
0
 10
199.328000000000003
 20
41.3999999999999986
 30
0.0
 11
199.5999999999999943
 21
41.6720000000000113
 31
0.0
  0
LINE
  5
1B06
  8
0
 10
198.8000000000000114
 20
41.6720000000000113
 30
0.0
 11
199.0720000000000027
 21
41.3999999999999986
 31
0.0
  0
LINE
  5
1B07
  8
0
 10
198.5279999999999063
 20
41.3999999999999986
 30
0.0
 11
198.8000000000000114
 21
41.6720000000000113
 31
0.0
  0
LINE
  5
1B08
  8
0
 10
198.0
 20
41.6720000000000113
 30
0.0
 11
198.2719999999999914
 21
41.3999999999999986
 31
0.0
  0
LINE
  5
1B09
  8
0
 10
197.7280000000000086
 20
41.3999999999999986
 30
0.0
 11
198.0
 21
41.6720000000000113
 31
0.0
  0
LINE
  5
1B0A
  8
0
 10
197.3037024227000131
 20
41.5682975773000507
 30
0.0
 11
197.4719999999998947
 21
41.3999999999999986
 31
0.0
  0
LINE
  5
1B0B
  8
0
 10
202.0
 20
41.1280000000000072
 30
0.0
 11
202.0
 21
41.6720000000000113
 31
0.0
  0
LINE
  5
1B0C
  8
0
 10
201.1999999999999886
 20
41.1280000000000072
 30
0.0
 11
201.1999999999999886
 21
41.6720000000000113
 31
0.0
  0
LINE
  5
1B0D
  8
0
 10
198.8000000000000114
 20
41.1280000000000072
 30
0.0
 11
198.8000000000000114
 21
41.6720000000000113
 31
0.0
  0
LINE
  5
1B0E
  8
0
 10
199.5999999999999943
 20
41.1280000000000072
 30
0.0
 11
199.5999999999999943
 21
41.6720000000000113
 31
0.0
  0
LINE
  5
1B0F
  8
0
 10
200.4000000000000057
 20
41.1280000000000072
 30
0.0
 11
200.4000000000000057
 21
41.6720000000000113
 31
0.0
  0
LINE
  5
1B10
  8
0
 10
197.1999999999999886
 20
41.1280000000000072
 30
0.0
 11
197.1999999999999034
 21
41.5574269397000933
 31
0.0
  0
LINE
  5
1B11
  8
0
 10
198.0
 20
41.1280000000000072
 30
0.0
 11
198.0
 21
41.6720000000000113
 31
0.0
  0
LINE
  5
1B12
  8
0
 10
198.0
 20
41.9279999999999973
 30
0.0
 11
197.8801568821000103
 21
42.0478431178999799
 31
0.0
  0
LINE
  5
1B13
  8
0
 10
198.2406318519416004
 20
42.1686318519416687
 30
0.0
 11
198.0
 21
41.9279999999999973
 31
0.0
  0
LINE
  5
1B14
  8
0
 10
198.3507577496999943
 20
42.2000000000000028
 30
0.0
 11
198.5279999999999063
 21
42.2000000000000028
 31
0.0
  0
LINE
  5
1B15
  8
0
 10
198.8000000000000114
 20
41.9279999999999973
 30
0.0
 11
198.5279999999999063
 21
42.2000000000000028
 31
0.0
  0
LINE
  5
1B16
  8
0
 10
199.0720000000000027
 20
42.2000000000000028
 30
0.0
 11
198.8000000000000114
 21
41.9279999999999973
 31
0.0
  0
LINE
  5
1B17
  8
0
 10
199.0720000000000027
 20
42.2000000000000028
 30
0.0
 11
199.328000000000003
 21
42.2000000000000028
 31
0.0
  0
LINE
  5
1B18
  8
0
 10
199.5999999999999943
 20
41.9279999999999973
 30
0.0
 11
199.328000000000003
 21
42.2000000000000028
 31
0.0
  0
LINE
  5
1B19
  8
0
 10
199.8720000000000141
 20
42.2000000000000028
 30
0.0
 11
199.5999999999999943
 21
41.9279999999999973
 31
0.0
  0
LINE
  5
1B1A
  8
0
 10
199.8720000000000141
 20
42.2000000000000028
 30
0.0
 11
200.1279999999999859
 21
42.2000000000000028
 31
0.0
  0
LINE
  5
1B1B
  8
0
 10
200.4000000000000057
 20
41.9279999999999973
 30
0.0
 11
200.1279999999999859
 21
42.2000000000000028
 31
0.0
  0
LINE
  5
1B1C
  8
0
 10
200.671999999999997
 20
42.2000000000000028
 30
0.0
 11
200.4000000000000057
 21
41.9279999999999973
 31
0.0
  0
LINE
  5
1B1D
  8
0
 10
200.671999999999997
 20
42.2000000000000028
 30
0.0
 11
200.9279999999999973
 21
42.2000000000000028
 31
0.0
  0
LINE
  5
1B1E
  8
0
 10
201.1999999999999886
 20
41.9279999999999973
 30
0.0
 11
200.9279999999999973
 21
42.2000000000000028
 31
0.0
  0
LINE
  5
1B1F
  8
0
 10
201.4720000000000084
 20
42.2000000000000028
 30
0.0
 11
201.1999999999999886
 21
41.9279999999999973
 31
0.0
  0
LINE
  5
1B20
  8
0
 10
201.4720000000000084
 20
42.2000000000000028
 30
0.0
 11
201.6492422501999897
 21
42.2000000000000028
 31
0.0
  0
LINE
  5
1B21
  8
0
 10
202.0
 20
41.9279999999999973
 30
0.0
 11
201.7593681480998953
 21
42.1686318519000523
 31
0.0
  0
LINE
  5
1B22
  8
0
 10
202.1198431178999897
 20
42.047843117899987
 30
0.0
 11
202.0
 21
41.9279999999999973
 31
0.0
  0
LINE
  5
1B23
  8
0
 10
201.1999999999999886
 20
42.4720000000000084
 30
0.0
 11
201.4720000000000084
 21
42.2000000000000028
 31
0.0
  0
LINE
  5
1B24
  8
0
 10
200.9279999999999973
 20
42.2000000000000028
 30
0.0
 11
201.1999999999999886
 21
42.4720000000000084
 31
0.0
  0
LINE
  5
1B25
  8
0
 10
200.4000000000000057
 20
42.4720000000000084
 30
0.0
 11
200.671999999999997
 21
42.2000000000000028
 31
0.0
  0
LINE
  5
1B26
  8
0
 10
200.1279999999999859
 20
42.2000000000000028
 30
0.0
 11
200.4000000000000057
 21
42.4720000000000084
 31
0.0
  0
LINE
  5
1B27
  8
0
 10
199.5999999999999943
 20
42.4720000000000084
 30
0.0
 11
199.8720000000000141
 21
42.2000000000000028
 31
0.0
  0
LINE
  5
1B28
  8
0
 10
199.328000000000003
 20
42.2000000000000028
 30
0.0
 11
199.5999999999999943
 21
42.4720000000000084
 31
0.0
  0
LINE
  5
1B29
  8
0
 10
198.8000000000000114
 20
42.4720000000000084
 30
0.0
 11
199.0720000000000027
 21
42.2000000000000028
 31
0.0
  0
LINE
  5
1B2A
  8
0
 10
198.5279999999999063
 20
42.2000000000000028
 30
0.0
 11
198.8000000000000114
 21
42.4720000000000084
 31
0.0
  0
LINE
  5
1B2B
  8
0
 10
202.0
 20
41.9279999999999973
 30
0.0
 11
202.0
 21
42.2218678669000127
 31
0.0
  0
LINE
  5
1B2C
  8
0
 10
201.1999999999999886
 20
41.9279999999999973
 30
0.0
 11
201.1999999999999886
 21
42.4720000000000084
 31
0.0
  0
LINE
  5
1B2D
  8
0
 10
198.8000000000000114
 20
41.9279999999999973
 30
0.0
 11
198.8000000000000114
 21
42.4720000000000084
 31
0.0
  0
LINE
  5
1B2E
  8
0
 10
199.5999999999999943
 20
41.9279999999999973
 30
0.0
 11
199.5999999999999943
 21
42.4720000000000084
 31
0.0
  0
LINE
  5
1B2F
  8
0
 10
200.4000000000000057
 20
41.9279999999999973
 30
0.0
 11
200.4000000000000057
 21
42.4720000000000084
 31
0.0
  0
LINE
  5
1B30
  8
0
 10
198.0
 20
41.9279999999999973
 30
0.0
 11
198.0
 21
42.2218678668999985
 31
0.0
  0
LINE
  5
1B31
  8
0
 10
202.8000000000000114
 20
37.6720000000000113
 30
0.0
 11
203.0720000000000027
 21
37.4000000000000128
 31
0.0
  0
LINE
  5
1B32
  8
0
 10
203.0720000000000027
 20
37.4000000000000128
 30
0.0
 11
202.8000000000000114
 21
37.1280000000000072
 31
0.0
  0
LINE
  5
1B33
  8
0
 10
202.8000000000000114
 20
37.1280000000000072
 30
0.0
 11
202.8000000000000114
 21
37.6720000000000113
 31
0.0
  0
LINE
  5
1B34
  8
0
 10
196.7750969006999924
 20
37.4000000000000128
 30
0.0
 11
196.9279999999999973
 21
37.4000000000000128
 31
0.0
  0
LINE
  5
1B35
  8
0
 10
197.1999999999999886
 20
37.1280000000000072
 30
0.0
 11
196.9279999999999973
 21
37.4000000000000128
 31
0.0
  0
LINE
  5
1B36
  8
0
 10
197.4719999999998947
 20
37.4000000000000128
 30
0.0
 11
197.1999999999999886
 21
37.1280000000000072
 31
0.0
  0
LINE
  5
1B37
  8
0
 10
197.4719999999998947
 20
37.4000000000000128
 30
0.0
 11
197.7280000000000086
 21
37.4000000000000128
 31
0.0
  0
LINE
  5
1B38
  8
0
 10
198.0
 20
37.1280000000000072
 30
0.0
 11
197.7280000000000086
 21
37.4000000000000128
 31
0.0
  0
LINE
  5
1B39
  8
0
 10
198.2719999999999914
 20
37.4000000000000128
 30
0.0
 11
198.0
 21
37.1280000000000072
 31
0.0
  0
LINE
  5
1B3A
  8
0
 10
198.2719999999999914
 20
37.4000000000000128
 30
0.0
 11
198.5279999999999063
 21
37.4000000000000128
 31
0.0
  0
LINE
  5
1B3B
  8
0
 10
198.8000000000000114
 20
37.1280000000000072
 30
0.0
 11
198.5279999999999063
 21
37.4000000000000128
 31
0.0
  0
LINE
  5
1B3C
  8
0
 10
199.0720000000000027
 20
37.4000000000000128
 30
0.0
 11
198.8000000000000114
 21
37.1280000000000072
 31
0.0
  0
LINE
  5
1B3D
  8
0
 10
199.0720000000000027
 20
37.4000000000000128
 30
0.0
 11
199.328000000000003
 21
37.4000000000000128
 31
0.0
  0
LINE
  5
1B3E
  8
0
 10
199.5999999999999943
 20
37.1280000000000072
 30
0.0
 11
199.328000000000003
 21
37.4000000000000128
 31
0.0
  0
LINE
  5
1B3F
  8
0
 10
199.8720000000000141
 20
37.4000000000000128
 30
0.0
 11
199.5999999999999943
 21
37.1280000000000072
 31
0.0
  0
LINE
  5
1B40
  8
0
 10
199.8720000000000141
 20
37.4000000000000128
 30
0.0
 11
200.1279999999999859
 21
37.4000000000000128
 31
0.0
  0
LINE
  5
1B41
  8
0
 10
200.4000000000000057
 20
37.1280000000000072
 30
0.0
 11
200.1279999999999859
 21
37.4000000000000128
 31
0.0
  0
LINE
  5
1B42
  8
0
 10
200.671999999999997
 20
37.4000000000000128
 30
0.0
 11
200.4000000000000057
 21
37.1280000000000072
 31
0.0
  0
LINE
  5
1B43
  8
0
 10
200.671999999999997
 20
37.4000000000000128
 30
0.0
 11
200.9279999999999973
 21
37.4000000000000128
 31
0.0
  0
LINE
  5
1B44
  8
0
 10
201.1999999999999886
 20
37.1280000000000072
 30
0.0
 11
200.9279999999999973
 21
37.4000000000000128
 31
0.0
  0
LINE
  5
1B45
  8
0
 10
201.4720000000000084
 20
37.4000000000000128
 30
0.0
 11
201.1999999999999886
 21
37.1280000000000072
 31
0.0
  0
LINE
  5
1B46
  8
0
 10
201.4720000000000084
 20
37.4000000000000128
 30
0.0
 11
201.7280000000000086
 21
37.4000000000000128
 31
0.0
  0
LINE
  5
1B47
  8
0
 10
202.0
 20
37.1280000000000072
 30
0.0
 11
201.7280000000000086
 21
37.4000000000000128
 31
0.0
  0
LINE
  5
1B48
  8
0
 10
202.2719999999999914
 20
37.4000000000000128
 30
0.0
 11
202.0
 21
37.1280000000000072
 31
0.0
  0
LINE
  5
1B49
  8
0
 10
202.2719999999999914
 20
37.4000000000000128
 30
0.0
 11
202.5279999999999063
 21
37.4000000000000128
 31
0.0
  0
LINE
  5
1B4A
  8
0
 10
202.8000000000000114
 20
37.1280000000000072
 30
0.0
 11
202.5279999999999063
 21
37.4000000000000128
 31
0.0
  0
LINE
  5
1B4B
  8
0
 10
203.0720000000000027
 20
37.4000000000000128
 30
0.0
 11
203.2249030993000076
 21
37.4000000000000128
 31
0.0
  0
LINE
  5
1B4C
  8
0
 10
202.5279999999999063
 20
37.4000000000000128
 30
0.0
 11
202.8000000000000114
 21
37.6720000000000113
 31
0.0
  0
LINE
  5
1B4D
  8
0
 10
202.0
 20
37.6720000000000113
 30
0.0
 11
202.2719999999999914
 21
37.4000000000000128
 31
0.0
  0
LINE
  5
1B4E
  8
0
 10
201.7280000000000086
 20
37.4000000000000128
 30
0.0
 11
202.0
 21
37.6720000000000113
 31
0.0
  0
LINE
  5
1B4F
  8
0
 10
201.1999999999999886
 20
37.6720000000000113
 30
0.0
 11
201.4720000000000084
 21
37.4000000000000128
 31
0.0
  0
LINE
  5
1B50
  8
0
 10
200.9279999999999973
 20
37.4000000000000128
 30
0.0
 11
201.1999999999999886
 21
37.6720000000000113
 31
0.0
  0
LINE
  5
1B51
  8
0
 10
200.4000000000000057
 20
37.6720000000000113
 30
0.0
 11
200.671999999999997
 21
37.4000000000000128
 31
0.0
  0
LINE
  5
1B52
  8
0
 10
200.1279999999999859
 20
37.4000000000000128
 30
0.0
 11
200.4000000000000057
 21
37.6720000000000113
 31
0.0
  0
LINE
  5
1B53
  8
0
 10
199.5999999999999943
 20
37.6720000000000113
 30
0.0
 11
199.8720000000000141
 21
37.4000000000000128
 31
0.0
  0
LINE
  5
1B54
  8
0
 10
199.328000000000003
 20
37.4000000000000128
 30
0.0
 11
199.5999999999999943
 21
37.6720000000000113
 31
0.0
  0
LINE
  5
1B55
  8
0
 10
198.8000000000000114
 20
37.6720000000000113
 30
0.0
 11
199.0720000000000027
 21
37.4000000000000128
 31
0.0
  0
LINE
  5
1B56
  8
0
 10
198.5279999999999063
 20
37.4000000000000128
 30
0.0
 11
198.8000000000000114
 21
37.6720000000000113
 31
0.0
  0
LINE
  5
1B57
  8
0
 10
198.0
 20
37.6720000000000113
 30
0.0
 11
198.2719999999999914
 21
37.4000000000000128
 31
0.0
  0
LINE
  5
1B58
  8
0
 10
197.7280000000000086
 20
37.4000000000000128
 30
0.0
 11
198.0
 21
37.6720000000000113
 31
0.0
  0
LINE
  5
1B59
  8
0
 10
197.1999999999999886
 20
37.6720000000000113
 30
0.0
 11
197.4719999999998947
 21
37.4000000000000128
 31
0.0
  0
LINE
  5
1B5A
  8
0
 10
196.9279999999999973
 20
37.4000000000000128
 30
0.0
 11
197.1999999999999886
 21
37.6720000000000113
 31
0.0
  0
LINE
  5
1B5B
  8
0
 10
202.0
 20
37.1280000000000072
 30
0.0
 11
202.0
 21
37.6720000000000113
 31
0.0
  0
LINE
  5
1B5C
  8
0
 10
201.1999999999999886
 20
37.1280000000000072
 30
0.0
 11
201.1999999999999886
 21
37.6720000000000113
 31
0.0
  0
LINE
  5
1B5D
  8
0
 10
198.8000000000000114
 20
37.1280000000000072
 30
0.0
 11
198.8000000000000114
 21
37.6720000000000113
 31
0.0
  0
LINE
  5
1B5E
  8
0
 10
199.5999999999999943
 20
37.1280000000000072
 30
0.0
 11
199.5999999999999943
 21
37.6720000000000113
 31
0.0
  0
LINE
  5
1B5F
  8
0
 10
200.4000000000000057
 20
37.1280000000000072
 30
0.0
 11
200.4000000000000057
 21
37.6720000000000113
 31
0.0
  0
LINE
  5
1B60
  8
0
 10
197.1999999999999886
 20
37.1280000000000072
 30
0.0
 11
197.1999999999999886
 21
37.6720000000000113
 31
0.0
  0
LINE
  5
1B61
  8
0
 10
198.0
 20
37.1280000000000072
 30
0.0
 11
198.0
 21
37.6720000000000113
 31
0.0
  0
LINE
  5
1B62
  8
0
 10
202.8000000000000114
 20
36.8720000000000212
 30
0.0
 11
202.9330101756000033
 21
36.7389898243999866
 31
0.0
  0
LINE
  5
1B63
  8
0
 10
202.8000000000000114
 20
36.4425730604000009
 30
0.0
 11
202.8000000000000114
 21
36.8720000000000212
 31
0.0
  0
LINE
  5
1B64
  8
0
 10
197.4719999999998947
 20
36.6000000000000085
 30
0.0
 11
197.3037066715949948
 21
36.4317066715950517
 31
0.0
  0
LINE
  5
1B65
  8
0
 10
197.4719999999998947
 20
36.6000000000000085
 30
0.0
 11
197.7280000000000086
 21
36.6000000000000085
 31
0.0
  0
LINE
  5
1B66
  8
0
 10
198.0
 20
36.3280000000000172
 30
0.0
 11
197.7280000000000086
 21
36.6000000000000085
 31
0.0
  0
LINE
  5
1B67
  8
0
 10
198.2719999999999914
 20
36.6000000000000085
 30
0.0
 11
198.0
 21
36.3280000000000172
 31
0.0
  0
LINE
  5
1B68
  8
0
 10
198.2719999999999914
 20
36.6000000000000085
 30
0.0
 11
198.5279999999999063
 21
36.6000000000000085
 31
0.0
  0
LINE
  5
1B69
  8
0
 10
198.8000000000000114
 20
36.3280000000000172
 30
0.0
 11
198.5279999999999063
 21
36.6000000000000085
 31
0.0
  0
LINE
  5
1B6A
  8
0
 10
199.0720000000000027
 20
36.6000000000000085
 30
0.0
 11
198.8000000000000114
 21
36.3280000000000172
 31
0.0
  0
LINE
  5
1B6B
  8
0
 10
199.0720000000000027
 20
36.6000000000000085
 30
0.0
 11
199.328000000000003
 21
36.6000000000000085
 31
0.0
  0
LINE
  5
1B6C
  8
0
 10
199.5999999999999943
 20
36.3280000000000172
 30
0.0
 11
199.328000000000003
 21
36.6000000000000085
 31
0.0
  0
LINE
  5
1B6D
  8
0
 10
199.8720000000000141
 20
36.6000000000000085
 30
0.0
 11
199.5999999999999943
 21
36.3280000000000172
 31
0.0
  0
LINE
  5
1B6E
  8
0
 10
199.8720000000000141
 20
36.6000000000000085
 30
0.0
 11
200.1279999999999859
 21
36.6000000000000085
 31
0.0
  0
LINE
  5
1B6F
  8
0
 10
200.4000000000000057
 20
36.3280000000000172
 30
0.0
 11
200.1279999999999859
 21
36.6000000000000085
 31
0.0
  0
LINE
  5
1B70
  8
0
 10
200.671999999999997
 20
36.6000000000000085
 30
0.0
 11
200.4000000000000057
 21
36.3280000000000172
 31
0.0
  0
LINE
  5
1B71
  8
0
 10
200.671999999999997
 20
36.6000000000000085
 30
0.0
 11
200.9279999999999973
 21
36.6000000000000085
 31
0.0
  0
LINE
  5
1B72
  8
0
 10
201.1999999999999886
 20
36.3280000000000172
 30
0.0
 11
200.9279999999999973
 21
36.6000000000000085
 31
0.0
  0
LINE
  5
1B73
  8
0
 10
201.4720000000000084
 20
36.6000000000000085
 30
0.0
 11
201.1999999999999886
 21
36.3280000000000172
 31
0.0
  0
LINE
  5
1B74
  8
0
 10
201.4720000000000084
 20
36.6000000000000085
 30
0.0
 11
201.7280000000000086
 21
36.6000000000000085
 31
0.0
  0
LINE
  5
1B75
  8
0
 10
202.0
 20
36.3280000000000172
 30
0.0
 11
201.7280000000000086
 21
36.6000000000000085
 31
0.0
  0
LINE
  5
1B76
  8
0
 10
202.2719999999999914
 20
36.6000000000000085
 30
0.0
 11
202.0
 21
36.3280000000000172
 31
0.0
  0
LINE
  5
1B77
  8
0
 10
202.2719999999999914
 20
36.6000000000000085
 30
0.0
 11
202.5279999999999063
 21
36.6000000000000085
 31
0.0
  0
LINE
  5
1B78
  8
0
 10
202.6962975772999016
 20
36.4317024227000275
 30
0.0
 11
202.5279999999999063
 21
36.6000000000000085
 31
0.0
  0
LINE
  5
1B79
  8
0
 10
202.5279999999999063
 20
36.6000000000000085
 30
0.0
 11
202.8000000000000114
 21
36.8720000000000212
 31
0.0
  0
LINE
  5
1B7A
  8
0
 10
202.0
 20
36.8720000000000212
 30
0.0
 11
202.2719999999999914
 21
36.6000000000000085
 31
0.0
  0
LINE
  5
1B7B
  8
0
 10
201.7280000000000086
 20
36.6000000000000085
 30
0.0
 11
202.0
 21
36.8720000000000212
 31
0.0
  0
LINE
  5
1B7C
  8
0
 10
201.1999999999999886
 20
36.8720000000000212
 30
0.0
 11
201.4720000000000084
 21
36.6000000000000085
 31
0.0
  0
LINE
  5
1B7D
  8
0
 10
200.9279999999999973
 20
36.6000000000000085
 30
0.0
 11
201.1999999999999886
 21
36.8720000000000212
 31
0.0
  0
LINE
  5
1B7E
  8
0
 10
200.4000000000000057
 20
36.8720000000000212
 30
0.0
 11
200.671999999999997
 21
36.6000000000000085
 31
0.0
  0
LINE
  5
1B7F
  8
0
 10
200.1279999999999859
 20
36.6000000000000085
 30
0.0
 11
200.4000000000000057
 21
36.8720000000000212
 31
0.0
  0
LINE
  5
1B80
  8
0
 10
199.5999999999999943
 20
36.8720000000000212
 30
0.0
 11
199.8720000000000141
 21
36.6000000000000085
 31
0.0
  0
LINE
  5
1B81
  8
0
 10
199.328000000000003
 20
36.6000000000000085
 30
0.0
 11
199.5999999999999943
 21
36.8720000000000212
 31
0.0
  0
LINE
  5
1B82
  8
0
 10
198.8000000000000114
 20
36.8720000000000212
 30
0.0
 11
199.0720000000000027
 21
36.6000000000000085
 31
0.0
  0
LINE
  5
1B83
  8
0
 10
198.5279999999999063
 20
36.6000000000000085
 30
0.0
 11
198.8000000000000114
 21
36.8720000000000212
 31
0.0
  0
LINE
  5
1B84
  8
0
 10
198.0
 20
36.8720000000000212
 30
0.0
 11
198.2719999999999914
 21
36.6000000000000085
 31
0.0
  0
LINE
  5
1B85
  8
0
 10
197.7280000000000086
 20
36.6000000000000085
 30
0.0
 11
198.0
 21
36.8720000000000212
 31
0.0
  0
LINE
  5
1B86
  8
0
 10
197.1999999999999886
 20
36.8720000000000212
 30
0.0
 11
197.4719999999998947
 21
36.6000000000000085
 31
0.0
  0
LINE
  5
1B87
  8
0
 10
197.0669898243625084
 20
36.7389898243624771
 30
0.0
 11
197.1999999999999886
 21
36.8720000000000212
 31
0.0
  0
LINE
  5
1B88
  8
0
 10
202.0
 20
36.3280000000000172
 30
0.0
 11
202.0
 21
36.8720000000000212
 31
0.0
  0
LINE
  5
1B89
  8
0
 10
201.1999999999999886
 20
36.3280000000000172
 30
0.0
 11
201.1999999999999886
 21
36.8720000000000212
 31
0.0
  0
LINE
  5
1B8A
  8
0
 10
198.8000000000000114
 20
36.3280000000000172
 30
0.0
 11
198.8000000000000114
 21
36.8720000000000212
 31
0.0
  0
LINE
  5
1B8B
  8
0
 10
199.5999999999999943
 20
36.3280000000000172
 30
0.0
 11
199.5999999999999943
 21
36.8720000000000212
 31
0.0
  0
LINE
  5
1B8C
  8
0
 10
200.4000000000000057
 20
36.3280000000000172
 30
0.0
 11
200.4000000000000057
 21
36.8720000000000212
 31
0.0
  0
LINE
  5
1B8D
  8
0
 10
197.1999999999999886
 20
36.4425730604000222
 30
0.0
 11
197.1999999999999886
 21
36.8720000000000212
 31
0.0
  0
LINE
  5
1B8E
  8
0
 10
198.0
 20
36.3280000000000172
 30
0.0
 11
198.0
 21
36.8720000000000212
 31
0.0
  0
LINE
  5
1B8F
  8
0
 10
198.3507577496999943
 20
35.8000000000000114
 30
0.0
 11
198.5279999999999063
 21
35.8000000000000114
 31
0.0
  0
LINE
  5
1B90
  8
0
 10
198.8000000000000114
 20
35.52800000000002
 30
0.0
 11
198.5279999999999063
 21
35.8000000000000114
 31
0.0
  0
LINE
  5
1B91
  8
0
 10
199.0720000000000027
 20
35.8000000000000114
 30
0.0
 11
198.8000000000000114
 21
35.52800000000002
 31
0.0
  0
LINE
  5
1B92
  8
0
 10
199.0720000000000027
 20
35.8000000000000114
 30
0.0
 11
199.328000000000003
 21
35.8000000000000114
 31
0.0
  0
LINE
  5
1B93
  8
0
 10
199.5999999999999943
 20
35.52800000000002
 30
0.0
 11
199.328000000000003
 21
35.8000000000000114
 31
0.0
  0
LINE
  5
1B94
  8
0
 10
199.8720000000000141
 20
35.8000000000000114
 30
0.0
 11
199.5999999999999943
 21
35.52800000000002
 31
0.0
  0
LINE
  5
1B95
  8
0
 10
199.8720000000000141
 20
35.8000000000000114
 30
0.0
 11
200.1279999999999859
 21
35.8000000000000114
 31
0.0
  0
LINE
  5
1B96
  8
0
 10
200.4000000000000057
 20
35.52800000000002
 30
0.0
 11
200.1279999999999859
 21
35.8000000000000114
 31
0.0
  0
LINE
  5
1B97
  8
0
 10
200.671999999999997
 20
35.8000000000000114
 30
0.0
 11
200.4000000000000057
 21
35.52800000000002
 31
0.0
  0
LINE
  5
1B98
  8
0
 10
200.671999999999997
 20
35.8000000000000114
 30
0.0
 11
200.9279999999999973
 21
35.8000000000000114
 31
0.0
  0
LINE
  5
1B99
  8
0
 10
201.1999999999999886
 20
35.52800000000002
 30
0.0
 11
200.9279999999999973
 21
35.8000000000000114
 31
0.0
  0
LINE
  5
1B9A
  8
0
 10
201.4720000000000084
 20
35.8000000000000114
 30
0.0
 11
201.1999999999999886
 21
35.52800000000002
 31
0.0
  0
LINE
  5
1B9B
  8
0
 10
201.4720000000000084
 20
35.8000000000000114
 30
0.0
 11
201.6492422501999897
 21
35.8000000000000114
 31
0.0
  0
LINE
  5
1B9C
  8
0
 10
202.0
 20
36.0720000000000169
 30
0.0
 11
202.1198431178549981
 21
35.9521568821449833
 31
0.0
  0
LINE
  5
1B9D
  8
0
 10
201.7593681482418049
 20
35.8313681482417721
 30
0.0
 11
202.0
 21
36.0720000000000169
 31
0.0
  0
LINE
  5
1B9E
  8
0
 10
201.1999999999999886
 20
36.0720000000000169
 30
0.0
 11
201.4720000000000084
 21
35.8000000000000114
 31
0.0
  0
LINE
  5
1B9F
  8
0
 10
200.9279999999999973
 20
35.8000000000000114
 30
0.0
 11
201.1999999999999886
 21
36.0720000000000169
 31
0.0
  0
LINE
  5
1BA0
  8
0
 10
200.4000000000000057
 20
36.0720000000000169
 30
0.0
 11
200.671999999999997
 21
35.8000000000000114
 31
0.0
  0
LINE
  5
1BA1
  8
0
 10
200.1279999999999859
 20
35.8000000000000114
 30
0.0
 11
200.4000000000000057
 21
36.0720000000000169
 31
0.0
  0
LINE
  5
1BA2
  8
0
 10
199.5999999999999943
 20
36.0720000000000169
 30
0.0
 11
199.8720000000000141
 21
35.8000000000000114
 31
0.0
  0
LINE
  5
1BA3
  8
0
 10
199.328000000000003
 20
35.8000000000000114
 30
0.0
 11
199.5999999999999943
 21
36.0720000000000169
 31
0.0
  0
LINE
  5
1BA4
  8
0
 10
198.8000000000000114
 20
36.0720000000000169
 30
0.0
 11
199.0720000000000027
 21
35.8000000000000114
 31
0.0
  0
LINE
  5
1BA5
  8
0
 10
198.5279999999999063
 20
35.8000000000000114
 30
0.0
 11
198.8000000000000114
 21
36.0720000000000169
 31
0.0
  0
LINE
  5
1BA6
  8
0
 10
198.0
 20
36.0720000000000169
 30
0.0
 11
198.2406318517998898
 21
35.8313681482000135
 31
0.0
  0
LINE
  5
1BA7
  8
0
 10
197.8801568821000103
 20
35.952156882100013
 30
0.0
 11
198.0
 21
36.0720000000000169
 31
0.0
  0
LINE
  5
1BA8
  8
0
 10
202.0
 20
35.7781321330999873
 30
0.0
 11
202.0
 21
36.0720000000000169
 31
0.0
  0
LINE
  5
1BA9
  8
0
 10
201.1999999999999886
 20
35.52800000000002
 30
0.0
 11
201.1999999999999886
 21
36.0720000000000169
 31
0.0
  0
LINE
  5
1BAA
  8
0
 10
198.8000000000000114
 20
35.52800000000002
 30
0.0
 11
198.8000000000000114
 21
36.0720000000000169
 31
0.0
  0
LINE
  5
1BAB
  8
0
 10
199.5999999999999943
 20
35.52800000000002
 30
0.0
 11
199.5999999999999943
 21
36.0720000000000169
 31
0.0
  0
LINE
  5
1BAC
  8
0
 10
200.4000000000000057
 20
35.52800000000002
 30
0.0
 11
200.4000000000000057
 21
36.0720000000000169
 31
0.0
  0
LINE
  5
1BAD
  8
0
 10
198.0
 20
35.7781321331000228
 30
0.0
 11
198.0
 21
36.0720000000000169
 31
0.0
  0
ARC
  5
1BAE
  8
0
 10
158.7411286003998896
 20
86.9999999999999858
 30
0.0
 40
4.2500000000000009
 50
60.9558679203999674
 51
69.2048049507287857
  0
ARC
  5
1BAF
  8
0
 10
158.7411286003998896
 20
86.9999999999999858
 30
0.0
 40
4.2500000000000009
 50
290.7951950492711717
 51
299.0441320796001037
  0
LINE
  5
1BB0
  8
0
 10
160.6906729373999951
 20
86.5754616500999958
 30
0.0
 11
160.6599999999999966
 21
86.6000000000000085
 31
0.0
  0
LINE
  5
1BB1
  8
0
 10
160.6599999999999966
 20
84.9999999999999858
 30
0.0
 11
160.9607898147999094
 21
85.2406318519000052
 31
0.0
  0
LINE
  5
1BB2
  8
0
 10
160.8098038974000019
 20
84.8801568820999961
 30
0.0
 11
160.6599999999999966
 21
84.9999999999999858
 31
0.0
  0
LINE
  5
1BB3
  8
0
 10
160.6599999999999966
 20
84.1999999999999886
 30
0.0
 11
160.7896280283999886
 21
84.3037024226999847
 31
0.0
  0
LINE
  5
1BB4
  8
0
 10
160.8262627196000096
 20
84.0669898244000109
 30
0.0
 11
160.6599999999999966
 21
84.1999999999999886
 31
0.0
  0
LINE
  5
1BB5
  8
0
 10
160.7668346538999913
 20
83.3145322769999979
 30
0.0
 11
160.6940754459999141
 21
83.3727396432000063
 31
0.0
  0
LINE
  5
1BB6
  8
0
 10
160.8044319975765859
 20
83.2844544019485511
 30
0.0
 11
160.8019381803999011
 21
83.2864494557000086
 31
0.0
  0
LINE
  5
1BB7
  8
0
 10
160.8019381803999011
 20
90.7135505442999772
 30
0.0
 11
160.8044319975765859
 21
90.7155455980514063
 31
0.0
  0
LINE
  5
1BB8
  8
0
 10
160.6940754459999141
 20
90.6272603567999937
 30
0.0
 11
160.7668346538999913
 21
90.6854677231000181
 31
0.0
  0
LINE
  5
1BB9
  8
0
 10
160.6599999999999966
 20
89.7999999999999972
 30
0.0
 11
160.8262627196000096
 21
89.9330101757000051
 31
0.0
  0
LINE
  5
1BBA
  8
0
 10
160.7896280283999886
 20
89.6962975773000011
 30
0.0
 11
160.6599999999999966
 21
89.7999999999999972
 31
0.0
  0
LINE
  5
1BBB
  8
0
 10
160.6599999999999966
 20
88.9999999999999858
 30
0.0
 11
160.8098038974000019
 21
89.1198431179000039
 31
0.0
  0
LINE
  5
1BBC
  8
0
 10
160.9607898147999094
 20
88.7593681482000108
 30
0.0
 11
160.6599999999999966
 21
88.9999999999999858
 31
0.0
  0
LINE
  5
1BBD
  8
0
 10
160.6599999999999966
 20
87.4000000000000057
 30
0.0
 11
160.6906729373999951
 21
87.4245383499000042
 31
0.0
  0
LINE
  5
1BBE
  8
0
 10
160.6948891376999029
 20
87.3720886899000249
 30
0.0
 11
160.6599999999999966
 21
87.4000000000000057
 31
0.0
  0
LINE
  5
1BBF
  8
0
 10
160.6599999999999966
 20
86.6000000000000085
 30
0.0
 11
160.6948891376999029
 21
86.6279113101999769
 31
0.0
  0
LINE
  5
1BC0
  8
0
 10
161.0
 20
88.4719999999999942
 30
0.0
 11
161.0
 21
88.7279999999999944
 31
0.0
  0
LINE
  5
1BC1
  8
0
 10
160.6599999999999966
 20
88.2000000000000028
 30
0.0
 11
161.0
 21
88.4719999999999942
 31
0.0
  0
LINE
  5
1BC2
  8
0
 10
161.0
 20
87.9279999999999688
 30
0.0
 11
160.6599999999999966
 21
88.2000000000000028
 31
0.0
  0
LINE
  5
1BC3
  8
0
 10
161.0
 20
87.6719999999999828
 30
0.0
 11
161.0
 21
87.9279999999999688
 31
0.0
  0
LINE
  5
1BC4
  8
0
 10
160.6906729373999951
 20
87.4245383499000042
 30
0.0
 11
161.0
 21
87.6719999999999828
 31
0.0
  0
LINE
  5
1BC5
  8
0
 10
161.0
 20
87.1279999999999859
 30
0.0
 11
160.6948891376999029
 21
87.3720886899000249
 31
0.0
  0
LINE
  5
1BC6
  8
0
 10
161.0
 20
86.8719999999999999
 30
0.0
 11
161.0
 21
87.1279999999999859
 31
0.0
  0
LINE
  5
1BC7
  8
0
 10
160.6948891376999029
 20
86.6279113101999769
 30
0.0
 11
161.0
 21
86.8719999999999999
 31
0.0
  0
LINE
  5
1BC8
  8
0
 10
161.0
 20
86.3279999999999887
 30
0.0
 11
160.6906729373999951
 21
86.5754616500999958
 31
0.0
  0
LINE
  5
1BC9
  8
0
 10
161.0
 20
86.0719999999999743
 30
0.0
 11
161.0
 21
86.3279999999999887
 31
0.0
  0
LINE
  5
1BCA
  8
0
 10
160.6599999999999966
 20
85.7999999999999972
 30
0.0
 11
161.0
 21
86.0719999999999743
 31
0.0
  0
LINE
  5
1BCB
  8
0
 10
161.0
 20
85.5280000000000058
 30
0.0
 11
160.6599999999999966
 21
85.7999999999999972
 31
0.0
  0
LINE
  5
1BCC
  8
0
 10
161.0
 20
89.5280000000000058
 30
0.0
 11
160.7896280283999886
 21
89.6962975773000011
 31
0.0
  0
LINE
  5
1BCD
  8
0
 10
161.0
 20
89.2720000000000056
 30
0.0
 11
161.0
 21
89.5280000000000058
 31
0.0
  0
LINE
  5
1BCE
  8
0
 10
160.8098038974000019
 20
89.1198431179000039
 30
0.0
 11
161.0
 21
89.2720000000000056
 31
0.0
  0
LINE
  5
1BCF
  8
0
 10
161.0
 20
88.7279999999999944
 30
0.0
 11
160.9607898147999094
 21
88.7593681482000108
 31
0.0
  0
LINE
  5
1BD0
  8
0
 10
161.0
 20
85.2720000000000056
 30
0.0
 11
161.0
 21
85.5280000000000058
 31
0.0
  0
LINE
  5
1BD1
  8
0
 10
160.9607898147999094
 20
85.2406318519000052
 30
0.0
 11
161.0
 21
85.2720000000000056
 31
0.0
  0
LINE
  5
1BD2
  8
0
 10
161.0
 20
84.7279999999999944
 30
0.0
 11
160.8098038974000019
 21
84.8801568820999961
 31
0.0
  0
LINE
  5
1BD3
  8
0
 10
161.0
 20
84.4719999999999942
 30
0.0
 11
161.0
 21
84.7279999999999944
 31
0.0
  0
LINE
  5
1BD4
  8
0
 10
160.7896280283999886
 20
84.3037024226999847
 30
0.0
 11
161.0
 21
84.4719999999999942
 31
0.0
  0
LINE
  5
1BD5
  8
0
 10
161.0
 20
90.0719999999999885
 30
0.0
 11
161.0
 21
90.3279999999999887
 31
0.0
  0
LINE
  5
1BD6
  8
0
 10
160.8262627196000096
 20
89.9330101757000051
 30
0.0
 11
161.0
 21
90.0719999999999885
 31
0.0
  0
LINE
  5
1BD7
  8
0
 10
161.0
 20
83.9279999999999831
 30
0.0
 11
160.8262627196000096
 21
84.0669898244000109
 31
0.0
  0
LINE
  5
1BD8
  8
0
 10
160.6599999999999966
 20
90.5999999999999943
 30
0.0
 11
160.6940754459999141
 21
90.6272603567999937
 31
0.0
  0
LINE
  5
1BD9
  8
0
 10
161.0
 20
90.3279999999999887
 30
0.0
 11
160.6599999999999966
 21
90.5999999999999943
 31
0.0
  0
LINE
  5
1BDA
  8
0
 10
161.0
 20
83.6719999999999828
 30
0.0
 11
161.0
 21
83.9279999999999831
 31
0.0
  0
LINE
  5
1BDB
  8
0
 10
160.6599999999999966
 20
83.3999999999999915
 30
0.0
 11
161.0
 21
83.6719999999999828
 31
0.0
  0
LINE
  5
1BDC
  8
0
 10
160.6940754459999141
 20
83.3727396432000063
 30
0.0
 11
160.6599999999999966
 21
83.3999999999999915
 31
0.0
  0
LINE
  5
1BDD
  8
0
 10
160.7668346538999913
 20
90.6854677231000181
 30
0.0
 11
160.8019381803999011
 21
90.7135505442999772
 31
0.0
  0
LINE
  5
1BDE
  8
0
 10
160.8019381803999011
 20
83.2864494557000086
 30
0.0
 11
160.7668346538999913
 21
83.3145322769999979
 31
0.0
  0
ARC
  5
1BDF
  8
0
 10
158.7411286003998896
 20
38.9999999999999716
 30
0.0
 40
4.2500000000000009
 50
290.7951950492711717
 51
297.5799397241015072
  0
ARC
  5
1BE0
  8
0
 10
158.7411286003998896
 20
38.9999999999999716
 30
0.0
 40
4.2500000000000009
 50
62.4200602758985497
 51
69.2048049507287857
  0
LINE
  5
1BE1
  8
0
 10
160.5
 20
42.5999999999999801
 30
0.0
 11
160.6906729373999951
 21
42.7525383498999787
 31
0.0
  0
LINE
  5
1BE2
  8
0
 10
161.0
 20
42.1999999999999673
 30
0.0
 11
160.5
 21
42.5999999999999801
 31
0.0
  0
LINE
  5
1BE3
  8
0
 10
160.9607898147999094
 20
42.1686318518999883
 30
0.0
 11
161.0
 21
42.1999999999999673
 31
0.0
  0
LINE
  5
1BE4
  8
0
 10
160.5
 20
41.7999999999999829
 30
0.0
 11
160.8098038974000019
 21
42.0478431178999728
 31
0.0
  0
LINE
  5
1BE5
  8
0
 10
160.7896280283999886
 20
41.5682975772999797
 30
0.0
 11
160.5
 21
41.7999999999999829
 31
0.0
  0
LINE
  5
1BE6
  8
0
 10
160.5
 20
40.9999999999999574
 30
0.0
 11
160.8262627196000096
 21
41.2610101756999796
 31
0.0
  0
LINE
  5
1BE7
  8
0
 10
161.0
 20
40.599999999999973
 30
0.0
 11
160.5
 21
40.9999999999999574
 31
0.0
  0
LINE
  5
1BE8
  8
0
 10
160.5
 20
40.1999999999999673
 30
0.0
 11
161.0
 21
40.599999999999973
 31
0.0
  0
LINE
  5
1BE9
  8
0
 10
161.0
 20
39.7999999999999901
 30
0.0
 11
160.5
 21
40.1999999999999673
 31
0.0
  0
LINE
  5
1BEA
  8
0
 10
160.5
 20
39.3999999999999773
 30
0.0
 11
160.7668346538999913
 21
39.613467723099987
 31
0.0
  0
LINE
  5
1BEB
  8
0
 10
160.8019381803999011
 20
39.15844945569998
 30
0.0
 11
160.5
 21
39.3999999999999773
 31
0.0
  0
LINE
  5
1BEC
  8
0
 10
160.5
 20
38.5999999999999801
 30
0.0
 11
160.8019381803999011
 21
38.8415505442999773
 31
0.0
  0
LINE
  5
1BED
  8
0
 10
160.7668346538999913
 20
38.3865322769999722
 30
0.0
 11
160.5
 21
38.5999999999999801
 31
0.0
  0
LINE
  5
1BEE
  8
0
 10
160.5
 20
37.7999999999999829
 30
0.0
 11
161.0
 21
38.1999999999999815
 31
0.0
  0
LINE
  5
1BEF
  8
0
 10
161.0
 20
37.3999999999999773
 30
0.0
 11
160.5
 21
37.7999999999999829
 31
0.0
  0
LINE
  5
1BF0
  8
0
 10
160.5
 20
36.9999999999999716
 30
0.0
 11
161.0
 21
37.3999999999999773
 31
0.0
  0
LINE
  5
1BF1
  8
0
 10
160.8262627196000096
 20
36.7389898243999795
 30
0.0
 11
160.5
 21
36.9999999999999716
 31
0.0
  0
LINE
  5
1BF2
  8
0
 10
160.5
 20
36.1999999999999673
 30
0.0
 11
160.7896333394000123
 21
36.4317066715999829
 31
0.0
  0
LINE
  5
1BF3
  8
0
 10
160.9607898147999094
 20
35.8313681481999922
 30
0.0
 11
160.5
 21
36.1999999999999673
 31
0.0
  0
LINE
  5
1BF4
  8
0
 10
161.0
 20
35.7999999999999829
 30
0.0
 11
160.9607898147999094
 21
35.8313681481999922
 31
0.0
  0
LINE
  5
1BF5
  8
0
 10
160.5
 20
35.3999999999999773
 30
0.0
 11
161.0
 21
35.7999999999999829
 31
0.0
  0
LINE
  5
1BF6
  8
0
 10
160.6906729373999951
 20
35.2474616500999787
 30
0.0
 11
160.5
 21
35.3999999999999773
 31
0.0
  0
LINE
  5
1BF7
  8
0
 10
160.7088179572629087
 20
35.2329456342005827
 30
0.0
 11
160.6948891376999029
 21
35.2440886898999821
 31
0.0
  0
LINE
  5
1BF8
  8
0
 10
160.6948891376999029
 20
42.7559113101999699
 30
0.0
 11
160.7088179572629087
 21
42.7670543657993605
 31
0.0
  0
LINE
  5
1BF9
  8
0
 10
161.0
 20
39.7999999999999901
 30
0.0
 11
160.7668346538999913
 21
39.613467723099987
 31
0.0
  0
LINE
  5
1BFA
  8
0
 10
160.7668346538999913
 20
38.3865322769999722
 30
0.0
 11
161.0
 21
38.1999999999999815
 31
0.0
  0
LINE
  5
1BFB
  8
0
 10
160.8019381803999011
 20
39.15844945569998
 30
0.0
 11
161.0
 21
38.9999999999999716
 31
0.0
  0
LINE
  5
1BFC
  8
0
 10
161.0
 20
38.9999999999999716
 30
0.0
 11
160.8019381803999011
 21
38.8415505442999773
 31
0.0
  0
LINE
  5
1BFD
  8
0
 10
161.0
 20
36.5999999999999801
 30
0.0
 11
160.7896333394000123
 21
36.4317066715999829
 31
0.0
  0
LINE
  5
1BFE
  8
0
 10
160.8262627196000096
 20
36.7389898243999795
 30
0.0
 11
161.0
 21
36.5999999999999801
 31
0.0
  0
LINE
  5
1BFF
  8
0
 10
160.7896280283999886
 20
41.5682975772999797
 30
0.0
 11
161.0
 21
41.3999999999999702
 31
0.0
  0
LINE
  5
1C00
  8
0
 10
161.0
 20
41.3999999999999702
 30
0.0
 11
160.8262627196000096
 21
41.2610101756999796
 31
0.0
  0
LINE
  5
1C01
  8
0
 10
160.9607898147999094
 20
42.1686318518999883
 30
0.0
 11
160.8098038974000019
 21
42.0478431178999728
 31
0.0
  0
LINE
  5
1C02
  8
0
 10
160.6948891376999029
 20
42.7559113101999699
 30
0.0
 11
160.6906729373999951
 21
42.7525383498999787
 31
0.0
  0
LINE
  5
1C03
  8
0
 10
160.6906729373999951
 20
35.2474616500999787
 30
0.0
 11
160.6948891376999029
 21
35.2440886898999821
 31
0.0
  0
ENDSEC
  0
EOF
