  0
SECTION
  2
HEADER
  9
$ACADVER
  1
AC1009
  9
$INSBASE
 10
0.0
 20
0.0
 30
0.0
  9
$EXTMIN
 10
0.0
 20
-1.4802182810368341
 30
0.0
  9
$EXTMAX
 10
161.5
 20
95.9999999999999716
 30
0.0
  9
$LIMMIN
 10
0.0
 20
0.0
  9
$LIMMAX
 10
187.5
 20
135.0
  9
$ORTHOMODE
 70
     1
  9
$REGENMODE
 70
     1
  9
$FILLMODE
 70
     1
  9
$QTEXTMODE
 70
     0
  9
$MIRRTEXT
 70
     0
  9
$DRAGMODE
 70
     2
  9
$LTSCALE
 40
5.0
  9
$OSMODE
 70
    37
  9
$ATTMODE
 70
     1
  9
$TEXTSIZE
 40
2.5000000000000488
  9
$TRACEWID
 40
0.05
  9
$TEXTSTYLE
  7
STANDARD
  9
$CLAYER
  8
0
  9
$CELTYPE
  6
BYLAYER
  9
$CECOLOR
 62
   256
  9
$DIMSCALE
 40
0.5
  9
$DIMASZ
 40
3.0
  9
$DIMEXO
 40
2.0
  9
$DIMDLI
 40
0.38
  9
$DIMRND
 40
0.0
  9
$DIMDLE
 40
0.0
  9
$DIMEXE
 40
2.0
  9
$DIMTP
 40
0.0
  9
$DIMTM
 40
0.0
  9
$DIMTXT
 40
3.2000000000000002
  9
$DIMCEN
 40
0.0
  9
$DIMTSZ
 40
0.0
  9
$DIMTOL
 70
     0
  9
$DIMLIM
 70
     0
  9
$DIMTIH
 70
     0
  9
$DIMTOH
 70
     0
  9
$DIMSE1
 70
     0
  9
$DIMSE2
 70
     0
  9
$DIMTAD
 70
     1
  9
$DIMZIN
 70
     0
  9
$DIMBLK
  1

  9
$DIMASO
 70
     0
  9
$DIMSHO
 70
     0
  9
$DIMPOST
  1

  9
$DIMAPOST
  1

  9
$DIMALT
 70
     0
  9
$DIMALTD
 70
     2
  9
$DIMALTF
 40
25.3999999999999986
  9
$DIMLFAC
 40
1.0
  9
$DIMTOFL
 70
     1
  9
$DIMTVP
 40
1.6000000000000001
  9
$DIMTIX
 70
     1
  9
$DIMSOXD
 70
     0
  9
$DIMSAH
 70
     0
  9
$DIMBLK1
  1

  9
$DIMBLK2
  1

  9
$DIMSTYLE
  2
STANDARD
  9
$DIMCLRD
 70
     0
  9
$DIMCLRE
 70
     0
  9
$DIMCLRT
 70
     0
  9
$DIMTFAC
 40
1.0
  9
$DIMGAP
 40
0.09
  9
$LUNITS
 70
     2
  9
$LUPREC
 70
     1
  9
$SKETCHINC
 40
0.1
  9
$FILLETRAD
 40
0.4
  9
$AUNITS
 70
     0
  9
$AUPREC
 70
     0
  9
$MENU
  1
E:\r13\win\SUPPORT\ACAD
  9
$ELEVATION
 40
0.0
  9
$PELEVATION
 40
0.0
  9
$THICKNESS
 40
0.0
  9
$LIMCHECK
 70
     0
  9
$BLIPMODE
 70
     0
  9
$CHAMFERA
 40
0.0
  9
$CHAMFERB
 40
0.0
  9
$SKPOLY
 70
     0
  9
$TDCREATE
 40
2449840.6215393519960344
  9
$TDUPDATE
 40
2460864.3913888889364898
  9
$TDINDWG
 40
0.1771109954
  9
$TDUSRTIMER
 40
0.1771109954
  9
$USRTIMER
 70
     1
  9
$ANGBASE
 50
0.0
  9
$ANGDIR
 70
     0
  9
$PDMODE
 70
     0
  9
$PDSIZE
 40
0.0
  9
$PLINEWID
 40
0.0
  9
$COORDS
 70
     1
  9
$SPLFRAME
 70
     0
  9
$SPLINETYPE
 70
     6
  9
$SPLINESEGS
 70
     8
  9
$ATTDIA
 70
     1
  9
$ATTREQ
 70
     1
  9
$HANDLING
 70
     1
  9
$HANDSEED
  5
2B64
  9
$SURFTAB1
 70
     6
  9
$SURFTAB2
 70
     6
  9
$SURFTYPE
 70
     6
  9
$SURFU
 70
     6
  9
$SURFV
 70
     6
  9
$UCSNAME
  2

  9
$UCSORG
 10
0.0
 20
0.0
 30
0.0
  9
$UCSXDIR
 10
1.0
 20
0.0
 30
0.0
  9
$UCSYDIR
 10
0.0
 20
1.0
 30
0.0
  9
$PUCSNAME
  2

  9
$PUCSORG
 10
0.0
 20
0.0
 30
0.0
  9
$PUCSXDIR
 10
1.0
 20
0.0
 30
0.0
  9
$PUCSYDIR
 10
0.0
 20
1.0
 30
0.0
  9
$USERI1
 70
     0
  9
$USERI2
 70
     1
  9
$USERI3
 70
     0
  9
$USERI4
 70
     0
  9
$USERI5
 70
     0
  9
$USERR1
 40
0.0
  9
$USERR2
 40
0.0
  9
$USERR3
 40
0.0
  9
$USERR4
 40
0.0
  9
$USERR5
 40
0.0
  9
$WORLDVIEW
 70
     1
  9
$SHADEDGE
 70
     3
  9
$SHADEDIF
 70
    70
  9
$TILEMODE
 70
     1
  9
$MAXACTVP
 70
    16
  9
$PLIMCHECK
 70
     0
  9
$PEXTMIN
 10
1.0000000000000000E+20
 20
1.0000000000000000E+20
 30
1.0000000000000000E+20
  9
$PEXTMAX
 10
-1.0000000000000000E+20
 20
-1.0000000000000000E+20
 30
-1.0000000000000000E+20
  9
$PLIMMIN
 10
0.0
 20
0.0
  9
$PLIMMAX
 10
12.0
 20
9.0
  9
$UNITMODE
 70
     0
  9
$VISRETAIN
 70
     0
  9
$PLINEGEN
 70
     0
  9
$PSLTSCALE
 70
     0
  0
ENDSEC
  0
SECTION
  2
TABLES
  0
TABLE
  2
VPORT
 70
     1
  0
VPORT
  2
*ACTIVE
 70
     0
 10
0.0
 20
0.0
 11
1.0
 21
1.0
 12
201.7898383371824025
 22
85.9220496747730209
 13
0.0
 23
0.0
 14
5.0
 24
5.0
 15
5.0
 25
5.0
 16
0.0
 26
0.0
 36
1.0
 17
0.0
 27
0.0
 37
0.0
 40
171.8440993495460134
 41
2.3485221674876842
 42
50.0
 43
0.0
 44
0.0
 50
0.0
 51
0.0
 71
     0
 72
   500
 73
     1
 74
     0
 75
     0
 76
     0
 77
     0
 78
     2
  0
ENDTAB
  0
TABLE
  2
LTYPE
 70
     3
  0
LTYPE
  2
CONTINUOUS
 70
     0
  3
Solid Line
 72
    65
 73
     0
 40
0.0
  0
LTYPE
  2
CENTER
 70
     0
  3
____ _ ____ _ ____ _ ____ _ ____ _ ____ _ ____
 72
    65
 73
     4
 40
2.0
 49
1.25
 49
-0.25
 49
0.25
 49
-0.25
  0
LTYPE
  2
HIDDEN
 70
     0
  3
_ _ _ _ _ _ _ _ _ _ _ _ _ _ _ _ _ _ _ _ _ _ _
 72
    65
 73
     2
 40
0.375
 49
0.25
 49
-0.125
  0
ENDTAB
  0
TABLE
  2
LAYER
 70
     5
  0
LAYER
  2
0
 70
     0
 62
     7
  6
CONTINUOUS
  0
LAYER
  2
1
 70
     0
 62
     1
  6
CENTER
  0
LAYER
  2
2
 70
     0
 62
     2
  6
HIDDEN
  0
LAYER
  2
3
 70
     0
 62
     3
  6
CONTINUOUS
  0
LAYER
  2
DEFPOINTS
 70
     0
 62
     7
  6
CONTINUOUS
  0
ENDTAB
  0
TABLE
  2
STYLE
 70
     2
  0
STYLE
  2
STANDARD
 70
     0
 40
0.0
 41
1.0
 50
0.0
 71
     0
 42
2.5000000000000488
  3
TXT
  4
BIGFONT
  0
STYLE
  2
STANDARD1
 70
     0
 40
0.0
 41
1.0
 50
0.0
 71
     0
 42
3.0
  3
txt
  4

  0
ENDTAB
  0
TABLE
  2
VIEW
 70
     1
  0
VIEW
  2
ALL
 70
     0
 40
135.0
 10
110.4957983193277045
 20
67.5
 41
0.0
 11
0.0
 21
0.0
 31
1.0
 12
0.0
 22
0.0
 32
0.0
 42
0.0
 43
0.0
 44
0.0
 50
0.0
 71
     0
  0
ENDTAB
  0
TABLE
  2
UCS
 70
     0
  0
ENDTAB
  0
TABLE
  2
APPID
 70
     6
  0
APPID
  2
ACAD
 70
     0
  0
APPID
  2
ACAD_MLEADERVER
 70
     0
  0
APPID
  2
ACAD_EXEMPT_FROM_CAD_STANDARDS
 70
     0
  0
APPID
  2
ACAD_NAV_VCDISPLAY
 70
     0
  0
APPID
  2
ACAD_DSTYLE_DIMJAG
 70
     0
  0
APPID
  2
ACAD_DSTYLE_DIMTALN
 70
     0
  0
ENDTAB
  0
TABLE
  2
DIMSTYLE
 70
     1
  0
DIMSTYLE
  2
STANDARD
 70
     0
  3

  4

  5

  6

  7

 40
1.0
 41
0.18
 42
0.0625
 43
0.38
 44
0.18
 45
0.0
 46
0.0
 47
0.0
 48
0.0
140
0.18
141
0.09
142
0.0
143
25.3999999999999986
144
1.0
145
0.0
146
1.0
147
0.09
 71
     0
 72
     0
 73
     1
 74
     1
 75
     0
 76
     0
 77
     0
 78
     0
170
     0
171
     2
172
     0
173
     0
174
     0
175
     0
176
     0
177
     0
178
     0
  0
ENDTAB
  0
ENDSEC
  0
SECTION
  2
BLOCKS
  0
BLOCK
  8
0
  2
$MODEL_SPACE
 70
     0
 10
0.0
 20
0.0
 30
0.0
  3
$MODEL_SPACE
  1

  0
ENDBLK
  5
E4
  8
0
  0
BLOCK
 67
     1
  8
0
  2
$PAPER_SPACE
 70
     0
 10
0.0
 20
0.0
 30
0.0
  3
$PAPER_SPACE
  1

  0
ENDBLK
  5
E2
 67
     1
  8
0
  0
ENDSEC
  0
SECTION
  2
ENTITIES
  0
TEXT
  5
1D8
  8
0
 62
     3
 10
0.0
 20
0.0
 30
0.0
 40
5.0
  1
BCFN12X30-S
  7
STANDARD1
  0
LINE
  5
11E8
  8
0
 10
69.5
 20
47.9999999999999787
 30
0.0
 11
69.0
 21
47.4999999999999929
 31
0.0
  0
LINE
  5
11E9
  8
0
 10
69.0
 20
30.5
 30
0.0
 11
69.5
 21
30.0
 31
0.0
  0
LINE
  5
11EA
  8
0
 10
81.0
 20
47.9999999999999787
 30
0.0
 11
69.5
 21
47.9999999999999787
 31
0.0
  0
LINE
  5
11EB
  8
0
 10
69.5
 20
30.0
 30
0.0
 11
81.0
 21
30.0
 31
0.0
  0
LINE
  5
11EC
  8
0
 10
107.3999999999999062
 20
44.9999999999999787
 30
0.0
 11
81.9000000000001052
 21
44.9999999999999929
 31
0.0
  0
LINE
  5
11ED
  8
0
 10
81.9000000000001052
 20
33.0
 30
0.0
 11
107.3999999999999062
 21
33.0
 31
0.0
  0
LINE
  5
11EE
  8
0
 10
107.4000000000000057
 20
32.9999999999999929
 30
0.0
 11
108.75
 21
34.3499999999999872
 31
0.0
  0
LINE
  5
11EF
  8
0
 10
108.75
 20
43.6499999999999773
 30
0.0
 11
107.4000000000000057
 21
44.9999999999999787
 31
0.0
  0
LINE
  5
11F0
  8
0
 10
110.25
 20
43.6499999999999773
 30
0.0
 11
108.75
 21
43.6499999999999773
 31
0.0
  0
LINE
  5
11F1
  8
0
 10
108.75
 20
34.3499999999999872
 30
0.0
 11
110.25
 21
34.3499999999999872
 31
0.0
  0
LINE
  5
11F4
  8
0
 10
69.5
 20
47.9999999999999787
 30
0.0
 11
69.5
 21
30.0
 31
0.0
  0
LINE
  5
11F5
  8
0
 10
69.0
 20
47.4999999999999929
 30
0.0
 11
69.0
 21
30.5
 31
0.0
  0
LINE
  5
11F7
  8
0
 10
81.0
 20
30.0
 30
0.0
 11
81.0
 21
47.9999999999999787
 31
0.0
  0
LINE
  5
11F8
  8
0
 10
107.4000000000000057
 20
44.9999999999999787
 30
0.0
 11
107.4000000000000057
 21
32.9999999999999929
 31
0.0
  0
LINE
  5
11F9
  8
0
 10
108.75
 20
43.6499999999999773
 30
0.0
 11
108.75
 21
34.3499999999999872
 31
0.0
  0
LINE
  5
11FA
  8
0
 10
110.25
 20
43.6499999999999773
 30
0.0
 11
110.25
 21
34.3499999999999872
 31
0.0
  0
CIRCLE
  5
1210
  8
0
 10
150.0
 20
39.0
 30
0.0
 40
4.6499999999999764
  0
CIRCLE
  5
1211
  8
0
 10
150.0
 20
39.0
 30
0.0
 40
4.25
  0
CIRCLE
  5
1212
  8
0
 10
150.0
 20
39.0
 30
0.0
 40
5.9999999999999716
  0
CIRCLE
  5
1213
  8
0
 10
150.0
 20
39.0
 30
0.0
 40
9.0
  0
CIRCLE
  5
1215
  8
0
 10
30.0
 20
39.0
 30
0.0
 40
9.0
  0
CIRCLE
  5
1216
  8
0
 10
30.0
 20
39.0
 30
0.0
 40
8.5
  0
LINE
  5
1217
  8
0
 10
30.0
 20
44.7735026918999921
 30
0.0
 11
35.0
 21
41.8867513459999827
 31
0.0
  0
LINE
  5
1218
  8
0
 10
25.0
 20
41.8867513459999827
 30
0.0
 11
30.0
 21
44.7735026918999921
 31
0.0
  0
LINE
  5
1219
  8
0
 10
25.0
 20
36.1132486540999906
 30
0.0
 11
25.0
 21
41.8867513459999827
 31
0.0
  0
LINE
  5
121A
  8
0
 10
30.0
 20
33.2264973080999866
 30
0.0
 11
25.0
 21
36.1132486540999906
 31
0.0
  0
LINE
  5
121B
  8
0
 10
35.0
 20
36.1132486540999906
 30
0.0
 11
30.0
 21
33.2264973080999866
 31
0.0
  0
LINE
  5
121C
  8
0
 10
35.0
 20
41.8867513459999827
 30
0.0
 11
35.0
 21
36.1132486540999906
 31
0.0
  0
LINE
  5
12BE
  8
1
 10
66.5
 20
39.0
 30
0.0
 11
113.5
 21
39.0
 31
0.0
  0
LINE
  5
12C0
  8
1
 10
41.5
 20
39.0
 30
0.0
 11
18.5
 21
39.0
 31
0.0
  0
LINE
  5
12C1
  8
1
 10
30.0
 20
50.5
 30
0.0
 11
30.0
 21
27.5
 31
0.0
  0
ARC
  5
12C4
  8
0
 10
81.9000000000001052
 20
32.0999999999999872
 30
0.0
 40
0.9000000000000039
 50
90.0
 51
179.999999999999801
  0
ARC
  5
12C5
  8
0
 10
81.9000000000001052
 20
45.8999999999999915
 30
0.0
 40
0.9000000000000021
 50
180.000000000000199
 51
270.0
  0
LINE
  5
12C6
  8
0
 10
86.0
 20
32.9999999999999929
 30
0.0
 11
86.0
 21
44.9999999999999929
 31
0.0
  0
LINE
  5
12CB
  8
3
 10
86.0
 20
33.9469999999999672
 30
0.0
 11
84.3597478852322951
 21
32.9999999999999716
 31
0.0
  0
LINE
  5
12CC
  8
3
 10
86.0
 20
44.0530000000000186
 30
0.0
 11
84.3597478852322951
 21
45.0000000000000213
 31
0.0
  0
LINE
  5
12CD
  8
3
 10
86.0
 20
44.0530000000000186
 30
0.0
 11
108.3469999999998947
 21
44.0530000000000186
 31
0.0
  0
LINE
  5
12CE
  8
3
 10
86.0
 20
33.9469999999999388
 30
0.0
 11
108.3469999999998947
 21
33.9469999999999672
 31
0.0
  0
ARC
  5
12CF
  8
2
 10
108.7411286003999038
 20
39.0
 30
0.0
 40
4.2500000000000071
 50
69.2048049507281888
 51
290.795195049271797
  0
LINE
  5
12D1
  8
1
 10
161.5
 20
39.0
 30
0.0
 11
138.5
 21
39.0
 31
0.0
  0
LINE
  5
12D2
  8
1
 10
150.0
 20
50.5
 30
0.0
 11
150.0
 21
27.5
 31
0.0
  0
LINE
  5
12D3
  8
1
 10
108.7411286003999038
 20
44.75
 30
0.0
 11
108.7411286003999038
 21
33.2499999999999929
 31
0.0
  0
CIRCLE
  5
12D6
  8
3
 10
150.0
 20
39.0
 30
0.0
 40
5.0530000000000177
  0
LINE
  5
12D9
  8
0
 10
69.5
 20
95.9999999999999716
 30
0.0
 11
69.0
 21
95.4999999999999716
 31
0.0
  0
LINE
  5
12DA
  8
0
 10
69.0
 20
78.4999999999999858
 30
0.0
 11
69.5
 21
77.9999999999999858
 31
0.0
  0
LINE
  5
12DB
  8
0
 10
81.0
 20
95.9999999999999716
 30
0.0
 11
69.5
 21
95.9999999999999716
 31
0.0
  0
LINE
  5
12DC
  8
0
 10
69.5
 20
77.9999999999999858
 30
0.0
 11
81.0
 21
77.9999999999999858
 31
0.0
  0
LINE
  5
12DD
  8
0
 10
107.4000000000000057
 20
92.9999999999999432
 30
0.0
 11
81.9000000000001052
 21
92.9999999999999716
 31
0.0
  0
LINE
  5
12DE
  8
0
 10
81.9000000000001052
 20
80.9999999999999858
 30
0.0
 11
107.3999999999999062
 21
80.9999999999999858
 31
0.0
  0
LINE
  5
12DF
  8
0
 10
107.4000000000000057
 20
81.0
 30
0.0
 11
108.75
 21
82.3499999999999943
 31
0.0
  0
LINE
  5
12E0
  8
0
 10
108.75
 20
91.6499999999999915
 30
0.0
 11
107.4000000000000057
 21
92.9999999999999858
 31
0.0
  0
LINE
  5
12E1
  8
0
 10
110.25
 20
91.6499999999999915
 30
0.0
 11
108.75
 21
91.6499999999999915
 31
0.0
  0
LINE
  5
12E2
  8
0
 10
108.75
 20
82.3499999999999943
 30
0.0
 11
110.25
 21
82.3499999999999943
 31
0.0
  0
LINE
  5
12E5
  8
0
 10
69.5
 20
95.9999999999999716
 30
0.0
 11
69.5
 21
77.9999999999999858
 31
0.0
  0
LINE
  5
12E6
  8
0
 10
69.0
 20
95.4999999999999716
 30
0.0
 11
69.0
 21
78.4999999999999858
 31
0.0
  0
LINE
  5
12E7
  8
0
 10
81.0
 20
77.9999999999999858
 30
0.0
 11
81.0
 21
95.9999999999999716
 31
0.0
  0
LINE
  5
12E8
  8
0
 10
107.4000000000000057
 20
92.9999999999999858
 30
0.0
 11
107.4000000000000057
 21
81.0
 31
0.0
  0
LINE
  5
12E9
  8
0
 10
108.75
 20
91.6499999999999915
 30
0.0
 11
108.75
 21
82.3499999999999943
 31
0.0
  0
LINE
  5
12EA
  8
0
 10
110.25
 20
91.6499999999999915
 30
0.0
 11
110.25
 21
82.3499999999999943
 31
0.0
  0
LINE
  5
12EC
  8
1
 10
66.5
 20
86.9999999999999716
 30
0.0
 11
113.5
 21
86.9999999999999858
 31
0.0
  0
ARC
  5
12ED
  8
0
 10
81.9000000000001052
 20
80.0999999999999801
 30
0.0
 40
0.9000000000000039
 50
90.0
 51
179.9999999999996021
  0
ARC
  5
12EE
  8
0
 10
81.9000000000001052
 20
93.8999999999999773
 30
0.0
 40
0.9000000000000021
 50
180.0
 51
270.0
  0
LINE
  5
12EF
  8
0
 10
86.0
 20
80.9999999999999716
 30
0.0
 11
86.0
 21
92.9999999999999716
 31
0.0
  0
LINE
  5
12F0
  8
3
 10
86.0
 20
81.9469999999999459
 30
0.0
 11
84.3597478852322951
 21
80.9999999999999432
 31
0.0
  0
LINE
  5
12F1
  8
3
 10
86.0
 20
92.0529999999999831
 30
0.0
 11
84.3597478852322951
 21
93.0
 31
0.0
  0
LINE
  5
12F2
  8
3
 10
86.0
 20
92.0529999999999831
 30
0.0
 11
108.3469999999998947
 21
92.0529999999999831
 31
0.0
  0
LINE
  5
12F3
  8
3
 10
86.0
 20
81.9469999999999175
 30
0.0
 11
108.3469999999998947
 21
81.9469999999999459
 31
0.0
  0
ARC
  5
12F4
  8
2
 10
108.7411286003999038
 20
86.9999999999999858
 30
0.0
 40
4.2500000000000071
 50
69.2048049507281888
 51
290.795195049271797
  0
LINE
  5
12F5
  8
1
 10
108.7411286003999038
 20
92.75
 30
0.0
 11
108.7411286003999038
 21
81.2499999999999858
 31
0.0
  0
LINE
  5
12F8
  8
2
 10
77.0
 20
44.7735026918999921
 30
0.0
 11
69.0
 21
44.7735026918999921
 31
0.0
  0
LINE
  5
12F9
  8
2
 10
77.0
 20
33.2264973080999866
 30
0.0
 11
69.0
 21
33.2264973080999866
 31
0.0
  0
LINE
  5
12FA
  8
2
 10
77.0
 20
44.7735026918999921
 30
0.0
 11
77.0
 21
33.2264973080999866
 31
0.0
  0
LINE
  5
12FB
  8
2
 10
79.8867513459481415
 20
39.0
 30
0.0
 11
77.0
 21
44.7735026918999921
 31
0.0
  0
LINE
  5
12FC
  8
2
 10
77.0
 20
33.2264973080999866
 30
0.0
 11
79.8867513459481415
 21
39.0
 31
0.0
  0
LINE
  5
12FD
  8
2
 10
77.0
 20
36.1132486540999906
 30
0.0
 11
69.0
 21
36.1132486540999906
 31
0.0
  0
LINE
  5
12FF
  8
2
 10
77.0
 20
91.9999999999999716
 30
0.0
 11
69.0
 21
91.9999999999999716
 31
0.0
  0
LINE
  5
1300
  8
2
 10
77.0
 20
81.9999999999999716
 30
0.0
 11
69.0
 21
81.9999999999999716
 31
0.0
  0
LINE
  5
1301
  8
2
 10
77.0
 20
91.9999999999999716
 30
0.0
 11
77.0
 21
81.9999999999999716
 31
0.0
  0
LINE
  5
1302
  8
2
 10
79.8867513459481415
 20
86.9999999999999716
 30
0.0
 11
77.0
 21
91.9999999999999716
 31
0.0
  0
LINE
  5
1303
  8
2
 10
77.0
 20
81.9999999999999716
 30
0.0
 11
79.8867513459481415
 21
86.9999999999999716
 31
0.0
  0
LINE
  5
1304
  8
2
 10
77.0
 20
86.9999999999999716
 30
0.0
 11
69.0
 21
86.9999999999999716
 31
0.0
  0
LINE
  5
1309
  8
2
 10
77.0
 20
41.8867513459999827
 30
0.0
 11
69.0
 21
41.8867513459999827
 31
0.0
  0
ARC
  5
26A1
  8
0
 10
108.7411286003999038
 20
38.9999999999999787
 30
0.0
 40
4.2500000000000009
 50
290.7951950492720243
 51
297.5799397240996882
  0
ARC
  5
26A2
  8
0
 10
108.7411286003999038
 20
38.9999999999999787
 30
0.0
 40
4.2500000000000009
 50
62.4200602759002905
 51
69.2048049507280041
  0
LINE
  5
26A3
  8
0
 10
110.5
 20
42.5999999999999872
 30
0.0
 11
110.6906729373999951
 21
42.7525383498999929
 31
0.0
  0
LINE
  5
26A4
  8
0
 10
111.0
 20
42.1999999999999815
 30
0.0
 11
110.5
 21
42.5999999999999872
 31
0.0
  0
LINE
  5
26A5
  8
0
 10
110.9607898147998952
 20
42.1686318519000025
 30
0.0
 11
111.0
 21
42.1999999999999815
 31
0.0
  0
LINE
  5
26A6
  8
0
 10
110.5
 20
41.7999999999999901
 30
0.0
 11
110.8098038974000019
 21
42.047843117899987
 31
0.0
  0
LINE
  5
26A7
  8
0
 10
110.7896280284000028
 20
41.568297577300001
 30
0.0
 11
110.5
 21
41.7999999999999901
 31
0.0
  0
LINE
  5
26A8
  8
0
 10
110.5
 20
40.9999999999999787
 30
0.0
 11
110.8262627195999954
 21
41.2610101756999867
 31
0.0
  0
LINE
  5
26A9
  8
0
 10
111.0
 20
40.5999999999999872
 30
0.0
 11
110.5
 21
40.9999999999999787
 31
0.0
  0
LINE
  5
26AA
  8
0
 10
110.5
 20
40.1999999999999815
 30
0.0
 11
111.0
 21
40.5999999999999872
 31
0.0
  0
LINE
  5
26AB
  8
0
 10
111.0
 20
39.7999999999999972
 30
0.0
 11
110.5
 21
40.1999999999999815
 31
0.0
  0
LINE
  5
26AC
  8
0
 10
110.5
 20
39.3999999999999915
 30
0.0
 11
110.7668346539000055
 21
39.6134677231000012
 31
0.0
  0
LINE
  5
26AD
  8
0
 10
110.8019381803999011
 20
39.1584494556999871
 30
0.0
 11
110.5
 21
39.3999999999999915
 31
0.0
  0
LINE
  5
26AE
  8
0
 10
110.5
 20
38.5999999999999872
 30
0.0
 11
110.8019381803999011
 21
38.8415505442999915
 31
0.0
  0
LINE
  5
26AF
  8
0
 10
110.7668346539000055
 20
38.3865322769999935
 30
0.0
 11
110.5
 21
38.5999999999999872
 31
0.0
  0
LINE
  5
26B0
  8
0
 10
110.5
 20
37.7999999999999972
 30
0.0
 11
111.0
 21
38.1999999999999886
 31
0.0
  0
LINE
  5
26B1
  8
0
 10
111.0
 20
37.3999999999999915
 30
0.0
 11
110.5
 21
37.7999999999999972
 31
0.0
  0
LINE
  5
26B2
  8
0
 10
110.5
 20
36.9999999999999929
 30
0.0
 11
111.0
 21
37.3999999999999915
 31
0.0
  0
LINE
  5
26B3
  8
0
 10
110.8262627195999954
 20
36.7389898243999866
 30
0.0
 11
110.5
 21
36.9999999999999929
 31
0.0
  0
LINE
  5
26B4
  8
0
 10
110.5
 20
36.1999999999999886
 30
0.0
 11
110.7896333393999981
 21
36.4317066715999971
 31
0.0
  0
LINE
  5
26B5
  8
0
 10
110.9607898147998952
 20
35.8313681481999993
 30
0.0
 11
110.5
 21
36.1999999999999886
 31
0.0
  0
LINE
  5
26B6
  8
0
 10
111.0
 20
35.7999999999999972
 30
0.0
 11
110.9607898147998952
 21
35.8313681481999993
 31
0.0
  0
LINE
  5
26B7
  8
0
 10
110.5
 20
35.3999999999999915
 30
0.0
 11
111.0
 21
35.7999999999999972
 31
0.0
  0
LINE
  5
26B8
  8
0
 10
110.6906729373999951
 20
35.2474616500999929
 30
0.0
 11
110.5
 21
35.3999999999999915
 31
0.0
  0
LINE
  5
26B9
  8
0
 10
110.7088179572628945
 20
35.2329456342005969
 30
0.0
 11
110.6948891377000024
 21
35.2440886899000034
 31
0.0
  0
LINE
  5
26BA
  8
0
 10
110.6948891377000024
 20
42.7559113101999912
 30
0.0
 11
110.7088179572628945
 21
42.7670543657993676
 31
0.0
  0
LINE
  5
26BB
  8
0
 10
111.0
 20
39.7999999999999972
 30
0.0
 11
110.7668346539000055
 21
39.6134677231000012
 31
0.0
  0
LINE
  5
26BC
  8
0
 10
110.7668346539000055
 20
38.3865322769999935
 30
0.0
 11
111.0
 21
38.1999999999999886
 31
0.0
  0
LINE
  5
26BD
  8
0
 10
110.8019381803999011
 20
39.1584494556999871
 30
0.0
 11
111.0
 21
38.9999999999999787
 31
0.0
  0
LINE
  5
26BE
  8
0
 10
111.0
 20
38.9999999999999787
 30
0.0
 11
110.8019381803999011
 21
38.8415505442999915
 31
0.0
  0
LINE
  5
26BF
  8
0
 10
111.0
 20
36.6000000000000014
 30
0.0
 11
110.7896333393999981
 21
36.4317066715999971
 31
0.0
  0
LINE
  5
26C0
  8
0
 10
110.8262627195999954
 20
36.7389898243999866
 30
0.0
 11
111.0
 21
36.6000000000000014
 31
0.0
  0
LINE
  5
26C1
  8
0
 10
110.7896280284000028
 20
41.568297577300001
 30
0.0
 11
111.0
 21
41.3999999999999915
 31
0.0
  0
LINE
  5
26C2
  8
0
 10
111.0
 20
41.3999999999999915
 30
0.0
 11
110.8262627195999954
 21
41.2610101756999867
 31
0.0
  0
LINE
  5
26C3
  8
0
 10
110.9607898147998952
 20
42.1686318519000025
 30
0.0
 11
110.8098038974000019
 21
42.047843117899987
 31
0.0
  0
LINE
  5
26C4
  8
0
 10
110.6948891377000024
 20
42.7559113101999912
 30
0.0
 11
110.6906729373999951
 21
42.7525383498999929
 31
0.0
  0
LINE
  5
26C5
  8
0
 10
110.6906729373999951
 20
35.2474616500999929
 30
0.0
 11
110.6948891377000024
 21
35.2440886899000034
 31
0.0
  0
ARC
  5
26C6
  8
0
 10
108.7411286003999038
 20
86.9999999999999716
 30
0.0
 40
4.2500000000000009
 50
60.9558679203999674
 51
69.2048049507280041
  0
ARC
  5
26C7
  8
0
 10
108.7411286003999038
 20
86.9999999999999716
 30
0.0
 40
4.2500000000000009
 50
290.7951950492720243
 51
299.0441320796001037
  0
LINE
  5
26C8
  8
0
 10
110.6906729373999951
 20
86.5754616500999816
 30
0.0
 11
110.6599999999999966
 21
86.5999999999999943
 31
0.0
  0
LINE
  5
26C9
  8
0
 10
110.6599999999999966
 20
84.9999999999999858
 30
0.0
 11
110.9607898147998952
 21
85.2406318519000052
 31
0.0
  0
LINE
  5
26CA
  8
0
 10
110.8098038974000019
 20
84.8801568820999819
 30
0.0
 11
110.6599999999999966
 21
84.9999999999999858
 31
0.0
  0
LINE
  5
26CB
  8
0
 10
110.6599999999999966
 20
84.1999999999999886
 30
0.0
 11
110.7896280284000028
 21
84.3037024226999847
 31
0.0
  0
LINE
  5
26CC
  8
0
 10
110.8262627195999954
 20
84.0669898243999967
 30
0.0
 11
110.6599999999999966
 21
84.1999999999999886
 31
0.0
  0
LINE
  5
26CD
  8
0
 10
110.7668346539000055
 20
83.3145322769999837
 30
0.0
 11
110.6940754459998999
 21
83.3727396431999921
 31
0.0
  0
LINE
  5
26CE
  8
0
 10
110.8044319975766001
 20
83.2844544019485369
 30
0.0
 11
110.8019381803999011
 21
83.2864494556999944
 31
0.0
  0
LINE
  5
26CF
  8
0
 10
110.8019381803999011
 20
90.7135505442999772
 30
0.0
 11
110.8044319975766001
 21
90.7155455980514063
 31
0.0
  0
LINE
  5
26D0
  8
0
 10
110.6940754459998999
 20
90.6272603567999937
 30
0.0
 11
110.7668346539000055
 21
90.6854677231000039
 31
0.0
  0
LINE
  5
26D1
  8
0
 10
110.6599999999999966
 20
89.7999999999999829
 30
0.0
 11
110.8262627195999954
 21
89.9330101756999909
 31
0.0
  0
LINE
  5
26D2
  8
0
 10
110.7896280284000028
 20
89.6962975772999869
 30
0.0
 11
110.6599999999999966
 21
89.7999999999999829
 31
0.0
  0
LINE
  5
26D3
  8
0
 10
110.6599999999999966
 20
88.9999999999999574
 30
0.0
 11
110.8098038974000019
 21
89.1198431178999755
 31
0.0
  0
LINE
  5
26D4
  8
0
 10
110.9607898147998952
 20
88.7593681481999965
 30
0.0
 11
110.6599999999999966
 21
88.9999999999999574
 31
0.0
  0
LINE
  5
26D5
  8
0
 10
110.6599999999999966
 20
87.3999999999999773
 30
0.0
 11
110.6906729373999951
 21
87.4245383499000042
 31
0.0
  0
LINE
  5
26D6
  8
0
 10
110.6948891377000024
 20
87.3720886898999964
 30
0.0
 11
110.6599999999999966
 21
87.3999999999999773
 31
0.0
  0
LINE
  5
26D7
  8
0
 10
110.6599999999999966
 20
86.5999999999999943
 30
0.0
 11
110.6948891377000024
 21
86.6279113101999769
 31
0.0
  0
LINE
  5
26D8
  8
0
 10
111.0
 20
88.4719999999999942
 30
0.0
 11
111.0
 21
88.7279999999999802
 31
0.0
  0
LINE
  5
26D9
  8
0
 10
110.6599999999999966
 20
88.1999999999999744
 30
0.0
 11
111.0
 21
88.4719999999999942
 31
0.0
  0
LINE
  5
26DA
  8
0
 10
111.0
 20
87.9279999999999688
 30
0.0
 11
110.6599999999999966
 21
88.1999999999999744
 31
0.0
  0
LINE
  5
26DB
  8
0
 10
111.0
 20
87.6719999999999686
 30
0.0
 11
111.0
 21
87.9279999999999688
 31
0.0
  0
LINE
  5
26DC
  8
0
 10
110.6906729373999951
 20
87.4245383499000042
 30
0.0
 11
111.0
 21
87.6719999999999686
 31
0.0
  0
LINE
  5
26DD
  8
0
 10
111.0
 20
87.1279999999999859
 30
0.0
 11
110.6948891377000024
 21
87.3720886898999964
 31
0.0
  0
LINE
  5
26DE
  8
0
 10
111.0
 20
86.8719999999999857
 30
0.0
 11
111.0
 21
87.1279999999999859
 31
0.0
  0
LINE
  5
26DF
  8
0
 10
110.6948891377000024
 20
86.6279113101999769
 30
0.0
 11
111.0
 21
86.8719999999999857
 31
0.0
  0
LINE
  5
26E0
  8
0
 10
111.0
 20
86.3279999999999745
 30
0.0
 11
110.6906729373999951
 21
86.5754616500999816
 31
0.0
  0
LINE
  5
26E1
  8
0
 10
111.0
 20
86.0719999999999743
 30
0.0
 11
111.0
 21
86.3279999999999745
 31
0.0
  0
LINE
  5
26E2
  8
0
 10
110.6599999999999966
 20
85.7999999999999829
 30
0.0
 11
111.0
 21
86.0719999999999743
 31
0.0
  0
LINE
  5
26E3
  8
0
 10
111.0
 20
85.5279999999999916
 30
0.0
 11
110.6599999999999966
 21
85.7999999999999829
 31
0.0
  0
LINE
  5
26E4
  8
0
 10
111.0
 20
89.5279999999999916
 30
0.0
 11
110.7896280284000028
 21
89.6962975772999869
 31
0.0
  0
LINE
  5
26E5
  8
0
 10
111.0
 20
89.2719999999999914
 30
0.0
 11
111.0
 21
89.5279999999999916
 31
0.0
  0
LINE
  5
26E6
  8
0
 10
110.8098038974000019
 20
89.1198431178999755
 30
0.0
 11
111.0
 21
89.2719999999999914
 31
0.0
  0
LINE
  5
26E7
  8
0
 10
111.0
 20
88.7279999999999802
 30
0.0
 11
110.9607898147998952
 21
88.7593681481999965
 31
0.0
  0
LINE
  5
26E8
  8
0
 10
111.0
 20
85.2719999999999771
 30
0.0
 11
111.0
 21
85.5279999999999916
 31
0.0
  0
LINE
  5
26E9
  8
0
 10
110.9607898147998952
 20
85.2406318519000052
 30
0.0
 11
111.0
 21
85.2719999999999771
 31
0.0
  0
LINE
  5
26EA
  8
0
 10
111.0
 20
84.727999999999966
 30
0.0
 11
110.8098038974000019
 21
84.8801568820999819
 31
0.0
  0
LINE
  5
26EB
  8
0
 10
111.0
 20
84.47199999999998
 30
0.0
 11
111.0
 21
84.727999999999966
 31
0.0
  0
LINE
  5
26EC
  8
0
 10
110.7896280284000028
 20
84.3037024226999847
 30
0.0
 11
111.0
 21
84.47199999999998
 31
0.0
  0
LINE
  5
26ED
  8
0
 10
111.0
 20
90.0719999999999743
 30
0.0
 11
111.0
 21
90.3279999999999745
 31
0.0
  0
LINE
  5
26EE
  8
0
 10
110.8262627195999954
 20
89.9330101756999909
 30
0.0
 11
111.0
 21
90.0719999999999743
 31
0.0
  0
LINE
  5
26EF
  8
0
 10
111.0
 20
83.9279999999999688
 30
0.0
 11
110.8262627195999954
 21
84.0669898243999967
 31
0.0
  0
LINE
  5
26F0
  8
0
 10
110.6599999999999966
 20
90.5999999999999943
 30
0.0
 11
110.6940754459998999
 21
90.6272603567999937
 31
0.0
  0
LINE
  5
26F1
  8
0
 10
111.0
 20
90.3279999999999745
 30
0.0
 11
110.6599999999999966
 21
90.5999999999999943
 31
0.0
  0
LINE
  5
26F2
  8
0
 10
111.0
 20
83.6719999999999544
 30
0.0
 11
111.0
 21
83.9279999999999688
 31
0.0
  0
LINE
  5
26F3
  8
0
 10
110.6599999999999966
 20
83.3999999999999773
 30
0.0
 11
111.0
 21
83.6719999999999544
 31
0.0
  0
LINE
  5
26F4
  8
0
 10
110.6940754459998999
 20
83.3727396431999921
 30
0.0
 11
110.6599999999999966
 21
83.3999999999999773
 31
0.0
  0
LINE
  5
26F5
  8
0
 10
110.7668346539000055
 20
90.6854677231000039
 30
0.0
 11
110.8019381803999011
 21
90.7135505442999772
 31
0.0
  0
LINE
  5
26F6
  8
0
 10
110.8019381803999011
 20
83.2864494556999944
 30
0.0
 11
110.7668346539000055
 21
83.3145322769999837
 31
0.0
  0
LINE
  5
28FF
  8
0
 10
146.3218385842999965
 20
40.2000000000000028
 30
0.0
 11
153.6781614155999875
 21
40.2000000000000028
 31
0.0
  0
ARC
  5
2900
  8
0
 10
152.1394908083979089
 20
40.6184687984735717
 30
0.0
 40
1.5945605578853299
 50
338.9118448174497757
 51
344.7853932660838154
  0
ARC
  5
2901
  8
0
 10
147.8792563581797026
 20
40.624614931354543
 30
0.0
 40
1.6142639072734619
 50
195.2504832359923057
 51
201.0522787471136894
  0
LINE
  5
2902
  8
0
 10
146.6880713474000117
 20
37.0
 30
0.0
 11
153.3119286525000007
 21
37.0
 31
0.0
  0
ARC
  5
2903
  8
0
 10
151.0164767110150876
 20
39.9268452456198872
 30
0.0
 40
3.719613247029169
 50
301.0142160266779001
 51
308.1062077875499199
  0
ARC
  5
2904
  8
0
 10
148.9956475613751081
 20
39.9444465167389495
 30
0.0
 40
3.7409455052486091
 50
231.9140384308732052
 51
238.9655377549036928
  0
ARC
  5
2905
  8
0
 10
151.9490585630439909
 20
36.9129554999505274
 30
0.0
 40
1.3656469623305629
 50
3.654433181643848
 51
20.8939972329828407
  0
ARC
  5
2906
  8
0
 10
148.0419094905537918
 20
36.9149205249424099
 30
0.0
 40
1.3565088407136581
 50
159.0474889669856111
 51
176.4040805910373138
  0
ARC
  5
2907
  8
0
 10
148.6297206249163878
 20
39.9583629437169776
 30
0.0
 40
3.159881344324579
 50
223.0825917578573012
 51
234.0606686792889093
  0
LINE
  5
2908
  8
0
 10
146.3218385842999965
 20
37.8000000000000114
 30
0.0
 11
153.6781614155999875
 21
37.8000000000000114
 31
0.0
  0
ARC
  5
2909
  8
0
 10
151.3996660627728943
 20
39.92506354168043
 30
0.0
 40
3.1156758703423981
 50
305.8612081060742867
 51
316.9955314693319792
  0
LINE
  5
290A
  8
0
 10
153.328000000000003
 20
39.0
 30
0.0
 11
153.5999999999999091
 21
39.2720000000000127
 31
0.0
  0
LINE
  5
290B
  8
0
 10
153.5999999999999091
 20
38.7280000000000086
 30
0.0
 11
153.5999999999999091
 21
39.2720000000000127
 31
0.0
  0
LINE
  5
290C
  8
0
 10
153.5999999999999091
 20
38.7280000000000086
 30
0.0
 11
153.328000000000003
 21
39.0
 31
0.0
  0
LINE
  5
290D
  8
0
 10
152.8000000000000114
 20
39.2720000000000127
 30
0.0
 11
153.0720000000000027
 21
39.0
 31
0.0
  0
LINE
  5
290E
  8
0
 10
153.0720000000000027
 20
39.0
 30
0.0
 11
152.8000000000000114
 21
38.7280000000000086
 31
0.0
  0
LINE
  5
290F
  8
0
 10
152.8000000000000114
 20
38.7280000000000086
 30
0.0
 11
152.8000000000000114
 21
39.2720000000000127
 31
0.0
  0
LINE
  5
2910
  8
0
 10
146.1517703551000125
 20
38.6000000000000085
 30
0.0
 11
153.8482296448
 21
38.6000000000000085
 31
0.0
  0
ARC
  5
2911
  8
0
 10
151.8707391451347064
 20
39.9389855575090422
 30
0.0
 40
2.3881689637637309
 50
319.4538690555618814
 51
325.8975398310374203
  0
ARC
  5
2912
  8
0
 10
148.1125512728659999
 20
39.9262450662340314
 30
0.0
 40
2.3671898494175139
 50
214.073876260817002
 51
220.5747148525884995
  0
LINE
  5
2913
  8
0
 10
146.671999999999997
 20
39.0
 30
0.0
 11
146.9279999999999973
 21
39.0
 31
0.0
  0
LINE
  5
2914
  8
0
 10
147.1999999999999886
 20
38.7280000000000086
 30
0.0
 11
146.9279999999999973
 21
39.0
 31
0.0
  0
LINE
  5
2915
  8
0
 10
147.4720000000000084
 20
39.0
 30
0.0
 11
147.1999999999999886
 21
38.7280000000000086
 31
0.0
  0
LINE
  5
2916
  8
0
 10
147.4720000000000084
 20
39.0
 30
0.0
 11
147.7280000000000086
 21
39.0
 31
0.0
  0
LINE
  5
2917
  8
0
 10
148.0
 20
38.7280000000000086
 30
0.0
 11
147.7280000000000086
 21
39.0
 31
0.0
  0
LINE
  5
2918
  8
0
 10
148.2719999999999914
 20
39.0
 30
0.0
 11
148.0
 21
38.7280000000000086
 31
0.0
  0
LINE
  5
2919
  8
0
 10
148.2719999999999914
 20
39.0
 30
0.0
 11
148.5279999999999063
 21
39.0
 31
0.0
  0
LINE
  5
291A
  8
0
 10
148.8000000000000114
 20
38.7280000000000086
 30
0.0
 11
148.5279999999999063
 21
39.0
 31
0.0
  0
LINE
  5
291B
  8
0
 10
149.0720000000000027
 20
39.0
 30
0.0
 11
148.8000000000000114
 21
38.7280000000000086
 31
0.0
  0
LINE
  5
291C
  8
0
 10
149.0720000000000027
 20
39.0
 30
0.0
 11
149.328000000000003
 21
39.0
 31
0.0
  0
LINE
  5
291D
  8
0
 10
149.5999999999999091
 20
38.7280000000000086
 30
0.0
 11
149.328000000000003
 21
39.0
 31
0.0
  0
LINE
  5
291E
  8
0
 10
149.8720000000000141
 20
39.0
 30
0.0
 11
149.5999999999999091
 21
38.7280000000000086
 31
0.0
  0
LINE
  5
291F
  8
0
 10
149.8720000000000141
 20
39.0
 30
0.0
 11
150.1279999999999859
 21
39.0
 31
0.0
  0
LINE
  5
2920
  8
0
 10
150.4000000000000057
 20
38.7280000000000086
 30
0.0
 11
150.1279999999999859
 21
39.0
 31
0.0
  0
LINE
  5
2921
  8
0
 10
150.6719999999999118
 20
39.0
 30
0.0
 11
150.4000000000000057
 21
38.7280000000000086
 31
0.0
  0
LINE
  5
2922
  8
0
 10
150.6719999999999118
 20
39.0
 30
0.0
 11
150.9279999999999973
 21
39.0
 31
0.0
  0
LINE
  5
2923
  8
0
 10
151.1999999999999886
 20
38.7280000000000086
 30
0.0
 11
150.9279999999999973
 21
39.0
 31
0.0
  0
LINE
  5
2924
  8
0
 10
151.4720000000000084
 20
39.0
 30
0.0
 11
151.1999999999999886
 21
38.7280000000000086
 31
0.0
  0
LINE
  5
2925
  8
0
 10
151.4720000000000084
 20
39.0
 30
0.0
 11
151.7280000000000086
 21
39.0
 31
0.0
  0
LINE
  5
2926
  8
0
 10
152.0
 20
38.7280000000000086
 30
0.0
 11
151.7280000000000086
 21
39.0
 31
0.0
  0
LINE
  5
2927
  8
0
 10
152.2719999999999914
 20
39.0
 30
0.0
 11
152.0
 21
38.7280000000000086
 31
0.0
  0
LINE
  5
2928
  8
0
 10
152.2719999999999914
 20
39.0
 30
0.0
 11
152.5279999999999063
 21
39.0
 31
0.0
  0
LINE
  5
2929
  8
0
 10
152.8000000000000114
 20
38.7280000000000086
 30
0.0
 11
152.5279999999999063
 21
39.0
 31
0.0
  0
LINE
  5
292A
  8
0
 10
153.0720000000000027
 20
39.0
 30
0.0
 11
153.328000000000003
 21
39.0
 31
0.0
  0
LINE
  5
292B
  8
0
 10
153.7135505443000056
 20
38.8415505443000129
 30
0.0
 11
153.5999999999999091
 21
38.7280000000000086
 31
0.0
  0
ARC
  5
292C
  8
0
 10
152.0373596868847983
 20
37.7486511658713084
 30
0.0
 40
2.0010109549554929
 50
25.1797426710120398
 51
33.1049006213216686
  0
ARC
  5
292D
  8
0
 10
148.4730175100966107
 20
37.4640848767066004
 30
0.0
 40
2.584277756338579
 50
147.7904267736142003
 51
153.9249298978836862
  0
LINE
  5
292E
  8
0
 10
146.4000000000000057
 20
38.7280000000000086
 30
0.0
 11
146.2864494556999944
 21
38.8415505443000129
 31
0.0
  0
LINE
  5
292F
  8
0
 10
146.671999999999997
 20
39.0
 30
0.0
 11
146.4000000000000057
 21
38.7280000000000086
 31
0.0
  0
ARC
  5
2930
  8
0
 10
148.0473412350436888
 20
41.0862612264816391
 30
0.0
 40
1.362004268219863
 50
183.631203270676906
 51
200.9172271713003113
  0
LINE
  5
2931
  8
0
 10
146.6880713474000117
 20
41.0
 30
0.0
 11
153.3119286525000007
 21
41.0
 31
0.0
  0
ARC
  5
2932
  8
0
 10
151.965281816067403
 20
41.0835149061268226
 30
0.0
 40
1.349234020331304
 50
339.0003331070229819
 51
356.4512364783499265
  0
LINE
  5
2933
  8
0
 10
146.1517703551000125
 20
39.4000000000000128
 30
0.0
 11
153.8482296448
 21
39.4000000000000128
 31
0.0
  0
ARC
  5
2934
  8
0
 10
152.0512053057742037
 20
40.2436290605994316
 30
0.0
 40
1.9851968332986709
 50
326.8634823571102856
 51
334.8518743505525777
  0
LINE
  5
2935
  8
0
 10
153.5999999999999091
 20
39.2720000000000127
 30
0.0
 11
153.7135505443000056
 21
39.1584494557000085
 31
0.0
  0
LINE
  5
2936
  8
0
 10
152.5279999999999063
 20
39.0
 30
0.0
 11
152.8000000000000114
 21
39.2720000000000127
 31
0.0
  0
LINE
  5
2937
  8
0
 10
152.0
 20
39.2720000000000127
 30
0.0
 11
152.2719999999999914
 21
39.0
 31
0.0
  0
LINE
  5
2938
  8
0
 10
151.7280000000000086
 20
39.0
 30
0.0
 11
152.0
 21
39.2720000000000127
 31
0.0
  0
LINE
  5
2939
  8
0
 10
151.1999999999999886
 20
39.2720000000000127
 30
0.0
 11
151.4720000000000084
 21
39.0
 31
0.0
  0
LINE
  5
293A
  8
0
 10
150.9279999999999973
 20
39.0
 30
0.0
 11
151.1999999999999886
 21
39.2720000000000127
 31
0.0
  0
LINE
  5
293B
  8
0
 10
150.4000000000000057
 20
39.2720000000000127
 30
0.0
 11
150.6719999999999118
 21
39.0
 31
0.0
  0
LINE
  5
293C
  8
0
 10
150.1279999999999859
 20
39.0
 30
0.0
 11
150.4000000000000057
 21
39.2720000000000127
 31
0.0
  0
LINE
  5
293D
  8
0
 10
149.5999999999999091
 20
39.2720000000000127
 30
0.0
 11
149.8720000000000141
 21
39.0
 31
0.0
  0
LINE
  5
293E
  8
0
 10
149.328000000000003
 20
39.0
 30
0.0
 11
149.5999999999999091
 21
39.2720000000000127
 31
0.0
  0
LINE
  5
293F
  8
0
 10
148.8000000000000114
 20
39.2720000000000127
 30
0.0
 11
149.0720000000000027
 21
39.0
 31
0.0
  0
LINE
  5
2940
  8
0
 10
148.5279999999999063
 20
39.0
 30
0.0
 11
148.8000000000000114
 21
39.2720000000000127
 31
0.0
  0
LINE
  5
2941
  8
0
 10
148.0
 20
39.2720000000000127
 30
0.0
 11
148.2719999999999914
 21
39.0
 31
0.0
  0
LINE
  5
2942
  8
0
 10
147.7280000000000086
 20
39.0
 30
0.0
 11
148.0
 21
39.2720000000000127
 31
0.0
  0
LINE
  5
2943
  8
0
 10
147.1999999999999886
 20
39.2720000000000127
 30
0.0
 11
147.4720000000000084
 21
39.0
 31
0.0
  0
LINE
  5
2944
  8
0
 10
146.9279999999999973
 20
39.0
 30
0.0
 11
147.1999999999999886
 21
39.2720000000000127
 31
0.0
  0
LINE
  5
2945
  8
0
 10
146.4000000000000057
 20
39.2720000000000127
 30
0.0
 11
146.671999999999997
 21
39.0
 31
0.0
  0
LINE
  5
2946
  8
0
 10
146.2864494556999944
 20
39.1584494557000085
 30
0.0
 11
146.4000000000000057
 21
39.2720000000000127
 31
0.0
  0
ARC
  5
2947
  8
0
 10
148.0803574408506904
 20
40.3169832839103677
 30
0.0
 40
2.1354874128159351
 50
205.4296368751712976
 51
212.8550064533266948
  0
ARC
  5
2948
  8
0
 10
151.8624096276446096
 20
38.0546634677417615
 30
0.0
 40
2.3986270084287158
 50
34.1165221264183103
 51
40.5320689611112996
  0
ARC
  5
2949
  8
0
 10
148.1837196110714103
 20
38.0194914827142085
 30
0.0
 40
2.456546670662175
 50
139.5436392216909951
 51
145.8077696908030987
  0
ARC
  5
294A
  8
0
 10
151.4008795386183976
 20
38.0763115033655382
 30
0.0
 40
3.113850603026195
 50
43.0011948711675913
 51
54.1420655534392665
  0
ARC
  5
294B
  8
0
 10
148.5989369662198101
 20
38.0765194295666518
 30
0.0
 40
3.1135745974603091
 50
125.8574390815094972
 51
136.9993004813449886
  0
ARC
  5
294C
  8
0
 10
151.0068870190536927
 20
38.0592330321978025
 30
0.0
 40
3.7364859548561311
 50
51.9098250575241522
 51
58.9697511077182526
  0
ARC
  5
294D
  8
0
 10
148.9616783604496106
 20
38.1048678755540777
 30
0.0
 40
3.681179005126912
 50
120.9771451191538034
 51
128.1432787155916913
  0
ARC
  5
294E
  8
0
 10
152.0821911025641953
 20
37.3627458801734633
 30
0.0
 40
1.654784700617254
 50
15.3215761699795401
 51
20.9811857464887304
  0
ARC
  5
294F
  8
0
 10
147.9106980865755077
 20
37.365077110439131
 30
0.0
 40
1.6473106682819041
 50
159.0059645584377108
 51
164.6912734584518034
  0
ARC
  5
2950
  8
0
 10
149.9697960333357116
 20
36.8788238555518006
 30
0.0
 40
5.8869364847707093
 50
93.6014845688001742
 51
103.6288000199966035
  0
ARC
  5
2951
  8
0
 10
149.1670476154938001
 20
41.9939843253744201
 30
0.0
 40
0.8418857423600629
 50
133.9594492986998091
 51
165.8354571098263932
  0
ARC
  5
2952
  8
0
 10
150.1442233656046881
 20
35.6945841333899523
 30
0.0
 40
6.7481074763947468
 50
105.412897099895801
 51
106.3851403238635953
  0
ARC
  5
2953
  8
0
 10
147.8388587608498881
 20
40.9230367001622781
 30
0.0
 40
1.308789096319221
 50
72.1226281699818088
 51
82.9276610353987138
  0
ARC
  5
2954
  8
0
 10
151.1105462045298964
 20
39.9514951131423075
 30
0.0
 40
3.850985605208181
 50
143.8744730847670894
 51
147.0186089465078965
  0
ARC
  5
2955
  8
0
 10
149.5069323712872063
 20
37.7022736959112521
 30
0.0
 40
4.6400831989894238
 50
110.5235213673576027
 51
117.9795825233820068
  0
ARC
  5
2956
  8
0
 10
148.3728066703012871
 20
41.5642766909074695
 30
0.0
 40
1.069111808823844
 50
167.2624684892653875
 51
179.7845123761518948
  0
ARC
  5
2957
  8
0
 10
147.362102234118197
 20
40.5111025929685979
 30
0.0
 40
1.058806768428121
 50
93.1618249120369484
 51
98.8065598184572877
  0
ARC
  5
2958
  8
0
 10
151.4298471608192926
 20
39.4813297306550197
 30
0.0
 40
4.7118771869920373
 50
153.8572326022037089
 51
157.8086538627406981
  0
ARC
  5
2959
  8
0
 10
152.3245119806815921
 20
39.0218843277912271
 30
0.0
 40
6.039025331414984
 50
170.2485620492705891
 51
174.3782852140674891
  0
ARC
  5
295A
  8
0
 10
152.4831261935379985
 20
39.0000000000000213
 30
0.0
 40
6.1987021886258562
 50
178.5352621014548049
 51
181.4647378985451951
  0
ARC
  5
295B
  8
0
 10
152.3265152330081094
 20
38.9783860445128525
 30
0.0
 40
6.0410454349105489
 50
185.6224055647940077
 51
189.7507471683439064
  0
ARC
  5
295C
  8
0
 10
151.7383346945671008
 20
38.6570969242378126
 30
0.0
 40
5.0498116542519558
 50
202.3236083916283121
 51
206.0105051434267978
  0
ARC
  5
295D
  8
0
 10
147.3556682805748892
 20
37.4279292237067196
 30
0.0
 40
0.9975767550137044
 50
261.0225098266092232
 51
267.0142359667844971
  0
ARC
  5
295E
  8
0
 10
148.3700652431672893
 20
36.435392479587513
 30
0.0
 40
1.0663649415414691
 50
180.1980388270904996
 51
192.7526702668172902
  0
ARC
  5
295F
  8
0
 10
149.5033869934107997
 20
40.2898564262949321
 30
0.0
 40
4.6314698887043599
 50
242.0134744965671132
 51
249.4834216126841966
  0
ARC
  5
2960
  8
0
 10
151.0938468407053108
 20
38.0370047764458192
 30
0.0
 40
3.8307171512131371
 50
212.9730710843386134
 51
216.1338468843555063
  0
ARC
  5
2961
  8
0
 10
147.8361365254610007
 20
37.0892680603808031
 30
0.0
 40
1.321335936881463
 50
277.1237893704027897
 51
287.825921469633272
  0
ARC
  5
2962
  8
0
 10
150.4628568253880019
 20
43.424060008053452
 30
0.0
 40
7.9112106223966814
 50
253.6863303957954088
 51
254.5156320841579998
  0
ARC
  5
2963
  8
0
 10
149.1682470744754028
 20
36.0067110479111179
 30
0.0
 40
0.8432189830941627
 50
194.1904120691390858
 51
226.0146815223378098
  0
ARC
  5
2964
  8
0
 10
149.9700817775405142
 20
41.1230621724916503
 30
0.0
 40
5.8888367397743648
 50
256.3728219711875909
 51
266.3968934511657949
  0
ARC
  5
2965
  8
0
 10
149.9999999999560885
 20
41.4306317759993306
 30
0.0
 40
6.1976875223663264
 50
266.2995468200682012
 51
273.7004531807443755
  0
ARC
  5
2966
  8
0
 10
150.0301762371697976
 20
41.1213591740996023
 30
0.0
 40
5.8871208947389491
 50
273.6016420143914729
 51
283.6286425626269079
  0
ARC
  5
2967
  8
0
 10
150.8327261751173864
 20
36.0061468168516825
 30
0.0
 40
0.8421371687357831
 50
313.9643343176520034
 51
345.8305721123222156
  0
ARC
  5
2968
  8
0
 10
149.9538834942626124
 20
41.9609866506370324
 30
0.0
 40
6.3899920047415213
 50
285.3856526371732798
 51
286.4123848827687766
  0
ARC
  5
2969
  8
0
 10
152.1615185252499032
 20
37.0786686673098131
 30
0.0
 40
1.310527951175946
 50
252.1298176769487895
 51
262.9204714930581872
  0
ARC
  5
296A
  8
0
 10
147.6596159821679066
 20
38.8954395819019823
 30
0.0
 40
5.3438318791489401
 50
324.3137123932203849
 51
326.5793696723650896
  0
ARC
  5
296B
  8
0
 10
150.4732212797605087
 20
40.3417803800253623
 30
0.0
 40
4.6883001109820173
 50
290.5619157253286176
 51
297.9411881504589132
  0
ARC
  5
296C
  8
0
 10
151.6366249635642021
 20
36.4346526269964812
 30
0.0
 40
1.0596767205175499
 50
347.2064959986781787
 51
359.8404848667703959
  0
ARC
  5
296D
  8
0
 10
152.6423975981697083
 20
37.4459704300157483
 30
0.0
 40
1.0156991672805831
 50
273.0419367485255862
 51
278.9264480913315083
  0
ARC
  5
296E
  8
0
 10
148.5242474269103923
 20
38.5392692613125902
 30
0.0
 40
4.762162851604697
 50
333.8781031135487751
 51
337.787783383553915
  0
ARC
  5
296F
  8
0
 10
147.6780743293527109
 20
38.9777666048376901
 30
0.0
 40
6.0364172665953868
 50
350.2476695430289055
 51
354.3791777499254181
  0
ARC
  5
2970
  8
0
 10
147.4224150252175889
 20
39.0000000000000071
 30
0.0
 40
6.2931305682840923
 50
358.5572451651613051
 51
1.4427548348385111
  0
ARC
  5
2971
  8
0
 10
147.6757653744037952
 20
39.021921762896973
 30
0.0
 40
6.0387456430748196
 50
5.6216190961470822
 51
9.7515336144231561
  0
ARC
  5
2972
  8
0
 10
148.1180643999674942
 20
39.2784654882994673
 30
0.0
 40
5.2071284082323848
 50
22.3793206434535392
 51
25.9547928594343489
  0
ARC
  5
2973
  8
0
 10
152.6412674498961053
 20
40.5432483059373681
 30
0.0
 40
1.0265253643447789
 50
81.1046091857352565
 51
86.9270060837014711
  0
ARC
  5
2974
  8
0
 10
151.6283547562692888
 20
41.5644085364238407
 30
0.0
 40
1.0679499022097809
 50
0.2086484774147361
 51
12.7443706571396707
  0
ARC
  5
2975
  8
0
 10
150.4984903426305891
 20
37.714310803753861
 30
0.0
 40
4.6269090265124673
 50
62.009787606310951
 51
69.4871085029437552
  0
ARC
  5
2976
  8
0
 10
149.029103568754806
 20
40.0476657115239902
 30
0.0
 40
3.6814916294386788
 50
32.9089944141826933
 51
36.1979235545305826
  0
ARC
  5
2977
  8
0
 10
152.1636270670396129
 20
40.9118005208800994
 30
0.0
 40
1.320246290725948
 50
97.1193600145513898
 51
107.8303507700057935
  0
ARC
  5
2978
  8
0
 10
150.1698111767865953
 20
36.7970826249444372
 30
0.0
 40
5.6018061786051296
 50
73.5153811199732274
 51
74.6865814563300034
  0
ARC
  5
2979
  8
0
 10
150.8329719541825966
 20
41.9939956708854112
 30
0.0
 40
0.8418639912564435
 50
14.1641201325534407
 51
46.0409734374715072
  0
ARC
  5
297A
  8
0
 10
150.0302178534570032
 20
36.8789155136875593
 30
0.0
 40
5.8868441353338454
 50
76.3711211274822972
 51
86.3985942841857337
  0
ARC
  5
297B
  8
0
 10
149.9999999999674003
 20
36.57691386251566
 30
0.0
 40
6.1901576349525911
 50
86.295039200065176
 51
93.7049607993342875
  0
LINE
  5
297C
  8
0
 10
147.3300053558999991
 20
36.2000000000000028
 30
0.0
 11
152.6699946441000009
 21
36.2000000000000028
 31
0.0
  0
LINE
  5
297D
  8
0
 10
152.0
 20
38.7280000000000086
 30
0.0
 11
152.0
 21
39.2720000000000127
 31
0.0
  0
LINE
  5
297E
  8
0
 10
151.1999999999999886
 20
38.7280000000000086
 30
0.0
 11
151.1999999999999886
 21
39.2720000000000127
 31
0.0
  0
LINE
  5
297F
  8
0
 10
148.582653394700003
 20
35.4000000000000128
 30
0.0
 11
151.417346605299997
 21
35.4000000000000128
 31
0.0
  0
LINE
  5
2980
  8
0
 10
152.8000000000000114
 20
36.442573060400008
 30
0.0
 11
152.8000000000000114
 21
36.8719999999999999
 31
0.0
  0
LINE
  5
2981
  8
0
 10
147.3300053558999991
 20
41.8000000000000114
 30
0.0
 11
152.6699946441000009
 21
41.8000000000000114
 31
0.0
  0
LINE
  5
2982
  8
0
 10
148.582653394700003
 20
42.6000000000000014
 30
0.0
 11
151.417346605299997
 21
42.6000000000000014
 31
0.0
  0
LINE
  5
2983
  8
0
 10
148.8000000000000114
 20
38.7280000000000086
 30
0.0
 11
148.8000000000000114
 21
39.2720000000000127
 31
0.0
  0
LINE
  5
2984
  8
0
 10
149.5999999999999091
 20
38.7280000000000086
 30
0.0
 11
149.5999999999999091
 21
39.2720000000000127
 31
0.0
  0
LINE
  5
2985
  8
0
 10
150.4000000000000057
 20
38.7280000000000086
 30
0.0
 11
150.4000000000000057
 21
39.2720000000000127
 31
0.0
  0
LINE
  5
2986
  8
0
 10
147.1999999999999886
 20
38.7280000000000086
 30
0.0
 11
147.1999999999999886
 21
39.2720000000000127
 31
0.0
  0
LINE
  5
2987
  8
0
 10
148.0
 20
38.7280000000000086
 30
0.0
 11
148.0
 21
39.2720000000000127
 31
0.0
  0
LINE
  5
2988
  8
0
 10
146.4000000000000057
 20
38.7280000000000086
 30
0.0
 11
146.4000000000000057
 21
39.2720000000000127
 31
0.0
  0
LINE
  5
2989
  8
0
 10
152.0
 20
35.7781321331000228
 30
0.0
 11
152.0
 21
36.0720000000000098
 31
0.0
  0
LINE
  5
298A
  8
0
 10
153.328000000000003
 20
38.2000000000000028
 30
0.0
 11
153.5999999999999091
 21
38.4720000000000084
 31
0.0
  0
LINE
  5
298B
  8
0
 10
153.5999999999999091
 20
37.9280000000000115
 30
0.0
 11
153.5999999999999091
 21
38.4720000000000084
 31
0.0
  0
LINE
  5
298C
  8
0
 10
153.5999999999999091
 20
37.9280000000000115
 30
0.0
 11
153.328000000000003
 21
38.2000000000000028
 31
0.0
  0
LINE
  5
298D
  8
0
 10
152.8000000000000114
 20
38.4720000000000084
 30
0.0
 11
153.0720000000000027
 21
38.2000000000000028
 31
0.0
  0
LINE
  5
298E
  8
0
 10
153.0720000000000027
 20
38.2000000000000028
 30
0.0
 11
152.8000000000000114
 21
37.9280000000000115
 31
0.0
  0
LINE
  5
298F
  8
0
 10
152.8000000000000114
 20
37.9280000000000115
 30
0.0
 11
152.8000000000000114
 21
38.4720000000000084
 31
0.0
  0
LINE
  5
2990
  8
0
 10
146.671999999999997
 20
38.2000000000000028
 30
0.0
 11
146.9279999999999973
 21
38.2000000000000028
 31
0.0
  0
LINE
  5
2991
  8
0
 10
147.1999999999999886
 20
37.9280000000000115
 30
0.0
 11
146.9279999999999973
 21
38.2000000000000028
 31
0.0
  0
LINE
  5
2992
  8
0
 10
147.4720000000000084
 20
38.2000000000000028
 30
0.0
 11
147.1999999999999886
 21
37.9280000000000115
 31
0.0
  0
LINE
  5
2993
  8
0
 10
147.4720000000000084
 20
38.2000000000000028
 30
0.0
 11
147.7280000000000086
 21
38.2000000000000028
 31
0.0
  0
LINE
  5
2994
  8
0
 10
148.0
 20
37.9280000000000115
 30
0.0
 11
147.7280000000000086
 21
38.2000000000000028
 31
0.0
  0
LINE
  5
2995
  8
0
 10
148.2719999999999914
 20
38.2000000000000028
 30
0.0
 11
148.0
 21
37.9280000000000115
 31
0.0
  0
LINE
  5
2996
  8
0
 10
148.2719999999999914
 20
38.2000000000000028
 30
0.0
 11
148.5279999999999063
 21
38.2000000000000028
 31
0.0
  0
LINE
  5
2997
  8
0
 10
148.8000000000000114
 20
37.9280000000000115
 30
0.0
 11
148.5279999999999063
 21
38.2000000000000028
 31
0.0
  0
LINE
  5
2998
  8
0
 10
149.0720000000000027
 20
38.2000000000000028
 30
0.0
 11
148.8000000000000114
 21
37.9280000000000115
 31
0.0
  0
LINE
  5
2999
  8
0
 10
149.0720000000000027
 20
38.2000000000000028
 30
0.0
 11
149.328000000000003
 21
38.2000000000000028
 31
0.0
  0
LINE
  5
299A
  8
0
 10
149.5999999999999091
 20
37.9280000000000115
 30
0.0
 11
149.328000000000003
 21
38.2000000000000028
 31
0.0
  0
LINE
  5
299B
  8
0
 10
149.8720000000000141
 20
38.2000000000000028
 30
0.0
 11
149.5999999999999091
 21
37.9280000000000115
 31
0.0
  0
LINE
  5
299C
  8
0
 10
149.8720000000000141
 20
38.2000000000000028
 30
0.0
 11
150.1279999999999859
 21
38.2000000000000028
 31
0.0
  0
LINE
  5
299D
  8
0
 10
150.4000000000000057
 20
37.9280000000000115
 30
0.0
 11
150.1279999999999859
 21
38.2000000000000028
 31
0.0
  0
LINE
  5
299E
  8
0
 10
150.6719999999999118
 20
38.2000000000000028
 30
0.0
 11
150.4000000000000057
 21
37.9280000000000115
 31
0.0
  0
LINE
  5
299F
  8
0
 10
150.6719999999999118
 20
38.2000000000000028
 30
0.0
 11
150.9279999999999973
 21
38.2000000000000028
 31
0.0
  0
LINE
  5
29A0
  8
0
 10
151.1999999999999886
 20
37.9280000000000115
 30
0.0
 11
150.9279999999999973
 21
38.2000000000000028
 31
0.0
  0
LINE
  5
29A1
  8
0
 10
151.4720000000000084
 20
38.2000000000000028
 30
0.0
 11
151.1999999999999886
 21
37.9280000000000115
 31
0.0
  0
LINE
  5
29A2
  8
0
 10
151.4720000000000084
 20
38.2000000000000028
 30
0.0
 11
151.7280000000000086
 21
38.2000000000000028
 31
0.0
  0
LINE
  5
29A3
  8
0
 10
152.0
 20
37.9280000000000115
 30
0.0
 11
151.7280000000000086
 21
38.2000000000000028
 31
0.0
  0
LINE
  5
29A4
  8
0
 10
152.2719999999999914
 20
38.2000000000000028
 30
0.0
 11
152.0
 21
37.9280000000000115
 31
0.0
  0
LINE
  5
29A5
  8
0
 10
152.2719999999999914
 20
38.2000000000000028
 30
0.0
 11
152.5279999999999063
 21
38.2000000000000028
 31
0.0
  0
LINE
  5
29A6
  8
0
 10
152.8000000000000114
 20
37.9280000000000115
 30
0.0
 11
152.5279999999999063
 21
38.2000000000000028
 31
0.0
  0
LINE
  5
29A7
  8
0
 10
153.0720000000000027
 20
38.2000000000000028
 30
0.0
 11
153.328000000000003
 21
38.2000000000000028
 31
0.0
  0
LINE
  5
29A8
  8
0
 10
153.6272603568000079
 20
37.9552603568000819
 30
0.0
 11
153.5999999999999091
 21
37.9280000000000115
 31
0.0
  0
LINE
  5
29A9
  8
0
 10
146.4000000000000057
 20
37.9280000000000115
 30
0.0
 11
146.3727396431999068
 21
37.9552603568000535
 31
0.0
  0
LINE
  5
29AA
  8
0
 10
146.671999999999997
 20
38.2000000000000028
 30
0.0
 11
146.4000000000000057
 21
37.9280000000000115
 31
0.0
  0
LINE
  5
29AB
  8
0
 10
153.5999999999999091
 20
38.4720000000000084
 30
0.0
 11
153.6854677229999879
 21
38.3865322770000219
 31
0.0
  0
LINE
  5
29AC
  8
0
 10
152.5279999999999063
 20
38.2000000000000028
 30
0.0
 11
152.8000000000000114
 21
38.4720000000000084
 31
0.0
  0
LINE
  5
29AD
  8
0
 10
152.0
 20
38.4720000000000084
 30
0.0
 11
152.2719999999999914
 21
38.2000000000000028
 31
0.0
  0
LINE
  5
29AE
  8
0
 10
151.7280000000000086
 20
38.2000000000000028
 30
0.0
 11
152.0
 21
38.4720000000000084
 31
0.0
  0
LINE
  5
29AF
  8
0
 10
151.1999999999999886
 20
38.4720000000000084
 30
0.0
 11
151.4720000000000084
 21
38.2000000000000028
 31
0.0
  0
LINE
  5
29B0
  8
0
 10
150.9279999999999973
 20
38.2000000000000028
 30
0.0
 11
151.1999999999999886
 21
38.4720000000000084
 31
0.0
  0
LINE
  5
29B1
  8
0
 10
150.4000000000000057
 20
38.4720000000000084
 30
0.0
 11
150.6719999999999118
 21
38.2000000000000028
 31
0.0
  0
LINE
  5
29B2
  8
0
 10
150.1279999999999859
 20
38.2000000000000028
 30
0.0
 11
150.4000000000000057
 21
38.4720000000000084
 31
0.0
  0
LINE
  5
29B3
  8
0
 10
149.5999999999999091
 20
38.4720000000000084
 30
0.0
 11
149.8720000000000141
 21
38.2000000000000028
 31
0.0
  0
LINE
  5
29B4
  8
0
 10
149.328000000000003
 20
38.2000000000000028
 30
0.0
 11
149.5999999999999091
 21
38.4720000000000084
 31
0.0
  0
LINE
  5
29B5
  8
0
 10
148.8000000000000114
 20
38.4720000000000084
 30
0.0
 11
149.0720000000000027
 21
38.2000000000000028
 31
0.0
  0
LINE
  5
29B6
  8
0
 10
148.5279999999999063
 20
38.2000000000000028
 30
0.0
 11
148.8000000000000114
 21
38.4720000000000084
 31
0.0
  0
LINE
  5
29B7
  8
0
 10
148.0
 20
38.4720000000000084
 30
0.0
 11
148.2719999999999914
 21
38.2000000000000028
 31
0.0
  0
LINE
  5
29B8
  8
0
 10
147.7280000000000086
 20
38.2000000000000028
 30
0.0
 11
148.0
 21
38.4720000000000084
 31
0.0
  0
LINE
  5
29B9
  8
0
 10
147.1999999999999886
 20
38.4720000000000084
 30
0.0
 11
147.4720000000000084
 21
38.2000000000000028
 31
0.0
  0
LINE
  5
29BA
  8
0
 10
146.9279999999999973
 20
38.2000000000000028
 30
0.0
 11
147.1999999999999886
 21
38.4720000000000084
 31
0.0
  0
LINE
  5
29BB
  8
0
 10
146.4000000000000057
 20
38.4720000000000084
 30
0.0
 11
146.671999999999997
 21
38.2000000000000028
 31
0.0
  0
LINE
  5
29BC
  8
0
 10
146.3145322769460961
 20
38.3865322769461628
 30
0.0
 11
146.4000000000000057
 21
38.4720000000000084
 31
0.0
  0
LINE
  5
29BD
  8
0
 10
152.0
 20
37.9280000000000115
 30
0.0
 11
152.0
 21
38.4720000000000084
 31
0.0
  0
LINE
  5
29BE
  8
0
 10
151.1999999999999886
 20
37.9280000000000115
 30
0.0
 11
151.1999999999999886
 21
38.4720000000000084
 31
0.0
  0
LINE
  5
29BF
  8
0
 10
148.8000000000000114
 20
37.9280000000000115
 30
0.0
 11
148.8000000000000114
 21
38.4720000000000084
 31
0.0
  0
LINE
  5
29C0
  8
0
 10
149.5999999999999091
 20
37.9280000000000115
 30
0.0
 11
149.5999999999999091
 21
38.4720000000000084
 31
0.0
  0
LINE
  5
29C1
  8
0
 10
150.4000000000000057
 20
37.9280000000000115
 30
0.0
 11
150.4000000000000057
 21
38.4720000000000084
 31
0.0
  0
LINE
  5
29C2
  8
0
 10
147.1999999999999886
 20
37.9280000000000115
 30
0.0
 11
147.1999999999999886
 21
38.4720000000000084
 31
0.0
  0
LINE
  5
29C3
  8
0
 10
148.0
 20
37.9280000000000115
 30
0.0
 11
148.0
 21
38.4720000000000084
 31
0.0
  0
LINE
  5
29C4
  8
0
 10
146.4000000000000057
 20
37.9280000000000115
 30
0.0
 11
146.4000000000000057
 21
38.4720000000000084
 31
0.0
  0
LINE
  5
29C5
  8
0
 10
153.328000000000003
 20
39.8000000000000114
 30
0.0
 11
153.5999999999999091
 21
40.0720000000000098
 31
0.0
  0
LINE
  5
29C6
  8
0
 10
153.5999999999999091
 20
39.52800000000002
 30
0.0
 11
153.5999999999999091
 21
40.0720000000000098
 31
0.0
  0
LINE
  5
29C7
  8
0
 10
153.5999999999999091
 20
39.52800000000002
 30
0.0
 11
153.328000000000003
 21
39.8000000000000114
 31
0.0
  0
LINE
  5
29C8
  8
0
 10
152.8000000000000114
 20
40.0720000000000098
 30
0.0
 11
153.0720000000000027
 21
39.8000000000000114
 31
0.0
  0
LINE
  5
29C9
  8
0
 10
153.0720000000000027
 20
39.8000000000000114
 30
0.0
 11
152.8000000000000114
 21
39.52800000000002
 31
0.0
  0
LINE
  5
29CA
  8
0
 10
152.8000000000000114
 20
39.52800000000002
 30
0.0
 11
152.8000000000000114
 21
40.0720000000000098
 31
0.0
  0
LINE
  5
29CB
  8
0
 10
146.671999999999997
 20
39.8000000000000114
 30
0.0
 11
146.9279999999999973
 21
39.8000000000000114
 31
0.0
  0
LINE
  5
29CC
  8
0
 10
147.1999999999999886
 20
39.52800000000002
 30
0.0
 11
146.9279999999999973
 21
39.8000000000000114
 31
0.0
  0
LINE
  5
29CD
  8
0
 10
147.4720000000000084
 20
39.8000000000000114
 30
0.0
 11
147.1999999999999886
 21
39.52800000000002
 31
0.0
  0
LINE
  5
29CE
  8
0
 10
147.4720000000000084
 20
39.8000000000000114
 30
0.0
 11
147.7280000000000086
 21
39.8000000000000114
 31
0.0
  0
LINE
  5
29CF
  8
0
 10
148.0
 20
39.52800000000002
 30
0.0
 11
147.7280000000000086
 21
39.8000000000000114
 31
0.0
  0
LINE
  5
29D0
  8
0
 10
148.2719999999999914
 20
39.8000000000000114
 30
0.0
 11
148.0
 21
39.52800000000002
 31
0.0
  0
LINE
  5
29D1
  8
0
 10
148.2719999999999914
 20
39.8000000000000114
 30
0.0
 11
148.5279999999999063
 21
39.8000000000000114
 31
0.0
  0
LINE
  5
29D2
  8
0
 10
148.8000000000000114
 20
39.52800000000002
 30
0.0
 11
148.5279999999999063
 21
39.8000000000000114
 31
0.0
  0
LINE
  5
29D3
  8
0
 10
149.0720000000000027
 20
39.8000000000000114
 30
0.0
 11
148.8000000000000114
 21
39.52800000000002
 31
0.0
  0
LINE
  5
29D4
  8
0
 10
149.0720000000000027
 20
39.8000000000000114
 30
0.0
 11
149.328000000000003
 21
39.8000000000000114
 31
0.0
  0
LINE
  5
29D5
  8
0
 10
149.5999999999999091
 20
39.52800000000002
 30
0.0
 11
149.328000000000003
 21
39.8000000000000114
 31
0.0
  0
LINE
  5
29D6
  8
0
 10
149.8720000000000141
 20
39.8000000000000114
 30
0.0
 11
149.5999999999999091
 21
39.52800000000002
 31
0.0
  0
LINE
  5
29D7
  8
0
 10
149.8720000000000141
 20
39.8000000000000114
 30
0.0
 11
150.1279999999999859
 21
39.8000000000000114
 31
0.0
  0
LINE
  5
29D8
  8
0
 10
150.4000000000000057
 20
39.52800000000002
 30
0.0
 11
150.1279999999999859
 21
39.8000000000000114
 31
0.0
  0
LINE
  5
29D9
  8
0
 10
150.6719999999999118
 20
39.8000000000000114
 30
0.0
 11
150.4000000000000057
 21
39.52800000000002
 31
0.0
  0
LINE
  5
29DA
  8
0
 10
150.6719999999999118
 20
39.8000000000000114
 30
0.0
 11
150.9279999999999973
 21
39.8000000000000114
 31
0.0
  0
LINE
  5
29DB
  8
0
 10
151.1999999999999886
 20
39.52800000000002
 30
0.0
 11
150.9279999999999973
 21
39.8000000000000114
 31
0.0
  0
LINE
  5
29DC
  8
0
 10
151.4720000000000084
 20
39.8000000000000114
 30
0.0
 11
151.1999999999999886
 21
39.52800000000002
 31
0.0
  0
LINE
  5
29DD
  8
0
 10
151.4720000000000084
 20
39.8000000000000114
 30
0.0
 11
151.7280000000000086
 21
39.8000000000000114
 31
0.0
  0
LINE
  5
29DE
  8
0
 10
152.0
 20
39.52800000000002
 30
0.0
 11
151.7280000000000086
 21
39.8000000000000114
 31
0.0
  0
LINE
  5
29DF
  8
0
 10
152.2719999999999914
 20
39.8000000000000114
 30
0.0
 11
152.0
 21
39.52800000000002
 31
0.0
  0
LINE
  5
29E0
  8
0
 10
152.2719999999999914
 20
39.8000000000000114
 30
0.0
 11
152.5279999999999063
 21
39.8000000000000114
 31
0.0
  0
LINE
  5
29E1
  8
0
 10
152.8000000000000114
 20
39.52800000000002
 30
0.0
 11
152.5279999999999063
 21
39.8000000000000114
 31
0.0
  0
LINE
  5
29E2
  8
0
 10
153.0720000000000027
 20
39.8000000000000114
 30
0.0
 11
153.328000000000003
 21
39.8000000000000114
 31
0.0
  0
LINE
  5
29E3
  8
0
 10
153.6854677230460879
 20
39.6134677230461207
 30
0.0
 11
153.5999999999999091
 21
39.52800000000002
 31
0.0
  0
LINE
  5
29E4
  8
0
 10
146.4000000000000057
 20
39.52800000000002
 30
0.0
 11
146.3145322768999108
 21
39.6134677230999799
 31
0.0
  0
LINE
  5
29E5
  8
0
 10
146.671999999999997
 20
39.8000000000000114
 30
0.0
 11
146.4000000000000057
 21
39.52800000000002
 31
0.0
  0
LINE
  5
29E6
  8
0
 10
153.5999999999999091
 20
40.0720000000000098
 30
0.0
 11
153.6272603568000079
 21
40.0447396432000104
 31
0.0
  0
LINE
  5
29E7
  8
0
 10
152.5279999999999063
 20
39.8000000000000114
 30
0.0
 11
152.8000000000000114
 21
40.0720000000000098
 31
0.0
  0
LINE
  5
29E8
  8
0
 10
152.0
 20
40.0720000000000098
 30
0.0
 11
152.2719999999999914
 21
39.8000000000000114
 31
0.0
  0
LINE
  5
29E9
  8
0
 10
151.7280000000000086
 20
39.8000000000000114
 30
0.0
 11
152.0
 21
40.0720000000000098
 31
0.0
  0
LINE
  5
29EA
  8
0
 10
151.1999999999999886
 20
40.0720000000000098
 30
0.0
 11
151.4720000000000084
 21
39.8000000000000114
 31
0.0
  0
LINE
  5
29EB
  8
0
 10
150.9279999999999973
 20
39.8000000000000114
 30
0.0
 11
151.1999999999999886
 21
40.0720000000000098
 31
0.0
  0
LINE
  5
29EC
  8
0
 10
150.4000000000000057
 20
40.0720000000000098
 30
0.0
 11
150.6719999999999118
 21
39.8000000000000114
 31
0.0
  0
LINE
  5
29ED
  8
0
 10
150.1279999999999859
 20
39.8000000000000114
 30
0.0
 11
150.4000000000000057
 21
40.0720000000000098
 31
0.0
  0
LINE
  5
29EE
  8
0
 10
149.5999999999999091
 20
40.0720000000000098
 30
0.0
 11
149.8720000000000141
 21
39.8000000000000114
 31
0.0
  0
LINE
  5
29EF
  8
0
 10
149.328000000000003
 20
39.8000000000000114
 30
0.0
 11
149.5999999999999091
 21
40.0720000000000098
 31
0.0
  0
LINE
  5
29F0
  8
0
 10
148.8000000000000114
 20
40.0720000000000098
 30
0.0
 11
149.0720000000000027
 21
39.8000000000000114
 31
0.0
  0
LINE
  5
29F1
  8
0
 10
148.5279999999999063
 20
39.8000000000000114
 30
0.0
 11
148.8000000000000114
 21
40.0720000000000098
 31
0.0
  0
LINE
  5
29F2
  8
0
 10
148.0
 20
40.0720000000000098
 30
0.0
 11
148.2719999999999914
 21
39.8000000000000114
 31
0.0
  0
LINE
  5
29F3
  8
0
 10
147.7280000000000086
 20
39.8000000000000114
 30
0.0
 11
148.0
 21
40.0720000000000098
 31
0.0
  0
LINE
  5
29F4
  8
0
 10
147.1999999999999886
 20
40.0720000000000098
 30
0.0
 11
147.4720000000000084
 21
39.8000000000000114
 31
0.0
  0
LINE
  5
29F5
  8
0
 10
146.9279999999999973
 20
39.8000000000000114
 30
0.0
 11
147.1999999999999886
 21
40.0720000000000098
 31
0.0
  0
LINE
  5
29F6
  8
0
 10
146.4000000000000057
 20
40.0720000000000098
 30
0.0
 11
146.671999999999997
 21
39.8000000000000114
 31
0.0
  0
LINE
  5
29F7
  8
0
 10
146.3727396431999068
 20
40.0447396431999678
 30
0.0
 11
146.4000000000000057
 21
40.0720000000000098
 31
0.0
  0
LINE
  5
29F8
  8
0
 10
152.0
 20
39.52800000000002
 30
0.0
 11
152.0
 21
40.0720000000000098
 31
0.0
  0
LINE
  5
29F9
  8
0
 10
151.1999999999999886
 20
39.52800000000002
 30
0.0
 11
151.1999999999999886
 21
40.0720000000000098
 31
0.0
  0
LINE
  5
29FA
  8
0
 10
148.8000000000000114
 20
39.52800000000002
 30
0.0
 11
148.8000000000000114
 21
40.0720000000000098
 31
0.0
  0
LINE
  5
29FB
  8
0
 10
149.5999999999999091
 20
39.52800000000002
 30
0.0
 11
149.5999999999999091
 21
40.0720000000000098
 31
0.0
  0
LINE
  5
29FC
  8
0
 10
150.4000000000000057
 20
39.52800000000002
 30
0.0
 11
150.4000000000000057
 21
40.0720000000000098
 31
0.0
  0
LINE
  5
29FD
  8
0
 10
147.1999999999999886
 20
39.52800000000002
 30
0.0
 11
147.1999999999999886
 21
40.0720000000000098
 31
0.0
  0
LINE
  5
29FE
  8
0
 10
148.0
 20
39.52800000000002
 30
0.0
 11
148.0
 21
40.0720000000000098
 31
0.0
  0
LINE
  5
29FF
  8
0
 10
146.4000000000000057
 20
39.52800000000002
 30
0.0
 11
146.4000000000000057
 21
40.0720000000000098
 31
0.0
  0
LINE
  5
2A00
  8
0
 10
152.8000000000000114
 20
40.872000000000007
 30
0.0
 11
153.0720000000000027
 21
40.6000000000000085
 31
0.0
  0
LINE
  5
2A01
  8
0
 10
153.0720000000000027
 20
40.6000000000000085
 30
0.0
 11
152.8000000000000114
 21
40.3280000000000101
 31
0.0
  0
LINE
  5
2A02
  8
0
 10
152.8000000000000114
 20
40.3280000000000101
 30
0.0
 11
152.8000000000000114
 21
40.872000000000007
 31
0.0
  0
LINE
  5
2A03
  8
0
 10
146.7750969006999924
 20
40.6000000000000014
 30
0.0
 11
146.9279999999999973
 21
40.6000000000000085
 31
0.0
  0
LINE
  5
2A04
  8
0
 10
147.1999999999999886
 20
40.3280000000000101
 30
0.0
 11
146.9279999999999973
 21
40.6000000000000085
 31
0.0
  0
LINE
  5
2A05
  8
0
 10
147.4720000000000084
 20
40.6000000000000085
 30
0.0
 11
147.1999999999999886
 21
40.3280000000000101
 31
0.0
  0
LINE
  5
2A06
  8
0
 10
147.4720000000000084
 20
40.6000000000000085
 30
0.0
 11
147.7280000000000086
 21
40.6000000000000085
 31
0.0
  0
LINE
  5
2A07
  8
0
 10
148.0
 20
40.3280000000000101
 30
0.0
 11
147.7280000000000086
 21
40.6000000000000085
 31
0.0
  0
LINE
  5
2A08
  8
0
 10
148.2719999999999914
 20
40.6000000000000085
 30
0.0
 11
148.0
 21
40.3280000000000101
 31
0.0
  0
LINE
  5
2A09
  8
0
 10
148.2719999999999914
 20
40.6000000000000085
 30
0.0
 11
148.5279999999999063
 21
40.6000000000000085
 31
0.0
  0
LINE
  5
2A0A
  8
0
 10
148.8000000000000114
 20
40.3280000000000101
 30
0.0
 11
148.5279999999999063
 21
40.6000000000000085
 31
0.0
  0
LINE
  5
2A0B
  8
0
 10
149.0720000000000027
 20
40.6000000000000085
 30
0.0
 11
148.8000000000000114
 21
40.3280000000000101
 31
0.0
  0
LINE
  5
2A0C
  8
0
 10
149.0720000000000027
 20
40.6000000000000085
 30
0.0
 11
149.328000000000003
 21
40.6000000000000085
 31
0.0
  0
LINE
  5
2A0D
  8
0
 10
149.5999999999999091
 20
40.3280000000000101
 30
0.0
 11
149.328000000000003
 21
40.6000000000000085
 31
0.0
  0
LINE
  5
2A0E
  8
0
 10
149.8720000000000141
 20
40.6000000000000085
 30
0.0
 11
149.5999999999999091
 21
40.3280000000000101
 31
0.0
  0
LINE
  5
2A0F
  8
0
 10
149.8720000000000141
 20
40.6000000000000085
 30
0.0
 11
150.1279999999999859
 21
40.6000000000000085
 31
0.0
  0
LINE
  5
2A10
  8
0
 10
150.4000000000000057
 20
40.3280000000000101
 30
0.0
 11
150.1279999999999859
 21
40.6000000000000085
 31
0.0
  0
LINE
  5
2A11
  8
0
 10
150.6719999999999118
 20
40.6000000000000085
 30
0.0
 11
150.4000000000000057
 21
40.3280000000000101
 31
0.0
  0
LINE
  5
2A12
  8
0
 10
150.6719999999999118
 20
40.6000000000000085
 30
0.0
 11
150.9279999999999973
 21
40.6000000000000085
 31
0.0
  0
LINE
  5
2A13
  8
0
 10
151.1999999999999886
 20
40.3280000000000101
 30
0.0
 11
150.9279999999999973
 21
40.6000000000000085
 31
0.0
  0
LINE
  5
2A14
  8
0
 10
151.4720000000000084
 20
40.6000000000000085
 30
0.0
 11
151.1999999999999886
 21
40.3280000000000101
 31
0.0
  0
LINE
  5
2A15
  8
0
 10
151.4720000000000084
 20
40.6000000000000085
 30
0.0
 11
151.7280000000000086
 21
40.6000000000000085
 31
0.0
  0
LINE
  5
2A16
  8
0
 10
152.0
 20
40.3280000000000101
 30
0.0
 11
151.7280000000000086
 21
40.6000000000000085
 31
0.0
  0
LINE
  5
2A17
  8
0
 10
152.2719999999999914
 20
40.6000000000000085
 30
0.0
 11
152.0
 21
40.3280000000000101
 31
0.0
  0
LINE
  5
2A18
  8
0
 10
152.2719999999999914
 20
40.6000000000000085
 30
0.0
 11
152.5279999999999063
 21
40.6000000000000085
 31
0.0
  0
LINE
  5
2A19
  8
0
 10
152.8000000000000114
 20
40.3280000000000101
 30
0.0
 11
152.5279999999999063
 21
40.6000000000000085
 31
0.0
  0
LINE
  5
2A1A
  8
0
 10
153.0720000000000027
 20
40.6000000000000085
 30
0.0
 11
153.2249030993000076
 21
40.6000000000000014
 31
0.0
  0
LINE
  5
2A1B
  8
0
 10
152.5279999999999063
 20
40.6000000000000085
 30
0.0
 11
152.8000000000000114
 21
40.872000000000007
 31
0.0
  0
LINE
  5
2A1C
  8
0
 10
152.0
 20
40.872000000000007
 30
0.0
 11
152.2719999999999914
 21
40.6000000000000085
 31
0.0
  0
LINE
  5
2A1D
  8
0
 10
151.7280000000000086
 20
40.6000000000000085
 30
0.0
 11
152.0
 21
40.872000000000007
 31
0.0
  0
LINE
  5
2A1E
  8
0
 10
151.1999999999999886
 20
40.872000000000007
 30
0.0
 11
151.4720000000000084
 21
40.6000000000000085
 31
0.0
  0
LINE
  5
2A1F
  8
0
 10
150.9279999999999973
 20
40.6000000000000085
 30
0.0
 11
151.1999999999999886
 21
40.872000000000007
 31
0.0
  0
LINE
  5
2A20
  8
0
 10
150.4000000000000057
 20
40.872000000000007
 30
0.0
 11
150.6719999999999118
 21
40.6000000000000085
 31
0.0
  0
LINE
  5
2A21
  8
0
 10
150.1279999999999859
 20
40.6000000000000085
 30
0.0
 11
150.4000000000000057
 21
40.872000000000007
 31
0.0
  0
LINE
  5
2A22
  8
0
 10
149.5999999999999091
 20
40.872000000000007
 30
0.0
 11
149.8720000000000141
 21
40.6000000000000085
 31
0.0
  0
LINE
  5
2A23
  8
0
 10
149.328000000000003
 20
40.6000000000000085
 30
0.0
 11
149.5999999999999091
 21
40.872000000000007
 31
0.0
  0
LINE
  5
2A24
  8
0
 10
148.8000000000000114
 20
40.872000000000007
 30
0.0
 11
149.0720000000000027
 21
40.6000000000000085
 31
0.0
  0
LINE
  5
2A25
  8
0
 10
148.5279999999999063
 20
40.6000000000000085
 30
0.0
 11
148.8000000000000114
 21
40.872000000000007
 31
0.0
  0
LINE
  5
2A26
  8
0
 10
148.0
 20
40.872000000000007
 30
0.0
 11
148.2719999999999914
 21
40.6000000000000085
 31
0.0
  0
LINE
  5
2A27
  8
0
 10
147.7280000000000086
 20
40.6000000000000085
 30
0.0
 11
148.0
 21
40.872000000000007
 31
0.0
  0
LINE
  5
2A28
  8
0
 10
147.1999999999999886
 20
40.872000000000007
 30
0.0
 11
147.4720000000000084
 21
40.6000000000000085
 31
0.0
  0
LINE
  5
2A29
  8
0
 10
146.9279999999999973
 20
40.6000000000000085
 30
0.0
 11
147.1999999999999886
 21
40.872000000000007
 31
0.0
  0
LINE
  5
2A2A
  8
0
 10
152.0
 20
40.3280000000000101
 30
0.0
 11
152.0
 21
40.872000000000007
 31
0.0
  0
LINE
  5
2A2B
  8
0
 10
151.1999999999999886
 20
40.3280000000000101
 30
0.0
 11
151.1999999999999886
 21
40.872000000000007
 31
0.0
  0
LINE
  5
2A2C
  8
0
 10
148.8000000000000114
 20
40.3280000000000101
 30
0.0
 11
148.8000000000000114
 21
40.872000000000007
 31
0.0
  0
LINE
  5
2A2D
  8
0
 10
149.5999999999999091
 20
40.3280000000000101
 30
0.0
 11
149.5999999999999091
 21
40.872000000000007
 31
0.0
  0
LINE
  5
2A2E
  8
0
 10
150.4000000000000057
 20
40.3280000000000101
 30
0.0
 11
150.4000000000000057
 21
40.872000000000007
 31
0.0
  0
LINE
  5
2A2F
  8
0
 10
147.1999999999999886
 20
40.3280000000000101
 30
0.0
 11
147.1999999999999886
 21
40.872000000000007
 31
0.0
  0
LINE
  5
2A30
  8
0
 10
148.0
 20
40.3280000000000101
 30
0.0
 11
148.0
 21
40.872000000000007
 31
0.0
  0
LINE
  5
2A31
  8
0
 10
152.9330101756625027
 20
41.261010175662463
 30
0.0
 11
152.8000000000000114
 21
41.1280000000000072
 31
0.0
  0
LINE
  5
2A32
  8
0
 10
152.8000000000000114
 20
41.1280000000000072
 30
0.0
 11
152.8000000000000114
 21
41.5574269397000293
 31
0.0
  0
LINE
  5
2A33
  8
0
 10
147.1999999999999886
 20
41.1280000000000072
 30
0.0
 11
147.0669898242998954
 21
41.2610101756999725
 31
0.0
  0
LINE
  5
2A34
  8
0
 10
147.4720000000000084
 20
41.3999999999999986
 30
0.0
 11
147.1999999999999886
 21
41.1280000000000072
 31
0.0
  0
LINE
  5
2A35
  8
0
 10
147.4720000000000084
 20
41.3999999999999986
 30
0.0
 11
147.7280000000000086
 21
41.3999999999999986
 31
0.0
  0
LINE
  5
2A36
  8
0
 10
148.0
 20
41.1280000000000072
 30
0.0
 11
147.7280000000000086
 21
41.3999999999999986
 31
0.0
  0
LINE
  5
2A37
  8
0
 10
148.2719999999999914
 20
41.3999999999999986
 30
0.0
 11
148.0
 21
41.1280000000000072
 31
0.0
  0
LINE
  5
2A38
  8
0
 10
148.2719999999999914
 20
41.3999999999999986
 30
0.0
 11
148.5279999999999063
 21
41.3999999999999986
 31
0.0
  0
LINE
  5
2A39
  8
0
 10
148.8000000000000114
 20
41.1280000000000072
 30
0.0
 11
148.5279999999999063
 21
41.3999999999999986
 31
0.0
  0
LINE
  5
2A3A
  8
0
 10
149.0720000000000027
 20
41.3999999999999986
 30
0.0
 11
148.8000000000000114
 21
41.1280000000000072
 31
0.0
  0
LINE
  5
2A3B
  8
0
 10
149.0720000000000027
 20
41.3999999999999986
 30
0.0
 11
149.328000000000003
 21
41.3999999999999986
 31
0.0
  0
LINE
  5
2A3C
  8
0
 10
149.5999999999999091
 20
41.1280000000000072
 30
0.0
 11
149.328000000000003
 21
41.3999999999999986
 31
0.0
  0
LINE
  5
2A3D
  8
0
 10
149.8720000000000141
 20
41.3999999999999986
 30
0.0
 11
149.5999999999999091
 21
41.1280000000000072
 31
0.0
  0
LINE
  5
2A3E
  8
0
 10
149.8720000000000141
 20
41.3999999999999986
 30
0.0
 11
150.1279999999999859
 21
41.3999999999999986
 31
0.0
  0
LINE
  5
2A3F
  8
0
 10
150.4000000000000057
 20
41.1280000000000072
 30
0.0
 11
150.1279999999999859
 21
41.3999999999999986
 31
0.0
  0
LINE
  5
2A40
  8
0
 10
150.6719999999999118
 20
41.3999999999999986
 30
0.0
 11
150.4000000000000057
 21
41.1280000000000072
 31
0.0
  0
LINE
  5
2A41
  8
0
 10
150.6719999999999118
 20
41.3999999999999986
 30
0.0
 11
150.9279999999999973
 21
41.3999999999999986
 31
0.0
  0
LINE
  5
2A42
  8
0
 10
151.1999999999999886
 20
41.1280000000000072
 30
0.0
 11
150.9279999999999973
 21
41.3999999999999986
 31
0.0
  0
LINE
  5
2A43
  8
0
 10
151.4720000000000084
 20
41.3999999999999986
 30
0.0
 11
151.1999999999999886
 21
41.1280000000000072
 31
0.0
  0
LINE
  5
2A44
  8
0
 10
151.4720000000000084
 20
41.3999999999999986
 30
0.0
 11
151.7280000000000086
 21
41.3999999999999986
 31
0.0
  0
LINE
  5
2A45
  8
0
 10
152.0
 20
41.1280000000000072
 30
0.0
 11
151.7280000000000086
 21
41.3999999999999986
 31
0.0
  0
LINE
  5
2A46
  8
0
 10
152.2719999999999914
 20
41.3999999999999986
 30
0.0
 11
152.0
 21
41.1280000000000072
 31
0.0
  0
LINE
  5
2A47
  8
0
 10
152.2719999999999914
 20
41.3999999999999986
 30
0.0
 11
152.5279999999999063
 21
41.3999999999999986
 31
0.0
  0
LINE
  5
2A48
  8
0
 10
152.8000000000000114
 20
41.1280000000000072
 30
0.0
 11
152.5279999999999063
 21
41.3999999999999986
 31
0.0
  0
LINE
  5
2A49
  8
0
 10
152.5279999999999063
 20
41.3999999999999986
 30
0.0
 11
152.6962975772999016
 21
41.5682975773000081
 31
0.0
  0
LINE
  5
2A4A
  8
0
 10
152.0
 20
41.6720000000000113
 30
0.0
 11
152.2719999999999914
 21
41.3999999999999986
 31
0.0
  0
LINE
  5
2A4B
  8
0
 10
151.7280000000000086
 20
41.3999999999999986
 30
0.0
 11
152.0
 21
41.6720000000000113
 31
0.0
  0
LINE
  5
2A4C
  8
0
 10
151.1999999999999886
 20
41.6720000000000113
 30
0.0
 11
151.4720000000000084
 21
41.3999999999999986
 31
0.0
  0
LINE
  5
2A4D
  8
0
 10
150.9279999999999973
 20
41.3999999999999986
 30
0.0
 11
151.1999999999999886
 21
41.6720000000000113
 31
0.0
  0
LINE
  5
2A4E
  8
0
 10
150.4000000000000057
 20
41.6720000000000113
 30
0.0
 11
150.6719999999999118
 21
41.3999999999999986
 31
0.0
  0
LINE
  5
2A4F
  8
0
 10
150.1279999999999859
 20
41.3999999999999986
 30
0.0
 11
150.4000000000000057
 21
41.6720000000000113
 31
0.0
  0
LINE
  5
2A50
  8
0
 10
149.5999999999999091
 20
41.6720000000000113
 30
0.0
 11
149.8720000000000141
 21
41.3999999999999986
 31
0.0
  0
LINE
  5
2A51
  8
0
 10
149.328000000000003
 20
41.3999999999999986
 30
0.0
 11
149.5999999999999091
 21
41.6720000000000113
 31
0.0
  0
LINE
  5
2A52
  8
0
 10
148.8000000000000114
 20
41.6720000000000113
 30
0.0
 11
149.0720000000000027
 21
41.3999999999999986
 31
0.0
  0
LINE
  5
2A53
  8
0
 10
148.5279999999999063
 20
41.3999999999999986
 30
0.0
 11
148.8000000000000114
 21
41.6720000000000113
 31
0.0
  0
LINE
  5
2A54
  8
0
 10
148.0
 20
41.6720000000000113
 30
0.0
 11
148.2719999999999914
 21
41.3999999999999986
 31
0.0
  0
LINE
  5
2A55
  8
0
 10
147.7280000000000086
 20
41.3999999999999986
 30
0.0
 11
148.0
 21
41.6720000000000113
 31
0.0
  0
LINE
  5
2A56
  8
0
 10
147.3037024227000131
 20
41.5682975773000507
 30
0.0
 11
147.4720000000000084
 21
41.3999999999999986
 31
0.0
  0
LINE
  5
2A57
  8
0
 10
152.0
 20
41.1280000000000072
 30
0.0
 11
152.0
 21
41.6720000000000113
 31
0.0
  0
LINE
  5
2A58
  8
0
 10
151.1999999999999886
 20
41.1280000000000072
 30
0.0
 11
151.1999999999999886
 21
41.6720000000000113
 31
0.0
  0
LINE
  5
2A59
  8
0
 10
148.8000000000000114
 20
41.1280000000000072
 30
0.0
 11
148.8000000000000114
 21
41.6720000000000113
 31
0.0
  0
LINE
  5
2A5A
  8
0
 10
149.5999999999999091
 20
41.1280000000000072
 30
0.0
 11
149.5999999999999091
 21
41.6720000000000113
 31
0.0
  0
LINE
  5
2A5B
  8
0
 10
150.4000000000000057
 20
41.1280000000000072
 30
0.0
 11
150.4000000000000057
 21
41.6720000000000113
 31
0.0
  0
LINE
  5
2A5C
  8
0
 10
147.1999999999999886
 20
41.1280000000000072
 30
0.0
 11
147.1999999999999034
 21
41.5574269397000933
 31
0.0
  0
LINE
  5
2A5D
  8
0
 10
148.0
 20
41.1280000000000072
 30
0.0
 11
148.0
 21
41.6720000000000113
 31
0.0
  0
LINE
  5
2A5E
  8
0
 10
148.0
 20
41.9279999999999973
 30
0.0
 11
147.8801568821000103
 21
42.0478431178999799
 31
0.0
  0
LINE
  5
2A5F
  8
0
 10
148.2406318519416004
 20
42.1686318519416687
 30
0.0
 11
148.0
 21
41.9279999999999973
 31
0.0
  0
LINE
  5
2A60
  8
0
 10
148.3507577496999943
 20
42.2000000000000028
 30
0.0
 11
148.5279999999999063
 21
42.2000000000000028
 31
0.0
  0
LINE
  5
2A61
  8
0
 10
148.8000000000000114
 20
41.9279999999999973
 30
0.0
 11
148.5279999999999063
 21
42.2000000000000028
 31
0.0
  0
LINE
  5
2A62
  8
0
 10
149.0720000000000027
 20
42.2000000000000028
 30
0.0
 11
148.8000000000000114
 21
41.9279999999999973
 31
0.0
  0
LINE
  5
2A63
  8
0
 10
149.0720000000000027
 20
42.2000000000000028
 30
0.0
 11
149.328000000000003
 21
42.2000000000000028
 31
0.0
  0
LINE
  5
2A64
  8
0
 10
149.5999999999999091
 20
41.9279999999999973
 30
0.0
 11
149.328000000000003
 21
42.2000000000000028
 31
0.0
  0
LINE
  5
2A65
  8
0
 10
149.8720000000000141
 20
42.2000000000000028
 30
0.0
 11
149.5999999999999091
 21
41.9279999999999973
 31
0.0
  0
LINE
  5
2A66
  8
0
 10
149.8720000000000141
 20
42.2000000000000028
 30
0.0
 11
150.1279999999999859
 21
42.2000000000000028
 31
0.0
  0
LINE
  5
2A67
  8
0
 10
150.4000000000000057
 20
41.9279999999999973
 30
0.0
 11
150.1279999999999859
 21
42.2000000000000028
 31
0.0
  0
LINE
  5
2A68
  8
0
 10
150.6719999999999118
 20
42.2000000000000028
 30
0.0
 11
150.4000000000000057
 21
41.9279999999999973
 31
0.0
  0
LINE
  5
2A69
  8
0
 10
150.6719999999999118
 20
42.2000000000000028
 30
0.0
 11
150.9279999999999973
 21
42.2000000000000028
 31
0.0
  0
LINE
  5
2A6A
  8
0
 10
151.1999999999999886
 20
41.9279999999999973
 30
0.0
 11
150.9279999999999973
 21
42.2000000000000028
 31
0.0
  0
LINE
  5
2A6B
  8
0
 10
151.4720000000000084
 20
42.2000000000000028
 30
0.0
 11
151.1999999999999886
 21
41.9279999999999973
 31
0.0
  0
LINE
  5
2A6C
  8
0
 10
151.4720000000000084
 20
42.2000000000000028
 30
0.0
 11
151.6492422501999897
 21
42.2000000000000028
 31
0.0
  0
LINE
  5
2A6D
  8
0
 10
152.0
 20
41.9279999999999973
 30
0.0
 11
151.7593681480998953
 21
42.1686318519000523
 31
0.0
  0
LINE
  5
2A6E
  8
0
 10
152.1198431178999897
 20
42.047843117899987
 30
0.0
 11
152.0
 21
41.9279999999999973
 31
0.0
  0
LINE
  5
2A6F
  8
0
 10
151.1999999999999886
 20
42.4720000000000084
 30
0.0
 11
151.4720000000000084
 21
42.2000000000000028
 31
0.0
  0
LINE
  5
2A70
  8
0
 10
150.9279999999999973
 20
42.2000000000000028
 30
0.0
 11
151.1999999999999886
 21
42.4720000000000084
 31
0.0
  0
LINE
  5
2A71
  8
0
 10
150.4000000000000057
 20
42.4720000000000084
 30
0.0
 11
150.6719999999999118
 21
42.2000000000000028
 31
0.0
  0
LINE
  5
2A72
  8
0
 10
150.1279999999999859
 20
42.2000000000000028
 30
0.0
 11
150.4000000000000057
 21
42.4720000000000084
 31
0.0
  0
LINE
  5
2A73
  8
0
 10
149.5999999999999091
 20
42.4720000000000084
 30
0.0
 11
149.8720000000000141
 21
42.2000000000000028
 31
0.0
  0
LINE
  5
2A74
  8
0
 10
149.328000000000003
 20
42.2000000000000028
 30
0.0
 11
149.5999999999999091
 21
42.4720000000000084
 31
0.0
  0
LINE
  5
2A75
  8
0
 10
148.8000000000000114
 20
42.4720000000000084
 30
0.0
 11
149.0720000000000027
 21
42.2000000000000028
 31
0.0
  0
LINE
  5
2A76
  8
0
 10
148.5279999999999063
 20
42.2000000000000028
 30
0.0
 11
148.8000000000000114
 21
42.4720000000000084
 31
0.0
  0
LINE
  5
2A77
  8
0
 10
152.0
 20
41.9279999999999973
 30
0.0
 11
152.0
 21
42.2218678669000127
 31
0.0
  0
LINE
  5
2A78
  8
0
 10
151.1999999999999886
 20
41.9279999999999973
 30
0.0
 11
151.1999999999999886
 21
42.4720000000000084
 31
0.0
  0
LINE
  5
2A79
  8
0
 10
148.8000000000000114
 20
41.9279999999999973
 30
0.0
 11
148.8000000000000114
 21
42.4720000000000084
 31
0.0
  0
LINE
  5
2A7A
  8
0
 10
149.5999999999999091
 20
41.9279999999999973
 30
0.0
 11
149.5999999999999091
 21
42.4720000000000084
 31
0.0
  0
LINE
  5
2A7B
  8
0
 10
150.4000000000000057
 20
41.9279999999999973
 30
0.0
 11
150.4000000000000057
 21
42.4720000000000084
 31
0.0
  0
LINE
  5
2A7C
  8
0
 10
148.0
 20
41.9279999999999973
 30
0.0
 11
148.0
 21
42.2218678668999985
 31
0.0
  0
LINE
  5
2A7D
  8
0
 10
152.8000000000000114
 20
37.6720000000000113
 30
0.0
 11
153.0720000000000027
 21
37.4000000000000128
 31
0.0
  0
LINE
  5
2A7E
  8
0
 10
153.0720000000000027
 20
37.4000000000000128
 30
0.0
 11
152.8000000000000114
 21
37.1280000000000072
 31
0.0
  0
LINE
  5
2A7F
  8
0
 10
152.8000000000000114
 20
37.1280000000000072
 30
0.0
 11
152.8000000000000114
 21
37.6720000000000113
 31
0.0
  0
LINE
  5
2A80
  8
0
 10
146.7750969006999924
 20
37.4000000000000128
 30
0.0
 11
146.9279999999999973
 21
37.4000000000000128
 31
0.0
  0
LINE
  5
2A81
  8
0
 10
147.1999999999999886
 20
37.1280000000000072
 30
0.0
 11
146.9279999999999973
 21
37.4000000000000128
 31
0.0
  0
LINE
  5
2A82
  8
0
 10
147.4720000000000084
 20
37.4000000000000128
 30
0.0
 11
147.1999999999999886
 21
37.1280000000000072
 31
0.0
  0
LINE
  5
2A83
  8
0
 10
147.4720000000000084
 20
37.4000000000000128
 30
0.0
 11
147.7280000000000086
 21
37.4000000000000128
 31
0.0
  0
LINE
  5
2A84
  8
0
 10
148.0
 20
37.1280000000000072
 30
0.0
 11
147.7280000000000086
 21
37.4000000000000128
 31
0.0
  0
LINE
  5
2A85
  8
0
 10
148.2719999999999914
 20
37.4000000000000128
 30
0.0
 11
148.0
 21
37.1280000000000072
 31
0.0
  0
LINE
  5
2A86
  8
0
 10
148.2719999999999914
 20
37.4000000000000128
 30
0.0
 11
148.5279999999999063
 21
37.4000000000000128
 31
0.0
  0
LINE
  5
2A87
  8
0
 10
148.8000000000000114
 20
37.1280000000000072
 30
0.0
 11
148.5279999999999063
 21
37.4000000000000128
 31
0.0
  0
LINE
  5
2A88
  8
0
 10
149.0720000000000027
 20
37.4000000000000128
 30
0.0
 11
148.8000000000000114
 21
37.1280000000000072
 31
0.0
  0
LINE
  5
2A89
  8
0
 10
149.0720000000000027
 20
37.4000000000000128
 30
0.0
 11
149.328000000000003
 21
37.4000000000000128
 31
0.0
  0
LINE
  5
2A8A
  8
0
 10
149.5999999999999091
 20
37.1280000000000072
 30
0.0
 11
149.328000000000003
 21
37.4000000000000128
 31
0.0
  0
LINE
  5
2A8B
  8
0
 10
149.8720000000000141
 20
37.4000000000000128
 30
0.0
 11
149.5999999999999091
 21
37.1280000000000072
 31
0.0
  0
LINE
  5
2A8C
  8
0
 10
149.8720000000000141
 20
37.4000000000000128
 30
0.0
 11
150.1279999999999859
 21
37.4000000000000128
 31
0.0
  0
LINE
  5
2A8D
  8
0
 10
150.4000000000000057
 20
37.1280000000000072
 30
0.0
 11
150.1279999999999859
 21
37.4000000000000128
 31
0.0
  0
LINE
  5
2A8E
  8
0
 10
150.6719999999999118
 20
37.4000000000000128
 30
0.0
 11
150.4000000000000057
 21
37.1280000000000072
 31
0.0
  0
LINE
  5
2A8F
  8
0
 10
150.6719999999999118
 20
37.4000000000000128
 30
0.0
 11
150.9279999999999973
 21
37.4000000000000128
 31
0.0
  0
LINE
  5
2A90
  8
0
 10
151.1999999999999886
 20
37.1280000000000072
 30
0.0
 11
150.9279999999999973
 21
37.4000000000000128
 31
0.0
  0
LINE
  5
2A91
  8
0
 10
151.4720000000000084
 20
37.4000000000000128
 30
0.0
 11
151.1999999999999886
 21
37.1280000000000072
 31
0.0
  0
LINE
  5
2A92
  8
0
 10
151.4720000000000084
 20
37.4000000000000128
 30
0.0
 11
151.7280000000000086
 21
37.4000000000000128
 31
0.0
  0
LINE
  5
2A93
  8
0
 10
152.0
 20
37.1280000000000072
 30
0.0
 11
151.7280000000000086
 21
37.4000000000000128
 31
0.0
  0
LINE
  5
2A94
  8
0
 10
152.2719999999999914
 20
37.4000000000000128
 30
0.0
 11
152.0
 21
37.1280000000000072
 31
0.0
  0
LINE
  5
2A95
  8
0
 10
152.2719999999999914
 20
37.4000000000000128
 30
0.0
 11
152.5279999999999063
 21
37.4000000000000128
 31
0.0
  0
LINE
  5
2A96
  8
0
 10
152.8000000000000114
 20
37.1280000000000072
 30
0.0
 11
152.5279999999999063
 21
37.4000000000000128
 31
0.0
  0
LINE
  5
2A97
  8
0
 10
153.0720000000000027
 20
37.4000000000000128
 30
0.0
 11
153.2249030993000076
 21
37.4000000000000128
 31
0.0
  0
LINE
  5
2A98
  8
0
 10
152.5279999999999063
 20
37.4000000000000128
 30
0.0
 11
152.8000000000000114
 21
37.6720000000000113
 31
0.0
  0
LINE
  5
2A99
  8
0
 10
152.0
 20
37.6720000000000113
 30
0.0
 11
152.2719999999999914
 21
37.4000000000000128
 31
0.0
  0
LINE
  5
2A9A
  8
0
 10
151.7280000000000086
 20
37.4000000000000128
 30
0.0
 11
152.0
 21
37.6720000000000113
 31
0.0
  0
LINE
  5
2A9B
  8
0
 10
151.1999999999999886
 20
37.6720000000000113
 30
0.0
 11
151.4720000000000084
 21
37.4000000000000128
 31
0.0
  0
LINE
  5
2A9C
  8
0
 10
150.9279999999999973
 20
37.4000000000000128
 30
0.0
 11
151.1999999999999886
 21
37.6720000000000113
 31
0.0
  0
LINE
  5
2A9D
  8
0
 10
150.4000000000000057
 20
37.6720000000000113
 30
0.0
 11
150.6719999999999118
 21
37.4000000000000128
 31
0.0
  0
LINE
  5
2A9E
  8
0
 10
150.1279999999999859
 20
37.4000000000000128
 30
0.0
 11
150.4000000000000057
 21
37.6720000000000113
 31
0.0
  0
LINE
  5
2A9F
  8
0
 10
149.5999999999999091
 20
37.6720000000000113
 30
0.0
 11
149.8720000000000141
 21
37.4000000000000128
 31
0.0
  0
LINE
  5
2AA0
  8
0
 10
149.328000000000003
 20
37.4000000000000128
 30
0.0
 11
149.5999999999999091
 21
37.6720000000000113
 31
0.0
  0
LINE
  5
2AA1
  8
0
 10
148.8000000000000114
 20
37.6720000000000113
 30
0.0
 11
149.0720000000000027
 21
37.4000000000000128
 31
0.0
  0
LINE
  5
2AA2
  8
0
 10
148.5279999999999063
 20
37.4000000000000128
 30
0.0
 11
148.8000000000000114
 21
37.6720000000000113
 31
0.0
  0
LINE
  5
2AA3
  8
0
 10
148.0
 20
37.6720000000000113
 30
0.0
 11
148.2719999999999914
 21
37.4000000000000128
 31
0.0
  0
LINE
  5
2AA4
  8
0
 10
147.7280000000000086
 20
37.4000000000000128
 30
0.0
 11
148.0
 21
37.6720000000000113
 31
0.0
  0
LINE
  5
2AA5
  8
0
 10
147.1999999999999886
 20
37.6720000000000113
 30
0.0
 11
147.4720000000000084
 21
37.4000000000000128
 31
0.0
  0
LINE
  5
2AA6
  8
0
 10
146.9279999999999973
 20
37.4000000000000128
 30
0.0
 11
147.1999999999999886
 21
37.6720000000000113
 31
0.0
  0
LINE
  5
2AA7
  8
0
 10
152.0
 20
37.1280000000000072
 30
0.0
 11
152.0
 21
37.6720000000000113
 31
0.0
  0
LINE
  5
2AA8
  8
0
 10
151.1999999999999886
 20
37.1280000000000072
 30
0.0
 11
151.1999999999999886
 21
37.6720000000000113
 31
0.0
  0
LINE
  5
2AA9
  8
0
 10
148.8000000000000114
 20
37.1280000000000072
 30
0.0
 11
148.8000000000000114
 21
37.6720000000000113
 31
0.0
  0
LINE
  5
2AAA
  8
0
 10
149.5999999999999091
 20
37.1280000000000072
 30
0.0
 11
149.5999999999999091
 21
37.6720000000000113
 31
0.0
  0
LINE
  5
2AAB
  8
0
 10
150.4000000000000057
 20
37.1280000000000072
 30
0.0
 11
150.4000000000000057
 21
37.6720000000000113
 31
0.0
  0
LINE
  5
2AAC
  8
0
 10
147.1999999999999886
 20
37.1280000000000072
 30
0.0
 11
147.1999999999999886
 21
37.6720000000000113
 31
0.0
  0
LINE
  5
2AAD
  8
0
 10
148.0
 20
37.1280000000000072
 30
0.0
 11
148.0
 21
37.6720000000000113
 31
0.0
  0
LINE
  5
2AAE
  8
0
 10
152.8000000000000114
 20
36.8720000000000212
 30
0.0
 11
152.9330101756000033
 21
36.7389898243999866
 31
0.0
  0
LINE
  5
2AAF
  8
0
 10
152.8000000000000114
 20
36.4425730604000009
 30
0.0
 11
152.8000000000000114
 21
36.8720000000000212
 31
0.0
  0
LINE
  5
2AB0
  8
0
 10
147.4720000000000084
 20
36.6000000000000085
 30
0.0
 11
147.3037066715949948
 21
36.4317066715950517
 31
0.0
  0
LINE
  5
2AB1
  8
0
 10
147.4720000000000084
 20
36.6000000000000085
 30
0.0
 11
147.7280000000000086
 21
36.6000000000000085
 31
0.0
  0
LINE
  5
2AB2
  8
0
 10
148.0
 20
36.3280000000000172
 30
0.0
 11
147.7280000000000086
 21
36.6000000000000085
 31
0.0
  0
LINE
  5
2AB3
  8
0
 10
148.2719999999999914
 20
36.6000000000000085
 30
0.0
 11
148.0
 21
36.3280000000000172
 31
0.0
  0
LINE
  5
2AB4
  8
0
 10
148.2719999999999914
 20
36.6000000000000085
 30
0.0
 11
148.5279999999999063
 21
36.6000000000000085
 31
0.0
  0
LINE
  5
2AB5
  8
0
 10
148.8000000000000114
 20
36.3280000000000172
 30
0.0
 11
148.5279999999999063
 21
36.6000000000000085
 31
0.0
  0
LINE
  5
2AB6
  8
0
 10
149.0720000000000027
 20
36.6000000000000085
 30
0.0
 11
148.8000000000000114
 21
36.3280000000000172
 31
0.0
  0
LINE
  5
2AB7
  8
0
 10
149.0720000000000027
 20
36.6000000000000085
 30
0.0
 11
149.328000000000003
 21
36.6000000000000085
 31
0.0
  0
LINE
  5
2AB8
  8
0
 10
149.5999999999999091
 20
36.3280000000000172
 30
0.0
 11
149.328000000000003
 21
36.6000000000000085
 31
0.0
  0
LINE
  5
2AB9
  8
0
 10
149.8720000000000141
 20
36.6000000000000085
 30
0.0
 11
149.5999999999999091
 21
36.3280000000000172
 31
0.0
  0
LINE
  5
2ABA
  8
0
 10
149.8720000000000141
 20
36.6000000000000085
 30
0.0
 11
150.1279999999999859
 21
36.6000000000000085
 31
0.0
  0
LINE
  5
2ABB
  8
0
 10
150.4000000000000057
 20
36.3280000000000172
 30
0.0
 11
150.1279999999999859
 21
36.6000000000000085
 31
0.0
  0
LINE
  5
2ABC
  8
0
 10
150.6719999999999118
 20
36.6000000000000085
 30
0.0
 11
150.4000000000000057
 21
36.3280000000000172
 31
0.0
  0
LINE
  5
2ABD
  8
0
 10
150.6719999999999118
 20
36.6000000000000085
 30
0.0
 11
150.9279999999999973
 21
36.6000000000000085
 31
0.0
  0
LINE
  5
2ABE
  8
0
 10
151.1999999999999886
 20
36.3280000000000172
 30
0.0
 11
150.9279999999999973
 21
36.6000000000000085
 31
0.0
  0
LINE
  5
2ABF
  8
0
 10
151.4720000000000084
 20
36.6000000000000085
 30
0.0
 11
151.1999999999999886
 21
36.3280000000000172
 31
0.0
  0
LINE
  5
2AC0
  8
0
 10
151.4720000000000084
 20
36.6000000000000085
 30
0.0
 11
151.7280000000000086
 21
36.6000000000000085
 31
0.0
  0
LINE
  5
2AC1
  8
0
 10
152.0
 20
36.3280000000000172
 30
0.0
 11
151.7280000000000086
 21
36.6000000000000085
 31
0.0
  0
LINE
  5
2AC2
  8
0
 10
152.2719999999999914
 20
36.6000000000000085
 30
0.0
 11
152.0
 21
36.3280000000000172
 31
0.0
  0
LINE
  5
2AC3
  8
0
 10
152.2719999999999914
 20
36.6000000000000085
 30
0.0
 11
152.5279999999999063
 21
36.6000000000000085
 31
0.0
  0
LINE
  5
2AC4
  8
0
 10
152.6962975772999016
 20
36.4317024227000275
 30
0.0
 11
152.5279999999999063
 21
36.6000000000000085
 31
0.0
  0
LINE
  5
2AC5
  8
0
 10
152.5279999999999063
 20
36.6000000000000085
 30
0.0
 11
152.8000000000000114
 21
36.8720000000000212
 31
0.0
  0
LINE
  5
2AC6
  8
0
 10
152.0
 20
36.8720000000000212
 30
0.0
 11
152.2719999999999914
 21
36.6000000000000085
 31
0.0
  0
LINE
  5
2AC7
  8
0
 10
151.7280000000000086
 20
36.6000000000000085
 30
0.0
 11
152.0
 21
36.8720000000000212
 31
0.0
  0
LINE
  5
2AC8
  8
0
 10
151.1999999999999886
 20
36.8720000000000212
 30
0.0
 11
151.4720000000000084
 21
36.6000000000000085
 31
0.0
  0
LINE
  5
2AC9
  8
0
 10
150.9279999999999973
 20
36.6000000000000085
 30
0.0
 11
151.1999999999999886
 21
36.8720000000000212
 31
0.0
  0
LINE
  5
2ACA
  8
0
 10
150.4000000000000057
 20
36.8720000000000212
 30
0.0
 11
150.6719999999999118
 21
36.6000000000000085
 31
0.0
  0
LINE
  5
2ACB
  8
0
 10
150.1279999999999859
 20
36.6000000000000085
 30
0.0
 11
150.4000000000000057
 21
36.8720000000000212
 31
0.0
  0
LINE
  5
2ACC
  8
0
 10
149.5999999999999091
 20
36.8720000000000212
 30
0.0
 11
149.8720000000000141
 21
36.6000000000000085
 31
0.0
  0
LINE
  5
2ACD
  8
0
 10
149.328000000000003
 20
36.6000000000000085
 30
0.0
 11
149.5999999999999091
 21
36.8720000000000212
 31
0.0
  0
LINE
  5
2ACE
  8
0
 10
148.8000000000000114
 20
36.8720000000000212
 30
0.0
 11
149.0720000000000027
 21
36.6000000000000085
 31
0.0
  0
LINE
  5
2ACF
  8
0
 10
148.5279999999999063
 20
36.6000000000000085
 30
0.0
 11
148.8000000000000114
 21
36.8720000000000212
 31
0.0
  0
LINE
  5
2AD0
  8
0
 10
148.0
 20
36.8720000000000212
 30
0.0
 11
148.2719999999999914
 21
36.6000000000000085
 31
0.0
  0
LINE
  5
2AD1
  8
0
 10
147.7280000000000086
 20
36.6000000000000085
 30
0.0
 11
148.0
 21
36.8720000000000212
 31
0.0
  0
LINE
  5
2AD2
  8
0
 10
147.1999999999999886
 20
36.8720000000000212
 30
0.0
 11
147.4720000000000084
 21
36.6000000000000085
 31
0.0
  0
LINE
  5
2AD3
  8
0
 10
147.0669898243625084
 20
36.7389898243624771
 30
0.0
 11
147.1999999999999886
 21
36.8720000000000212
 31
0.0
  0
LINE
  5
2AD4
  8
0
 10
152.0
 20
36.3280000000000172
 30
0.0
 11
152.0
 21
36.8720000000000212
 31
0.0
  0
LINE
  5
2AD5
  8
0
 10
151.1999999999999886
 20
36.3280000000000172
 30
0.0
 11
151.1999999999999886
 21
36.8720000000000212
 31
0.0
  0
LINE
  5
2AD6
  8
0
 10
148.8000000000000114
 20
36.3280000000000172
 30
0.0
 11
148.8000000000000114
 21
36.8720000000000212
 31
0.0
  0
LINE
  5
2AD7
  8
0
 10
149.5999999999999091
 20
36.3280000000000172
 30
0.0
 11
149.5999999999999091
 21
36.8720000000000212
 31
0.0
  0
LINE
  5
2AD8
  8
0
 10
150.4000000000000057
 20
36.3280000000000172
 30
0.0
 11
150.4000000000000057
 21
36.8720000000000212
 31
0.0
  0
LINE
  5
2AD9
  8
0
 10
147.1999999999999886
 20
36.4425730604000222
 30
0.0
 11
147.1999999999999886
 21
36.8720000000000212
 31
0.0
  0
LINE
  5
2ADA
  8
0
 10
148.0
 20
36.3280000000000172
 30
0.0
 11
148.0
 21
36.8720000000000212
 31
0.0
  0
LINE
  5
2ADB
  8
0
 10
148.3507577496999943
 20
35.8000000000000114
 30
0.0
 11
148.5279999999999063
 21
35.8000000000000114
 31
0.0
  0
LINE
  5
2ADC
  8
0
 10
148.8000000000000114
 20
35.52800000000002
 30
0.0
 11
148.5279999999999063
 21
35.8000000000000114
 31
0.0
  0
LINE
  5
2ADD
  8
0
 10
149.0720000000000027
 20
35.8000000000000114
 30
0.0
 11
148.8000000000000114
 21
35.52800000000002
 31
0.0
  0
LINE
  5
2ADE
  8
0
 10
149.0720000000000027
 20
35.8000000000000114
 30
0.0
 11
149.328000000000003
 21
35.8000000000000114
 31
0.0
  0
LINE
  5
2ADF
  8
0
 10
149.5999999999999091
 20
35.52800000000002
 30
0.0
 11
149.328000000000003
 21
35.8000000000000114
 31
0.0
  0
LINE
  5
2AE0
  8
0
 10
149.8720000000000141
 20
35.8000000000000114
 30
0.0
 11
149.5999999999999091
 21
35.52800000000002
 31
0.0
  0
LINE
  5
2AE1
  8
0
 10
149.8720000000000141
 20
35.8000000000000114
 30
0.0
 11
150.1279999999999859
 21
35.8000000000000114
 31
0.0
  0
LINE
  5
2AE2
  8
0
 10
150.4000000000000057
 20
35.52800000000002
 30
0.0
 11
150.1279999999999859
 21
35.8000000000000114
 31
0.0
  0
LINE
  5
2AE3
  8
0
 10
150.6719999999999118
 20
35.8000000000000114
 30
0.0
 11
150.4000000000000057
 21
35.52800000000002
 31
0.0
  0
LINE
  5
2AE4
  8
0
 10
150.6719999999999118
 20
35.8000000000000114
 30
0.0
 11
150.9279999999999973
 21
35.8000000000000114
 31
0.0
  0
LINE
  5
2AE5
  8
0
 10
151.1999999999999886
 20
35.52800000000002
 30
0.0
 11
150.9279999999999973
 21
35.8000000000000114
 31
0.0
  0
LINE
  5
2AE6
  8
0
 10
151.4720000000000084
 20
35.8000000000000114
 30
0.0
 11
151.1999999999999886
 21
35.52800000000002
 31
0.0
  0
LINE
  5
2AE7
  8
0
 10
151.4720000000000084
 20
35.8000000000000114
 30
0.0
 11
151.6492422501999044
 21
35.8000000000000114
 31
0.0
  0
LINE
  5
2AE8
  8
0
 10
152.0
 20
36.0720000000000169
 30
0.0
 11
152.1198431178549981
 21
35.9521568821449833
 31
0.0
  0
LINE
  5
2AE9
  8
0
 10
151.7593681482416912
 20
35.8313681482417721
 30
0.0
 11
152.0
 21
36.0720000000000169
 31
0.0
  0
LINE
  5
2AEA
  8
0
 10
151.1999999999999886
 20
36.0720000000000169
 30
0.0
 11
151.4720000000000084
 21
35.8000000000000114
 31
0.0
  0
LINE
  5
2AEB
  8
0
 10
150.9279999999999973
 20
35.8000000000000114
 30
0.0
 11
151.1999999999999886
 21
36.0720000000000169
 31
0.0
  0
LINE
  5
2AEC
  8
0
 10
150.4000000000000057
 20
36.0720000000000169
 30
0.0
 11
150.6719999999999118
 21
35.8000000000000114
 31
0.0
  0
LINE
  5
2AED
  8
0
 10
150.1279999999999859
 20
35.8000000000000114
 30
0.0
 11
150.4000000000000057
 21
36.0720000000000169
 31
0.0
  0
LINE
  5
2AEE
  8
0
 10
149.5999999999999091
 20
36.0720000000000169
 30
0.0
 11
149.8720000000000141
 21
35.8000000000000114
 31
0.0
  0
LINE
  5
2AEF
  8
0
 10
149.328000000000003
 20
35.8000000000000114
 30
0.0
 11
149.5999999999999091
 21
36.0720000000000169
 31
0.0
  0
LINE
  5
2AF0
  8
0
 10
148.8000000000000114
 20
36.0720000000000169
 30
0.0
 11
149.0720000000000027
 21
35.8000000000000114
 31
0.0
  0
LINE
  5
2AF1
  8
0
 10
148.5279999999999063
 20
35.8000000000000114
 30
0.0
 11
148.8000000000000114
 21
36.0720000000000169
 31
0.0
  0
LINE
  5
2AF2
  8
0
 10
148.0
 20
36.0720000000000169
 30
0.0
 11
148.2406318517998898
 21
35.8313681482000135
 31
0.0
  0
LINE
  5
2AF3
  8
0
 10
147.8801568821000103
 20
35.952156882100013
 30
0.0
 11
148.0
 21
36.0720000000000169
 31
0.0
  0
LINE
  5
2AF4
  8
0
 10
152.0
 20
35.7781321330999873
 30
0.0
 11
152.0
 21
36.0720000000000169
 31
0.0
  0
LINE
  5
2AF5
  8
0
 10
151.1999999999999886
 20
35.52800000000002
 30
0.0
 11
151.1999999999999886
 21
36.0720000000000169
 31
0.0
  0
LINE
  5
2AF6
  8
0
 10
148.8000000000000114
 20
35.52800000000002
 30
0.0
 11
148.8000000000000114
 21
36.0720000000000169
 31
0.0
  0
LINE
  5
2AF7
  8
0
 10
149.5999999999999091
 20
35.52800000000002
 30
0.0
 11
149.5999999999999091
 21
36.0720000000000169
 31
0.0
  0
LINE
  5
2AF8
  8
0
 10
150.4000000000000057
 20
35.52800000000002
 30
0.0
 11
150.4000000000000057
 21
36.0720000000000169
 31
0.0
  0
LINE
  5
2AF9
  8
0
 10
148.0
 20
35.7781321331000228
 30
0.0
 11
148.0
 21
36.0720000000000169
 31
0.0
  0
ENDSEC
  0
EOF
