  0
SECTION
  2
HEADER
  9
$ACADVER
  1
AC1009
  9
$INSBASE
 10
0.0
 20
0.0
 30
0.0
  9
$EXTMIN
 10
0.0
 20
-1.4802182810368341
 30
0.0
  9
$EXTMAX
 10
166.5
 20
92.0000000000000142
 30
0.0
  9
$LIMMIN
 10
0.0
 20
0.0
  9
$LIMMAX
 10
187.5
 20
135.0
  9
$ORTHOMODE
 70
     1
  9
$REGENMODE
 70
     1
  9
$FILLMODE
 70
     1
  9
$QTEXTMODE
 70
     0
  9
$MIRRTEXT
 70
     0
  9
$DRAGMODE
 70
     2
  9
$LTSCALE
 40
5.0
  9
$OSMODE
 70
    37
  9
$ATTMODE
 70
     1
  9
$TEXTSIZE
 40
2.5000000000000488
  9
$TRACEWID
 40
0.05
  9
$TEXTSTYLE
  7
STANDARD
  9
$CLAYER
  8
0
  9
$CELTYPE
  6
BYLAYER
  9
$CECOLOR
 62
   256
  9
$DIMSCALE
 40
0.5
  9
$DIMASZ
 40
3.0
  9
$DIMEXO
 40
2.0
  9
$DIMDLI
 40
0.38
  9
$DIMRND
 40
0.0
  9
$DIMDLE
 40
0.0
  9
$DIMEXE
 40
2.0
  9
$DIMTP
 40
0.0
  9
$DIMTM
 40
0.0
  9
$DIMTXT
 40
3.2000000000000002
  9
$DIMCEN
 40
0.0
  9
$DIMTSZ
 40
0.0
  9
$DIMTOL
 70
     0
  9
$DIMLIM
 70
     0
  9
$DIMTIH
 70
     0
  9
$DIMTOH
 70
     0
  9
$DIMSE1
 70
     0
  9
$DIMSE2
 70
     0
  9
$DIMTAD
 70
     1
  9
$DIMZIN
 70
     0
  9
$DIMBLK
  1

  9
$DIMASO
 70
     0
  9
$DIMSHO
 70
     0
  9
$DIMPOST
  1

  9
$DIMAPOST
  1

  9
$DIMALT
 70
     0
  9
$DIMALTD
 70
     2
  9
$DIMALTF
 40
25.3999999999999986
  9
$DIMLFAC
 40
1.0
  9
$DIMTOFL
 70
     1
  9
$DIMTVP
 40
1.6000000000000001
  9
$DIMTIX
 70
     1
  9
$DIMSOXD
 70
     0
  9
$DIMSAH
 70
     0
  9
$DIMBLK1
  1

  9
$DIMBLK2
  1

  9
$DIMSTYLE
  2
STANDARD
  9
$DIMCLRD
 70
     0
  9
$DIMCLRE
 70
     0
  9
$DIMCLRT
 70
     0
  9
$DIMTFAC
 40
1.0
  9
$DIMGAP
 40
0.09
  9
$LUNITS
 70
     2
  9
$LUPREC
 70
     1
  9
$SKETCHINC
 40
0.1
  9
$FILLETRAD
 40
0.4
  9
$AUNITS
 70
     0
  9
$AUPREC
 70
     0
  9
$MENU
  1
E:\r13\win\SUPPORT\ACAD
  9
$ELEVATION
 40
0.0
  9
$PELEVATION
 40
0.0
  9
$THICKNESS
 40
0.0
  9
$LIMCHECK
 70
     0
  9
$BLIPMODE
 70
     0
  9
$CHAMFERA
 40
0.0
  9
$CHAMFERB
 40
0.0
  9
$SKPOLY
 70
     0
  9
$TDCREATE
 40
2449840.6215393519960344
  9
$TDUPDATE
 40
2460864.3913657409138978
  9
$TDINDWG
 40
0.1108378472
  9
$TDUSRTIMER
 40
0.1108378472
  9
$USRTIMER
 70
     1
  9
$ANGBASE
 50
0.0
  9
$ANGDIR
 70
     0
  9
$PDMODE
 70
     0
  9
$PDSIZE
 40
0.0
  9
$PLINEWID
 40
0.0
  9
$COORDS
 70
     1
  9
$SPLFRAME
 70
     0
  9
$SPLINETYPE
 70
     6
  9
$SPLINESEGS
 70
     8
  9
$ATTDIA
 70
     1
  9
$ATTREQ
 70
     1
  9
$HANDLING
 70
     1
  9
$HANDSEED
  5
1769
  9
$SURFTAB1
 70
     6
  9
$SURFTAB2
 70
     6
  9
$SURFTYPE
 70
     6
  9
$SURFU
 70
     6
  9
$SURFV
 70
     6
  9
$UCSNAME
  2

  9
$UCSORG
 10
0.0
 20
0.0
 30
0.0
  9
$UCSXDIR
 10
1.0
 20
0.0
 30
0.0
  9
$UCSYDIR
 10
0.0
 20
1.0
 30
0.0
  9
$PUCSNAME
  2

  9
$PUCSORG
 10
0.0
 20
0.0
 30
0.0
  9
$PUCSXDIR
 10
1.0
 20
0.0
 30
0.0
  9
$PUCSYDIR
 10
0.0
 20
1.0
 30
0.0
  9
$USERI1
 70
     0
  9
$USERI2
 70
     1
  9
$USERI3
 70
     0
  9
$USERI4
 70
     0
  9
$USERI5
 70
     0
  9
$USERR1
 40
0.0
  9
$USERR2
 40
0.0
  9
$USERR3
 40
0.0
  9
$USERR4
 40
0.0
  9
$USERR5
 40
0.0
  9
$WORLDVIEW
 70
     1
  9
$SHADEDGE
 70
     3
  9
$SHADEDIF
 70
    70
  9
$TILEMODE
 70
     1
  9
$MAXACTVP
 70
    16
  9
$PLIMCHECK
 70
     0
  9
$PEXTMIN
 10
1.0000000000000000E+20
 20
1.0000000000000000E+20
 30
1.0000000000000000E+20
  9
$PEXTMAX
 10
-1.0000000000000000E+20
 20
-1.0000000000000000E+20
 30
-1.0000000000000000E+20
  9
$PLIMMIN
 10
0.0
 20
0.0
  9
$PLIMMAX
 10
12.0
 20
9.0
  9
$UNITMODE
 70
     0
  9
$VISRETAIN
 70
     0
  9
$PLINEGEN
 70
     0
  9
$PSLTSCALE
 70
     0
  0
ENDSEC
  0
SECTION
  2
TABLES
  0
TABLE
  2
VPORT
 70
     1
  0
VPORT
  2
*ACTIVE
 70
     0
 10
0.0
 20
0.0
 11
1.0
 21
1.0
 12
201.7898383371824025
 22
85.9220496747730209
 13
0.0
 23
0.0
 14
5.0
 24
5.0
 15
5.0
 25
5.0
 16
0.0
 26
0.0
 36
1.0
 17
0.0
 27
0.0
 37
0.0
 40
171.8440993495460134
 41
2.3485221674876842
 42
50.0
 43
0.0
 44
0.0
 50
0.0
 51
0.0
 71
     0
 72
   500
 73
     1
 74
     0
 75
     0
 76
     0
 77
     0
 78
     2
  0
ENDTAB
  0
TABLE
  2
LTYPE
 70
     3
  0
LTYPE
  2
CONTINUOUS
 70
     0
  3
Solid Line
 72
    65
 73
     0
 40
0.0
  0
LTYPE
  2
CENTER
 70
     0
  3
____ _ ____ _ ____ _ ____ _ ____ _ ____ _ ____
 72
    65
 73
     4
 40
2.0
 49
1.25
 49
-0.25
 49
0.25
 49
-0.25
  0
LTYPE
  2
HIDDEN
 70
     0
  3
_ _ _ _ _ _ _ _ _ _ _ _ _ _ _ _ _ _ _ _ _ _ _
 72
    65
 73
     2
 40
0.375
 49
0.25
 49
-0.125
  0
ENDTAB
  0
TABLE
  2
LAYER
 70
     5
  0
LAYER
  2
0
 70
     0
 62
     7
  6
CONTINUOUS
  0
LAYER
  2
1
 70
     0
 62
     1
  6
CENTER
  0
LAYER
  2
2
 70
     0
 62
     2
  6
HIDDEN
  0
LAYER
  2
3
 70
     0
 62
     3
  6
CONTINUOUS
  0
LAYER
  2
DEFPOINTS
 70
     0
 62
     7
  6
CONTINUOUS
  0
ENDTAB
  0
TABLE
  2
STYLE
 70
     2
  0
STYLE
  2
STANDARD
 70
     0
 40
0.0
 41
1.0
 50
0.0
 71
     0
 42
2.5000000000000488
  3
TXT
  4
BIGFONT
  0
STYLE
  2
STANDARD1
 70
     0
 40
0.0
 41
1.0
 50
0.0
 71
     0
 42
3.0
  3
txt
  4

  0
ENDTAB
  0
TABLE
  2
VIEW
 70
     1
  0
VIEW
  2
ALL
 70
     0
 40
135.0
 10
110.4957983193277045
 20
67.5
 41
0.0
 11
0.0
 21
0.0
 31
1.0
 12
0.0
 22
0.0
 32
0.0
 42
0.0
 43
0.0
 44
0.0
 50
0.0
 71
     0
  0
ENDTAB
  0
TABLE
  2
UCS
 70
     0
  0
ENDTAB
  0
TABLE
  2
APPID
 70
     6
  0
APPID
  2
ACAD
 70
     0
  0
APPID
  2
ACAD_MLEADERVER
 70
     0
  0
APPID
  2
ACAD_EXEMPT_FROM_CAD_STANDARDS
 70
     0
  0
APPID
  2
ACAD_NAV_VCDISPLAY
 70
     0
  0
APPID
  2
ACAD_DSTYLE_DIMJAG
 70
     0
  0
APPID
  2
ACAD_DSTYLE_DIMTALN
 70
     0
  0
ENDTAB
  0
TABLE
  2
DIMSTYLE
 70
     1
  0
DIMSTYLE
  2
STANDARD
 70
     0
  3

  4

  5

  6

  7

 40
1.0
 41
0.18
 42
0.0625
 43
0.38
 44
0.18
 45
0.0
 46
0.0
 47
0.0
 48
0.0
140
0.18
141
0.09
142
0.0
143
25.3999999999999986
144
1.0
145
0.0
146
1.0
147
0.09
 71
     0
 72
     0
 73
     1
 74
     1
 75
     0
 76
     0
 77
     0
 78
     0
170
     0
171
     2
172
     0
173
     0
174
     0
175
     0
176
     0
177
     0
178
     0
  0
ENDTAB
  0
ENDSEC
  0
SECTION
  2
BLOCKS
  0
BLOCK
  8
0
  2
$MODEL_SPACE
 70
     0
 10
0.0
 20
0.0
 30
0.0
  3
$MODEL_SPACE
  1

  0
ENDBLK
  5
E4
  8
0
  0
BLOCK
 67
     1
  8
0
  2
$PAPER_SPACE
 70
     0
 10
0.0
 20
0.0
 30
0.0
  3
$PAPER_SPACE
  1

  0
ENDBLK
  5
E2
 67
     1
  8
0
  0
ENDSEC
  0
SECTION
  2
ENTITIES
  0
TEXT
  5
1D8
  8
0
 62
     3
 10
0.0
 20
0.0
 30
0.0
 40
5.0
  1
BCFN10X40-S
  7
STANDARD1
  0
LINE
  5
E3B
  8
0
 10
68.5
 20
46.0
 30
0.0
 11
68.0
 21
45.5
 31
0.0
  0
LINE
  5
E3C
  8
0
 10
68.0
 20
30.4999999999999893
 30
0.0
 11
68.5
 21
30.0
 31
0.0
  0
LINE
  5
E3D
  8
0
 10
78.0
 20
46.0
 30
0.0
 11
68.5
 21
46.0
 31
0.0
  0
LINE
  5
E3E
  8
0
 10
68.5
 20
30.0
 30
0.0
 11
78.0
 21
30.0
 31
0.0
  0
LINE
  5
E3F
  8
0
 10
115.2999999999998977
 20
43.0
 30
0.0
 11
78.75
 21
43.0
 31
0.0
  0
LINE
  5
E40
  8
0
 10
78.75
 20
32.9999999999999929
 30
0.0
 11
115.2999999999999972
 21
32.9999999999999929
 31
0.0
  0
LINE
  5
E41
  8
0
 10
115.2999999999998977
 20
32.9999999999999929
 30
0.0
 11
116.1999999999999034
 21
33.8999999999999986
 31
0.0
  0
LINE
  5
E42
  8
0
 10
116.1999999999999034
 20
42.0999999999999872
 30
0.0
 11
115.2999999999998977
 21
43.0
 31
0.0
  0
LINE
  5
E43
  8
0
 10
117.3999999999999062
 20
42.0999999999999872
 30
0.0
 11
116.1999999999999034
 21
42.0999999999999872
 31
0.0
  0
LINE
  5
E44
  8
0
 10
116.1999999999999034
 20
33.8999999999999986
 30
0.0
 11
117.3999999999999062
 21
33.8999999999999986
 31
0.0
  0
LINE
  5
E47
  8
0
 10
68.5
 20
46.0
 30
0.0
 11
68.5
 21
30.0
 31
0.0
  0
LINE
  5
E48
  8
0
 10
68.0
 20
45.5
 30
0.0
 11
68.0
 21
30.4999999999999893
 31
0.0
  0
LINE
  5
E4A
  8
0
 10
78.0
 20
30.0
 30
0.0
 11
78.0
 21
46.0
 31
0.0
  0
LINE
  5
E4B
  8
0
 10
115.2999999999998977
 20
43.0
 30
0.0
 11
115.2999999999998977
 21
32.9999999999999929
 31
0.0
  0
LINE
  5
E4C
  8
0
 10
116.1999999999999034
 20
42.0999999999999872
 30
0.0
 11
116.1999999999999034
 21
33.8999999999999986
 31
0.0
  0
LINE
  5
E4D
  8
0
 10
117.3999999999999062
 20
42.0999999999999872
 30
0.0
 11
117.3999999999999062
 21
33.8999999999999986
 31
0.0
  0
CIRCLE
  5
E63
  8
0
 10
156.0
 20
37.9999999999999929
 30
0.0
 40
4.0999999999999934
  0
CIRCLE
  5
E64
  8
0
 10
156.0
 20
37.9999999999999929
 30
0.0
 40
3.5
  0
CIRCLE
  5
E65
  8
0
 10
156.0
 20
37.9999999999999929
 30
0.0
 40
5.0
  0
CIRCLE
  5
E66
  8
0
 10
156.0
 20
37.9999999999999929
 30
0.0
 40
8.0
  0
CIRCLE
  5
E68
  8
0
 10
30.0
 20
38.0
 30
0.0
 40
8.0
  0
CIRCLE
  5
E69
  8
0
 10
30.0
 20
38.0
 30
0.0
 40
7.5
  0
LINE
  5
E6A
  8
0
 10
30.0
 20
42.6188021534999919
 30
0.0
 11
34.0
 21
40.3094010766999986
 31
0.0
  0
LINE
  5
E6B
  8
0
 10
26.0
 20
40.3094010766999986
 30
0.0
 11
30.0
 21
42.6188021534999919
 31
0.0
  0
LINE
  5
E6C
  8
0
 10
26.0
 20
35.6905989231999996
 30
0.0
 11
26.0
 21
40.3094010766999986
 31
0.0
  0
LINE
  5
E6D
  8
0
 10
30.0
 20
33.381197846500001
 30
0.0
 11
26.0
 21
35.6905989231999996
 31
0.0
  0
LINE
  5
E6E
  8
0
 10
34.0
 20
35.6905989231999996
 30
0.0
 11
30.0
 21
33.381197846500001
 31
0.0
  0
LINE
  5
E6F
  8
0
 10
34.0
 20
40.3094010766999986
 30
0.0
 11
34.0
 21
35.6905989231999996
 31
0.0
  0
ARC
  5
F10
  8
2
 10
116.1972243622000036
 20
37.9999999999999929
 30
0.0
 40
3.5000000000000231
 50
69.9005803644324715
 51
290.0994196355674717
  0
LINE
  5
F11
  8
1
 10
116.1972243622000036
 20
43.0000000000000071
 30
0.0
 11
116.1972243622000036
 21
32.9999999999999716
 31
0.0
  0
LINE
  5
F14
  8
1
 10
65.5
 20
38.0
 30
0.0
 11
120.5
 21
37.9999999999999929
 31
0.0
  0
LINE
  5
F7A
  8
2
 10
75.5
 20
42.6188021534999919
 30
0.0
 11
68.0
 21
42.6188021534999919
 31
0.0
  0
LINE
  5
F7B
  8
2
 10
75.5
 20
33.381197846500001
 30
0.0
 11
68.0
 21
33.381197846500001
 31
0.0
  0
LINE
  5
F7C
  8
2
 10
75.5000000000000568
 20
42.6188021534999919
 30
0.0
 11
75.4999999999999432
 21
33.381197846500001
 31
0.0
  0
LINE
  5
F7D
  8
2
 10
77.8094010767584905
 20
38.0
 30
0.0
 11
75.5000000000000568
 21
42.6188021534999919
 31
0.0
  0
LINE
  5
F7E
  8
2
 10
75.5
 20
33.381197846500001
 30
0.0
 11
77.8094010767584905
 21
38.0
 31
0.0
  0
LINE
  5
F81
  8
2
 10
75.5
 20
35.6905989231999996
 30
0.0
 11
68.0
 21
35.6905989231999996
 31
0.0
  0
LINE
  5
F9B
  8
3
 10
82.5000000000001137
 20
33.8119999999999408
 30
0.0
 11
81.0935747442543544
 21
33.0000000000000213
 31
0.0
  0
LINE
  5
F9C
  8
3
 10
82.5000000000001137
 20
42.1880000000000805
 30
0.0
 11
81.0935747442543544
 21
43.0000000000000071
 31
0.0
  0
LINE
  5
F9D
  8
3
 10
82.5000000000001137
 20
42.1880000000000734
 30
0.0
 11
116.1119999999997958
 21
42.1880000000000734
 31
0.0
  0
LINE
  5
F9E
  8
3
 10
82.5000000000000568
 20
33.811999999999891
 30
0.0
 11
116.1119999999998953
 21
33.8119999999999976
 31
0.0
  0
LINE
  5
F9F
  8
0
 10
82.5
 20
32.9999999999999929
 30
0.0
 11
82.5
 21
42.9999999999999787
 31
0.0
  0
LINE
  5
FA2
  8
0
 10
68.5
 20
92.0000000000000142
 30
0.0
 11
68.0
 21
91.5000000000000284
 31
0.0
  0
LINE
  5
FA3
  8
0
 10
68.0
 20
76.5
 30
0.0
 11
68.5
 21
76.0
 31
0.0
  0
LINE
  5
FA4
  8
0
 10
78.0
 20
92.0000000000000142
 30
0.0
 11
68.5
 21
92.0000000000000142
 31
0.0
  0
LINE
  5
FA5
  8
0
 10
68.5
 20
76.0
 30
0.0
 11
78.0
 21
76.0
 31
0.0
  0
LINE
  5
FA6
  8
0
 10
115.2999999999998977
 20
89.0000000000000284
 30
0.0
 11
78.75
 21
89.0000000000000284
 31
0.0
  0
LINE
  5
FA7
  8
0
 10
78.75
 20
79.0000000000000142
 30
0.0
 11
115.2999999999999972
 21
78.9999999999999858
 31
0.0
  0
LINE
  5
FA8
  8
0
 10
115.2999999999998977
 20
78.9999999999999858
 30
0.0
 11
116.1999999999999034
 21
79.8999999999999915
 31
0.0
  0
LINE
  5
FA9
  8
0
 10
116.1999999999999034
 20
88.0999999999999943
 30
0.0
 11
115.2999999999998977
 21
89.0000000000000142
 31
0.0
  0
LINE
  5
FAA
  8
0
 10
117.3999999999999062
 20
88.0999999999999943
 30
0.0
 11
116.1999999999999034
 21
88.0999999999999943
 31
0.0
  0
LINE
  5
FAB
  8
0
 10
116.1999999999999034
 20
79.8999999999999915
 30
0.0
 11
117.3999999999999062
 21
79.8999999999999915
 31
0.0
  0
LINE
  5
FAE
  8
0
 10
68.5
 20
92.0000000000000142
 30
0.0
 11
68.5
 21
76.0
 31
0.0
  0
LINE
  5
FAF
  8
0
 10
68.0
 20
91.5000000000000284
 30
0.0
 11
68.0
 21
76.5
 31
0.0
  0
LINE
  5
FB1
  8
0
 10
78.0
 20
76.0
 30
0.0
 11
78.0
 21
92.0000000000000142
 31
0.0
  0
LINE
  5
FB2
  8
0
 10
115.2999999999998977
 20
89.0000000000000142
 30
0.0
 11
115.2999999999998977
 21
78.9999999999999858
 31
0.0
  0
LINE
  5
FB3
  8
0
 10
116.1999999999999034
 20
88.0999999999999943
 30
0.0
 11
116.1999999999999034
 21
79.8999999999999915
 31
0.0
  0
LINE
  5
FB4
  8
0
 10
117.3999999999999062
 20
88.0999999999999943
 30
0.0
 11
117.3999999999999062
 21
79.8999999999999915
 31
0.0
  0
ARC
  5
FB7
  8
2
 10
116.1972243622000036
 20
84.0
 30
0.0
 40
3.5000000000000231
 50
69.9005803644322157
 51
290.0994196355678127
  0
LINE
  5
FB8
  8
1
 10
116.1972243622000036
 20
89.0000000000000284
 30
0.0
 11
116.1972243622000036
 21
78.9999999999999716
 31
0.0
  0
LINE
  5
FB9
  8
1
 10
65.5
 20
84.0000000000000284
 30
0.0
 11
120.5
 21
84.0000000000000284
 31
0.0
  0
LINE
  5
FBA
  8
2
 10
75.5
 20
88.0000000000000142
 30
0.0
 11
68.0
 21
88.0000000000000142
 31
0.0
  0
LINE
  5
FBB
  8
2
 10
75.5
 20
80.0000000000000142
 30
0.0
 11
68.0
 21
80.0000000000000142
 31
0.0
  0
LINE
  5
FBC
  8
2
 10
75.5
 20
88.0000000000000142
 30
0.0
 11
75.5
 21
80.0000000000000142
 31
0.0
  0
LINE
  5
FBD
  8
2
 10
77.8094010767584905
 20
84.0000000000000284
 30
0.0
 11
75.5
 21
88.0000000000000142
 31
0.0
  0
LINE
  5
FBE
  8
2
 10
75.5
 20
80.0000000000000142
 30
0.0
 11
77.8094010767584905
 21
84.0000000000000284
 31
0.0
  0
LINE
  5
FBF
  8
2
 10
75.5
 20
84.0000000000000284
 30
0.0
 11
68.0
 21
84.0000000000000284
 31
0.0
  0
LINE
  5
FC0
  8
3
 10
82.5000000000001137
 20
79.811999999999955
 30
0.0
 11
81.0935747442543544
 21
79.0000000000000284
 31
0.0
  0
LINE
  5
FC1
  8
3
 10
82.5000000000001137
 20
88.1880000000001019
 30
0.0
 11
81.0935747442543544
 21
89.0000000000000284
 31
0.0
  0
LINE
  5
FC2
  8
3
 10
82.5000000000001137
 20
88.1880000000001019
 30
0.0
 11
116.1119999999997958
 21
88.1880000000000734
 31
0.0
  0
LINE
  5
FC3
  8
3
 10
82.5000000000000568
 20
79.8119999999998981
 30
0.0
 11
116.1119999999998953
 21
79.8119999999999976
 31
0.0
  0
LINE
  5
FC4
  8
0
 10
82.5
 20
79.0
 30
0.0
 11
82.5
 21
89.0
 31
0.0
  0
LINE
  5
FC6
  8
1
 10
40.4999999999999929
 20
38.0
 30
0.0
 11
19.5
 21
38.0
 31
0.0
  0
LINE
  5
FC7
  8
1
 10
30.0
 20
48.5
 30
0.0
 11
30.0
 21
27.5
 31
0.0
  0
LINE
  5
FCA
  8
1
 10
166.5
 20
37.9999999999999929
 30
0.0
 11
145.5
 21
37.9999999999999929
 31
0.0
  0
LINE
  5
FCB
  8
1
 10
156.0
 20
48.4999999999999929
 30
0.0
 11
156.0
 21
27.5
 31
0.0
  0
CIRCLE
  5
FCD
  8
3
 10
156.0
 20
37.9999999999999929
 30
0.0
 40
4.1880000000000797
  0
ARC
  5
FCE
  8
0
 10
78.75
 20
32.25
 30
0.0
 40
0.75
 50
90.0
 51
180.0
  0
ARC
  5
FCF
  8
0
 10
78.75
 20
43.7499999999999929
 30
0.0
 40
0.75
 50
180.0
 51
270.0
  0
ARC
  5
FD0
  8
0
 10
78.75
 20
78.2500000000000142
 30
0.0
 40
0.75
 50
90.0
 51
180.0
  0
ARC
  5
FD1
  8
0
 10
78.75
 20
89.7500000000000284
 30
0.0
 40
0.75
 50
180.0
 51
270.0
  0
LINE
  5
FD6
  8
2
 10
75.5
 20
40.3094010766999986
 30
0.0
 11
68.0
 21
40.3094010766999986
 31
0.0
  0
LINE
  5
1532
  8
0
 10
153.4720000000000084
 20
37.9999999999999929
 30
0.0
 11
153.727999999999895
 21
37.9999999999999929
 31
0.0
  0
LINE
  5
1533
  8
0
 10
154.0
 20
37.7279999999999873
 30
0.0
 11
153.727999999999895
 21
37.9999999999999929
 31
0.0
  0
LINE
  5
1534
  8
0
 10
154.2719999999999061
 20
37.9999999999999929
 30
0.0
 11
154.0
 21
37.7279999999999873
 31
0.0
  0
LINE
  5
1535
  8
0
 10
154.2719999999999061
 20
37.9999999999999929
 30
0.0
 11
154.5279999999999063
 21
37.9999999999999929
 31
0.0
  0
LINE
  5
1536
  8
0
 10
154.7999999999998977
 20
37.7279999999999873
 30
0.0
 11
154.5279999999999063
 21
37.9999999999999929
 31
0.0
  0
LINE
  5
1537
  8
0
 10
155.0720000000000027
 20
37.9999999999999929
 30
0.0
 11
154.7999999999998977
 21
37.7279999999999873
 31
0.0
  0
LINE
  5
1538
  8
0
 10
155.0720000000000027
 20
37.9999999999999929
 30
0.0
 11
155.3279999999998893
 21
37.9999999999999929
 31
0.0
  0
LINE
  5
1539
  8
0
 10
155.5999999999999091
 20
37.7279999999999873
 30
0.0
 11
155.3279999999998893
 21
37.9999999999999929
 31
0.0
  0
LINE
  5
153A
  8
0
 10
155.8719999999999004
 20
37.9999999999999929
 30
0.0
 11
155.5999999999999091
 21
37.7279999999999873
 31
0.0
  0
LINE
  5
153B
  8
0
 10
155.8719999999999004
 20
37.9999999999999929
 30
0.0
 11
156.1279999999999006
 21
37.9999999999999929
 31
0.0
  0
LINE
  5
153C
  8
0
 10
156.4000000000000057
 20
37.7279999999999873
 30
0.0
 11
156.1279999999999006
 21
37.9999999999999929
 31
0.0
  0
LINE
  5
153D
  8
0
 10
156.6719999999999118
 20
37.9999999999999929
 30
0.0
 11
156.4000000000000057
 21
37.7279999999999873
 31
0.0
  0
LINE
  5
153E
  8
0
 10
156.6719999999999118
 20
37.9999999999999929
 30
0.0
 11
156.9279999999999973
 21
37.9999999999999929
 31
0.0
  0
LINE
  5
153F
  8
0
 10
157.1999999999999034
 20
37.7279999999999873
 30
0.0
 11
156.9279999999999973
 21
37.9999999999999929
 31
0.0
  0
LINE
  5
1540
  8
0
 10
157.4720000000000084
 20
37.9999999999999929
 30
0.0
 11
157.1999999999999034
 21
37.7279999999999873
 31
0.0
  0
LINE
  5
1541
  8
0
 10
157.4720000000000084
 20
37.9999999999999929
 30
0.0
 11
157.727999999999895
 21
37.9999999999999929
 31
0.0
  0
LINE
  5
1542
  8
0
 10
158.0
 20
37.7279999999999873
 30
0.0
 11
157.727999999999895
 21
37.9999999999999929
 31
0.0
  0
LINE
  5
1543
  8
0
 10
158.2719999999999061
 20
37.9999999999999929
 30
0.0
 11
158.0
 21
37.7279999999999873
 31
0.0
  0
LINE
  5
1544
  8
0
 10
158.2719999999999061
 20
37.9999999999999929
 30
0.0
 11
158.5279999999999063
 21
37.9999999999999929
 31
0.0
  0
LINE
  5
1545
  8
0
 10
158.7999999999998977
 20
37.7279999999999873
 30
0.0
 11
158.5279999999999063
 21
37.9999999999999929
 31
0.0
  0
LINE
  5
1546
  8
0
 10
159.0303739190999011
 20
37.9583739190999907
 30
0.0
 11
158.7999999999998977
 21
37.7279999999999873
 31
0.0
  0
ARC
  5
1547
  8
0
 10
157.7142456404880875
 20
37.0167028528073132
 30
0.0
 40
1.618313332718528
 50
21.1269277262912887
 51
35.5831813152351231
  0
LINE
  5
1548
  8
0
 10
152.7762171850999948
 20
37.5999999999999872
 30
0.0
 11
159.2237828149000052
 21
37.5999999999999872
 31
0.0
  0
ARC
  5
1549
  8
0
 10
154.2852472725566884
 20
37.0169765198432401
 30
0.0
 40
1.6177416923797581
 50
144.4142509319821954
 51
158.8756400265143043
  0
LINE
  5
154A
  8
0
 10
153.1999999999999034
 20
37.7279999999999873
 30
0.0
 11
152.9696260808999
 21
37.9583739190999907
 31
0.0
  0
LINE
  5
154B
  8
0
 10
153.4720000000000084
 20
37.9999999999999929
 30
0.0
 11
153.1999999999999034
 21
37.7279999999999873
 31
0.0
  0
LINE
  5
154C
  8
0
 10
152.7762171850999948
 20
38.3999999999999986
 30
0.0
 11
159.2237828149000052
 21
38.3999999999999986
 31
0.0
  0
ARC
  5
154D
  8
0
 10
157.7147628626757978
 20
38.9830180103278323
 30
0.0
 40
1.617730266941084
 50
324.4141995913653886
 51
338.8756913671115854
  0
LINE
  5
154E
  8
0
 10
158.7999999999998977
 20
38.2719999999999985
 30
0.0
 11
159.0303739190999011
 21
38.041626080899988
 31
0.0
  0
LINE
  5
154F
  8
0
 10
158.5279999999999063
 20
37.9999999999999929
 30
0.0
 11
158.7999999999998977
 21
38.2719999999999985
 31
0.0
  0
LINE
  5
1550
  8
0
 10
158.0
 20
38.2719999999999985
 30
0.0
 11
158.2719999999999061
 21
37.9999999999999929
 31
0.0
  0
LINE
  5
1551
  8
0
 10
157.727999999999895
 20
37.9999999999999929
 30
0.0
 11
158.0
 21
38.2719999999999985
 31
0.0
  0
LINE
  5
1552
  8
0
 10
157.1999999999999034
 20
38.2719999999999985
 30
0.0
 11
157.4720000000000084
 21
37.9999999999999929
 31
0.0
  0
LINE
  5
1553
  8
0
 10
156.9279999999999973
 20
37.9999999999999929
 30
0.0
 11
157.1999999999999034
 21
38.2719999999999985
 31
0.0
  0
LINE
  5
1554
  8
0
 10
156.4000000000000057
 20
38.2719999999999985
 30
0.0
 11
156.6719999999999118
 21
37.9999999999999929
 31
0.0
  0
LINE
  5
1555
  8
0
 10
156.1279999999999006
 20
37.9999999999999929
 30
0.0
 11
156.4000000000000057
 21
38.2719999999999985
 31
0.0
  0
LINE
  5
1556
  8
0
 10
155.5999999999999091
 20
38.2719999999999985
 30
0.0
 11
155.8719999999999004
 21
37.9999999999999929
 31
0.0
  0
LINE
  5
1557
  8
0
 10
155.3279999999998893
 20
37.9999999999999929
 30
0.0
 11
155.5999999999999091
 21
38.2719999999999985
 31
0.0
  0
LINE
  5
1558
  8
0
 10
154.7999999999998977
 20
38.2719999999999985
 30
0.0
 11
155.0720000000000027
 21
37.9999999999999929
 31
0.0
  0
LINE
  5
1559
  8
0
 10
154.5279999999999063
 20
37.9999999999999929
 30
0.0
 11
154.7999999999998977
 21
38.2719999999999985
 31
0.0
  0
LINE
  5
155A
  8
0
 10
154.0
 20
38.2719999999999985
 30
0.0
 11
154.2719999999999061
 21
37.9999999999999929
 31
0.0
  0
LINE
  5
155B
  8
0
 10
153.727999999999895
 20
37.9999999999999929
 30
0.0
 11
154.0
 21
38.2719999999999985
 31
0.0
  0
LINE
  5
155C
  8
0
 10
153.1999999999999034
 20
38.2719999999999985
 30
0.0
 11
153.4720000000000084
 21
37.9999999999999929
 31
0.0
  0
LINE
  5
155D
  8
0
 10
152.9696260808999
 20
38.041626080899988
 30
0.0
 11
153.1999999999999034
 21
38.2719999999999985
 31
0.0
  0
ARC
  5
155E
  8
0
 10
154.287644921204901
 20
38.9843174542793207
 30
0.0
 40
1.620444596042292
 50
201.1364850571004013
 51
215.5736239843949136
  0
LINE
  5
155F
  8
0
 10
153.4720000000000084
 20
38.7999999999999901
 30
0.0
 11
153.727999999999895
 21
38.7999999999999901
 31
0.0
  0
LINE
  5
1560
  8
0
 10
154.0
 20
38.5279999999999987
 30
0.0
 11
153.727999999999895
 21
38.7999999999999901
 31
0.0
  0
LINE
  5
1561
  8
0
 10
154.2719999999999061
 20
38.7999999999999901
 30
0.0
 11
154.0
 21
38.5279999999999987
 31
0.0
  0
LINE
  5
1562
  8
0
 10
154.2719999999999061
 20
38.7999999999999901
 30
0.0
 11
154.5279999999999063
 21
38.7999999999999901
 31
0.0
  0
LINE
  5
1563
  8
0
 10
154.7999999999998977
 20
38.5279999999999987
 30
0.0
 11
154.5279999999999063
 21
38.7999999999999901
 31
0.0
  0
LINE
  5
1564
  8
0
 10
155.0720000000000027
 20
38.7999999999999901
 30
0.0
 11
154.7999999999998977
 21
38.5279999999999987
 31
0.0
  0
LINE
  5
1565
  8
0
 10
155.0720000000000027
 20
38.7999999999999901
 30
0.0
 11
155.3279999999998893
 21
38.7999999999999901
 31
0.0
  0
LINE
  5
1566
  8
0
 10
155.5999999999999091
 20
38.5279999999999987
 30
0.0
 11
155.3279999999998893
 21
38.7999999999999901
 31
0.0
  0
LINE
  5
1567
  8
0
 10
155.8719999999999004
 20
38.7999999999999901
 30
0.0
 11
155.5999999999999091
 21
38.5279999999999987
 31
0.0
  0
LINE
  5
1568
  8
0
 10
155.8719999999999004
 20
38.7999999999999901
 30
0.0
 11
156.1279999999999006
 21
38.7999999999999901
 31
0.0
  0
LINE
  5
1569
  8
0
 10
156.4000000000000057
 20
38.5279999999999987
 30
0.0
 11
156.1279999999999006
 21
38.7999999999999901
 31
0.0
  0
LINE
  5
156A
  8
0
 10
156.6719999999999118
 20
38.7999999999999901
 30
0.0
 11
156.4000000000000057
 21
38.5279999999999987
 31
0.0
  0
LINE
  5
156B
  8
0
 10
156.6719999999999118
 20
38.7999999999999901
 30
0.0
 11
156.9279999999999973
 21
38.7999999999999901
 31
0.0
  0
LINE
  5
156C
  8
0
 10
157.1999999999999034
 20
38.5279999999999987
 30
0.0
 11
156.9279999999999973
 21
38.7999999999999901
 31
0.0
  0
LINE
  5
156D
  8
0
 10
157.4720000000000084
 20
38.7999999999999901
 30
0.0
 11
157.1999999999999034
 21
38.5279999999999987
 31
0.0
  0
LINE
  5
156E
  8
0
 10
157.4720000000000084
 20
38.7999999999999901
 30
0.0
 11
157.727999999999895
 21
38.7999999999999901
 31
0.0
  0
LINE
  5
156F
  8
0
 10
158.0
 20
38.5279999999999987
 30
0.0
 11
157.727999999999895
 21
38.7999999999999901
 31
0.0
  0
LINE
  5
1570
  8
0
 10
158.2719999999999061
 20
38.7999999999999901
 30
0.0
 11
158.0
 21
38.5279999999999987
 31
0.0
  0
LINE
  5
1571
  8
0
 10
158.2719999999999061
 20
38.7999999999999901
 30
0.0
 11
158.5279999999999063
 21
38.7999999999999901
 31
0.0
  0
LINE
  5
1572
  8
0
 10
158.7999999999998977
 20
38.5279999999999987
 30
0.0
 11
158.5279999999999063
 21
38.7999999999999901
 31
0.0
  0
LINE
  5
1573
  8
0
 10
158.981702313499909
 20
38.7097023134999816
 30
0.0
 11
158.7999999999998977
 21
38.5279999999999987
 31
0.0
  0
ARC
  5
1574
  8
0
 10
157.5291505372958909
 20
37.3248443719538514
 30
0.0
 40
2.0069225647286508
 50
32.3929923171293623
 51
43.6333184890670793
  0
ARC
  5
1575
  8
0
 10
154.471087231694213
 20
37.3246585185275208
 30
0.0
 40
2.0072229015775682
 50
136.3675251518818072
 51
147.6061640419584933
  0
LINE
  5
1576
  8
0
 10
153.1999999999999034
 20
38.5279999999999987
 30
0.0
 11
153.0182976864998921
 21
38.7097023134999816
 31
0.0
  0
LINE
  5
1577
  8
0
 10
153.4720000000000084
 20
38.7999999999999901
 30
0.0
 11
153.1999999999999034
 21
38.5279999999999987
 31
0.0
  0
LINE
  5
1578
  8
0
 10
153.4720000000000084
 20
37.2000000000000028
 30
0.0
 11
153.727999999999895
 21
37.2000000000000028
 31
0.0
  0
LINE
  5
1579
  8
0
 10
154.0
 20
36.9279999999999902
 30
0.0
 11
153.727999999999895
 21
37.2000000000000028
 31
0.0
  0
LINE
  5
157A
  8
0
 10
154.2719999999999061
 20
37.2000000000000028
 30
0.0
 11
154.0
 21
36.9279999999999902
 31
0.0
  0
LINE
  5
157B
  8
0
 10
154.2719999999999061
 20
37.2000000000000028
 30
0.0
 11
154.5279999999999063
 21
37.2000000000000028
 31
0.0
  0
LINE
  5
157C
  8
0
 10
154.7999999999998977
 20
36.9279999999999902
 30
0.0
 11
154.5279999999999063
 21
37.2000000000000028
 31
0.0
  0
LINE
  5
157D
  8
0
 10
155.0720000000000027
 20
37.2000000000000028
 30
0.0
 11
154.7999999999998977
 21
36.9279999999999902
 31
0.0
  0
LINE
  5
157E
  8
0
 10
155.0720000000000027
 20
37.2000000000000028
 30
0.0
 11
155.3279999999998893
 21
37.2000000000000028
 31
0.0
  0
LINE
  5
157F
  8
0
 10
155.5999999999999091
 20
36.9279999999999902
 30
0.0
 11
155.3279999999998893
 21
37.2000000000000028
 31
0.0
  0
LINE
  5
1580
  8
0
 10
155.8719999999999004
 20
37.2000000000000028
 30
0.0
 11
155.5999999999999091
 21
36.9279999999999902
 31
0.0
  0
LINE
  5
1581
  8
0
 10
155.8719999999999004
 20
37.2000000000000028
 30
0.0
 11
156.1279999999999006
 21
37.2000000000000028
 31
0.0
  0
LINE
  5
1582
  8
0
 10
156.4000000000000057
 20
36.9279999999999902
 30
0.0
 11
156.1279999999999006
 21
37.2000000000000028
 31
0.0
  0
LINE
  5
1583
  8
0
 10
156.6719999999999118
 20
37.2000000000000028
 30
0.0
 11
156.4000000000000057
 21
36.9279999999999902
 31
0.0
  0
LINE
  5
1584
  8
0
 10
156.6719999999999118
 20
37.2000000000000028
 30
0.0
 11
156.9279999999999973
 21
37.2000000000000028
 31
0.0
  0
LINE
  5
1585
  8
0
 10
157.1999999999999034
 20
36.9279999999999902
 30
0.0
 11
156.9279999999999973
 21
37.2000000000000028
 31
0.0
  0
LINE
  5
1586
  8
0
 10
157.4720000000000084
 20
37.2000000000000028
 30
0.0
 11
157.1999999999999034
 21
36.9279999999999902
 31
0.0
  0
LINE
  5
1587
  8
0
 10
157.4720000000000084
 20
37.2000000000000028
 30
0.0
 11
157.727999999999895
 21
37.2000000000000028
 31
0.0
  0
LINE
  5
1588
  8
0
 10
158.0
 20
36.9279999999999902
 30
0.0
 11
157.727999999999895
 21
37.2000000000000028
 31
0.0
  0
LINE
  5
1589
  8
0
 10
158.2719999999999061
 20
37.2000000000000028
 30
0.0
 11
158.0
 21
36.9279999999999902
 31
0.0
  0
LINE
  5
158A
  8
0
 10
158.2719999999999061
 20
37.2000000000000028
 30
0.0
 11
158.5279999999999063
 21
37.2000000000000028
 31
0.0
  0
LINE
  5
158B
  8
0
 10
158.7999999999998977
 20
36.9279999999999902
 30
0.0
 11
158.5279999999999063
 21
37.2000000000000028
 31
0.0
  0
LINE
  5
158C
  8
0
 10
158.9468185372998903
 20
37.074818537199981
 30
0.0
 11
158.7999999999998977
 21
36.9279999999999902
 31
0.0
  0
ARC
  5
158D
  8
0
 10
157.7733720346728887
 20
36.6209126792963886
 30
0.0
 40
1.2581761491804999
 50
8.1832069304829513
 51
21.1471817639171284
  0
LINE
  5
158E
  8
0
 10
152.9812625755999989
 20
36.7999999999999901
 30
0.0
 11
159.0187374243998875
 21
36.7999999999999901
 31
0.0
  0
ARC
  5
158F
  8
0
 10
154.2263499909992106
 20
36.6209854240412227
 30
0.0
 40
1.257890651205944
 50
158.8513407366075967
 51
171.8182705690176135
  0
LINE
  5
1590
  8
0
 10
153.1999999999999034
 20
36.9279999999999902
 30
0.0
 11
153.0531814626999108
 21
37.074818537199981
 31
0.0
  0
LINE
  5
1591
  8
0
 10
153.4720000000000084
 20
37.2000000000000028
 30
0.0
 11
153.1999999999999034
 21
36.9279999999999902
 31
0.0
  0
LINE
  5
1592
  8
0
 10
152.9812625755999989
 20
39.2000000000000028
 30
0.0
 11
159.0187374243998875
 21
39.2000000000000028
 31
0.0
  0
ARC
  5
1593
  8
0
 10
157.773373011418613
 20
39.3790870649280365
 30
0.0
 40
1.258175145973246
 50
338.8528130483899758
 51
351.8167982674245877
  0
LINE
  5
1594
  8
0
 10
158.7999999999998977
 20
39.0719999999999885
 30
0.0
 11
158.9468185372998903
 21
38.9251814626999888
 31
0.0
  0
LINE
  5
1595
  8
0
 10
158.5279999999999063
 20
38.7999999999999901
 30
0.0
 11
158.7999999999998977
 21
39.0719999999999885
 31
0.0
  0
LINE
  5
1596
  8
0
 10
158.0
 20
39.0719999999999885
 30
0.0
 11
158.2719999999999061
 21
38.7999999999999901
 31
0.0
  0
LINE
  5
1597
  8
0
 10
157.727999999999895
 20
38.7999999999999901
 30
0.0
 11
158.0
 21
39.0719999999999885
 31
0.0
  0
LINE
  5
1598
  8
0
 10
157.1999999999999034
 20
39.0719999999999885
 30
0.0
 11
157.4720000000000084
 21
38.7999999999999901
 31
0.0
  0
LINE
  5
1599
  8
0
 10
156.9279999999999973
 20
38.7999999999999901
 30
0.0
 11
157.1999999999999034
 21
39.0719999999999885
 31
0.0
  0
LINE
  5
159A
  8
0
 10
156.4000000000000057
 20
39.0719999999999885
 30
0.0
 11
156.6719999999999118
 21
38.7999999999999901
 31
0.0
  0
LINE
  5
159B
  8
0
 10
156.1279999999999006
 20
38.7999999999999901
 30
0.0
 11
156.4000000000000057
 21
39.0719999999999885
 31
0.0
  0
LINE
  5
159C
  8
0
 10
155.5999999999999091
 20
39.0719999999999885
 30
0.0
 11
155.8719999999999004
 21
38.7999999999999901
 31
0.0
  0
LINE
  5
159D
  8
0
 10
155.3279999999998893
 20
38.7999999999999901
 30
0.0
 11
155.5999999999999091
 21
39.0719999999999885
 31
0.0
  0
LINE
  5
159E
  8
0
 10
154.7999999999998977
 20
39.0719999999999885
 30
0.0
 11
155.0720000000000027
 21
38.7999999999999901
 31
0.0
  0
LINE
  5
159F
  8
0
 10
154.5279999999999063
 20
38.7999999999999901
 30
0.0
 11
154.7999999999998977
 21
39.0719999999999885
 31
0.0
  0
LINE
  5
15A0
  8
0
 10
154.0
 20
39.0719999999999885
 30
0.0
 11
154.2719999999999061
 21
38.7999999999999901
 31
0.0
  0
LINE
  5
15A1
  8
0
 10
153.727999999999895
 20
38.7999999999999901
 30
0.0
 11
154.0
 21
39.0719999999999885
 31
0.0
  0
LINE
  5
15A2
  8
0
 10
153.1999999999999034
 20
39.0719999999999885
 30
0.0
 11
153.4720000000000084
 21
38.7999999999999901
 31
0.0
  0
LINE
  5
15A3
  8
0
 10
153.0531814626999108
 20
38.9251814626999888
 30
0.0
 11
153.1999999999999034
 21
39.0719999999999885
 31
0.0
  0
ARC
  5
15A4
  8
0
 10
154.2275948142547861
 20
39.3793403409477705
 30
0.0
 40
1.259169173304995
 50
188.188340736407298
 51
201.1420479477530137
  0
LINE
  5
15A5
  8
0
 10
153.4720000000000084
 20
39.5999999999999872
 30
0.0
 11
153.727999999999895
 21
39.5999999999999872
 31
0.0
  0
LINE
  5
15A6
  8
0
 10
154.0
 20
39.328000000000003
 30
0.0
 11
153.727999999999895
 21
39.5999999999999872
 31
0.0
  0
LINE
  5
15A7
  8
0
 10
154.2719999999999061
 20
39.5999999999999872
 30
0.0
 11
154.0
 21
39.328000000000003
 31
0.0
  0
LINE
  5
15A8
  8
0
 10
154.2719999999999061
 20
39.5999999999999872
 30
0.0
 11
154.5279999999999063
 21
39.5999999999999872
 31
0.0
  0
LINE
  5
15A9
  8
0
 10
154.7999999999998977
 20
39.328000000000003
 30
0.0
 11
154.5279999999999063
 21
39.5999999999999872
 31
0.0
  0
LINE
  5
15AA
  8
0
 10
155.0720000000000027
 20
39.5999999999999872
 30
0.0
 11
154.7999999999998977
 21
39.328000000000003
 31
0.0
  0
LINE
  5
15AB
  8
0
 10
155.0720000000000027
 20
39.5999999999999872
 30
0.0
 11
155.3279999999998893
 21
39.5999999999999872
 31
0.0
  0
LINE
  5
15AC
  8
0
 10
155.5999999999999091
 20
39.328000000000003
 30
0.0
 11
155.3279999999998893
 21
39.5999999999999872
 31
0.0
  0
LINE
  5
15AD
  8
0
 10
155.8719999999999004
 20
39.5999999999999872
 30
0.0
 11
155.5999999999999091
 21
39.328000000000003
 31
0.0
  0
LINE
  5
15AE
  8
0
 10
155.8719999999999004
 20
39.5999999999999872
 30
0.0
 11
156.1279999999999006
 21
39.5999999999999872
 31
0.0
  0
LINE
  5
15AF
  8
0
 10
156.4000000000000057
 20
39.328000000000003
 30
0.0
 11
156.1279999999999006
 21
39.5999999999999872
 31
0.0
  0
LINE
  5
15B0
  8
0
 10
156.6719999999999118
 20
39.5999999999999872
 30
0.0
 11
156.4000000000000057
 21
39.328000000000003
 31
0.0
  0
LINE
  5
15B1
  8
0
 10
156.6719999999999118
 20
39.5999999999999872
 30
0.0
 11
156.9279999999999973
 21
39.5999999999999872
 31
0.0
  0
LINE
  5
15B2
  8
0
 10
157.1999999999999034
 20
39.328000000000003
 30
0.0
 11
156.9279999999999973
 21
39.5999999999999872
 31
0.0
  0
LINE
  5
15B3
  8
0
 10
157.4720000000000084
 20
39.5999999999999872
 30
0.0
 11
157.1999999999999034
 21
39.328000000000003
 31
0.0
  0
LINE
  5
15B4
  8
0
 10
157.4720000000000084
 20
39.5999999999999872
 30
0.0
 11
157.727999999999895
 21
39.5999999999999872
 31
0.0
  0
LINE
  5
15B5
  8
0
 10
158.0
 20
39.328000000000003
 30
0.0
 11
157.727999999999895
 21
39.5999999999999872
 31
0.0
  0
LINE
  5
15B6
  8
0
 10
158.2719999999999061
 20
39.5999999999999872
 30
0.0
 11
158.0
 21
39.328000000000003
 31
0.0
  0
LINE
  5
15B7
  8
0
 10
158.2719999999999061
 20
39.5999999999999872
 30
0.0
 11
158.5279999999999063
 21
39.5999999999999872
 31
0.0
  0
LINE
  5
15B8
  8
0
 10
158.7999999999998977
 20
39.328000000000003
 30
0.0
 11
158.5279999999999063
 21
39.5999999999999872
 31
0.0
  0
LINE
  5
15B9
  8
0
 10
158.8420062020998955
 20
39.3700062021000008
 30
0.0
 11
158.7999999999998977
 21
39.328000000000003
 31
0.0
  0
ARC
  5
15BA
  8
0
 10
157.2506213090902065
 20
37.5388058677013277
 30
0.0
 40
2.426066887454156
 50
43.2141614642267697
 51
49.008079018220343
  0
ARC
  5
15BB
  8
0
 10
154.7553967069127054
 20
37.5325497940356314
 30
0.0
 40
2.4347365576709268
 50
131.0022452967560866
 51
136.7755142208083896
  0
LINE
  5
15BC
  8
0
 10
153.1999999999999034
 20
39.328000000000003
 30
0.0
 11
153.1579937978999055
 21
39.3700062021000008
 31
0.0
  0
LINE
  5
15BD
  8
0
 10
153.4720000000000084
 20
39.5999999999999872
 30
0.0
 11
153.1999999999999034
 21
39.328000000000003
 31
0.0
  0
ARC
  5
15BE
  8
0
 10
157.2566049879920058
 20
38.4549737540239107
 30
0.0
 40
2.4174467625883742
 50
310.9815821553219735
 51
316.7961773622211012
  0
LINE
  5
15BF
  8
0
 10
158.7999999999998977
 20
36.6719999999999899
 30
0.0
 11
158.8420062020998955
 21
36.6299937978999992
 31
0.0
  0
LINE
  5
15C0
  8
0
 10
158.5279999999999063
 20
36.3999999999999986
 30
0.0
 11
158.7999999999998977
 21
36.6719999999999899
 31
0.0
  0
LINE
  5
15C1
  8
0
 10
158.2719999999999061
 20
36.3999999999999986
 30
0.0
 11
158.5279999999999063
 21
36.3999999999999986
 31
0.0
  0
LINE
  5
15C2
  8
0
 10
158.0
 20
36.6719999999999899
 30
0.0
 11
158.2719999999999061
 21
36.3999999999999986
 31
0.0
  0
LINE
  5
15C3
  8
0
 10
157.727999999999895
 20
36.3999999999999986
 30
0.0
 11
158.0
 21
36.6719999999999899
 31
0.0
  0
LINE
  5
15C4
  8
0
 10
157.4720000000000084
 20
36.3999999999999986
 30
0.0
 11
157.727999999999895
 21
36.3999999999999986
 31
0.0
  0
LINE
  5
15C5
  8
0
 10
157.1999999999999034
 20
36.6719999999999899
 30
0.0
 11
157.4720000000000084
 21
36.3999999999999986
 31
0.0
  0
LINE
  5
15C6
  8
0
 10
156.9279999999999973
 20
36.3999999999999986
 30
0.0
 11
157.1999999999999034
 21
36.6719999999999899
 31
0.0
  0
LINE
  5
15C7
  8
0
 10
156.6719999999999118
 20
36.3999999999999986
 30
0.0
 11
156.9279999999999973
 21
36.3999999999999986
 31
0.0
  0
LINE
  5
15C8
  8
0
 10
156.4000000000000057
 20
36.6719999999999899
 30
0.0
 11
156.6719999999999118
 21
36.3999999999999986
 31
0.0
  0
LINE
  5
15C9
  8
0
 10
156.1279999999999006
 20
36.3999999999999986
 30
0.0
 11
156.4000000000000057
 21
36.6719999999999899
 31
0.0
  0
LINE
  5
15CA
  8
0
 10
155.8719999999999004
 20
36.3999999999999986
 30
0.0
 11
156.1279999999999006
 21
36.3999999999999986
 31
0.0
  0
LINE
  5
15CB
  8
0
 10
155.5999999999999091
 20
36.6719999999999899
 30
0.0
 11
155.8719999999999004
 21
36.3999999999999986
 31
0.0
  0
LINE
  5
15CC
  8
0
 10
155.3279999999998893
 20
36.3999999999999986
 30
0.0
 11
155.5999999999999091
 21
36.6719999999999899
 31
0.0
  0
LINE
  5
15CD
  8
0
 10
155.0720000000000027
 20
36.3999999999999986
 30
0.0
 11
155.3279999999998893
 21
36.3999999999999986
 31
0.0
  0
LINE
  5
15CE
  8
0
 10
154.7999999999998977
 20
36.6719999999999899
 30
0.0
 11
155.0720000000000027
 21
36.3999999999999986
 31
0.0
  0
LINE
  5
15CF
  8
0
 10
154.5279999999999063
 20
36.3999999999999986
 30
0.0
 11
154.7999999999998977
 21
36.6719999999999899
 31
0.0
  0
LINE
  5
15D0
  8
0
 10
154.2719999999999061
 20
36.3999999999999986
 30
0.0
 11
154.5279999999999063
 21
36.3999999999999986
 31
0.0
  0
LINE
  5
15D1
  8
0
 10
154.0
 20
36.6719999999999899
 30
0.0
 11
154.2719999999999061
 21
36.3999999999999986
 31
0.0
  0
LINE
  5
15D2
  8
0
 10
153.727999999999895
 20
36.3999999999999986
 30
0.0
 11
154.0
 21
36.6719999999999899
 31
0.0
  0
LINE
  5
15D3
  8
0
 10
153.4720000000000084
 20
36.3999999999999986
 30
0.0
 11
153.727999999999895
 21
36.3999999999999986
 31
0.0
  0
LINE
  5
15D4
  8
0
 10
153.1999999999999034
 20
36.6719999999999899
 30
0.0
 11
153.4720000000000084
 21
36.3999999999999986
 31
0.0
  0
LINE
  5
15D5
  8
0
 10
153.1579937978999055
 20
36.6299937978999992
 30
0.0
 11
153.1999999999999034
 21
36.6719999999999899
 31
0.0
  0
ARC
  5
15D6
  8
0
 10
154.7446467800033929
 20
38.4562750388301922
 30
0.0
 40
2.4192500607815131
 50
223.2059915841522866
 51
229.016248898286392
  0
ARC
  5
15D7
  8
0
 10
157.5284640038657074
 20
38.6756922606437783
 30
0.0
 40
2.0077897575831001
 50
316.3691167493603871
 51
327.6045724444466032
  0
LINE
  5
15D8
  8
0
 10
158.7999999999998977
 20
37.4719999999999871
 30
0.0
 11
158.981702313499909
 21
37.29029768649999
 31
0.0
  0
LINE
  5
15D9
  8
0
 10
158.5279999999999063
 20
37.2000000000000028
 30
0.0
 11
158.7999999999998977
 21
37.4719999999999871
 31
0.0
  0
LINE
  5
15DA
  8
0
 10
158.0
 20
37.4719999999999871
 30
0.0
 11
158.2719999999999061
 21
37.2000000000000028
 31
0.0
  0
LINE
  5
15DB
  8
0
 10
157.727999999999895
 20
37.2000000000000028
 30
0.0
 11
158.0
 21
37.4719999999999871
 31
0.0
  0
LINE
  5
15DC
  8
0
 10
157.1999999999999034
 20
37.4719999999999871
 30
0.0
 11
157.4720000000000084
 21
37.2000000000000028
 31
0.0
  0
LINE
  5
15DD
  8
0
 10
156.9279999999999973
 20
37.2000000000000028
 30
0.0
 11
157.1999999999999034
 21
37.4719999999999871
 31
0.0
  0
LINE
  5
15DE
  8
0
 10
156.4000000000000057
 20
37.4719999999999871
 30
0.0
 11
156.6719999999999118
 21
37.2000000000000028
 31
0.0
  0
LINE
  5
15DF
  8
0
 10
156.1279999999999006
 20
37.2000000000000028
 30
0.0
 11
156.4000000000000057
 21
37.4719999999999871
 31
0.0
  0
LINE
  5
15E0
  8
0
 10
155.5999999999999091
 20
37.4719999999999871
 30
0.0
 11
155.8719999999999004
 21
37.2000000000000028
 31
0.0
  0
LINE
  5
15E1
  8
0
 10
155.3279999999998893
 20
37.2000000000000028
 30
0.0
 11
155.5999999999999091
 21
37.4719999999999871
 31
0.0
  0
LINE
  5
15E2
  8
0
 10
154.7999999999998977
 20
37.4719999999999871
 30
0.0
 11
155.0720000000000027
 21
37.2000000000000028
 31
0.0
  0
LINE
  5
15E3
  8
0
 10
154.5279999999999063
 20
37.2000000000000028
 30
0.0
 11
154.7999999999998977
 21
37.4719999999999871
 31
0.0
  0
LINE
  5
15E4
  8
0
 10
154.0
 20
37.4719999999999871
 30
0.0
 11
154.2719999999999061
 21
37.2000000000000028
 31
0.0
  0
LINE
  5
15E5
  8
0
 10
153.727999999999895
 20
37.2000000000000028
 30
0.0
 11
154.0
 21
37.4719999999999871
 31
0.0
  0
LINE
  5
15E6
  8
0
 10
153.1999999999999034
 20
37.4719999999999871
 30
0.0
 11
153.4720000000000084
 21
37.2000000000000028
 31
0.0
  0
LINE
  5
15E7
  8
0
 10
153.0182976864998921
 20
37.29029768649999
 30
0.0
 11
153.1999999999999034
 21
37.4719999999999871
 31
0.0
  0
ARC
  5
15E8
  8
0
 10
154.4729867500788032
 20
38.6768262503715476
 30
0.0
 40
2.0096222854376991
 50
212.4005666871169922
 51
223.6257441190552129
  0
LINE
  5
15E9
  8
0
 10
153.4401610133000133
 20
40.0
 30
0.0
 11
158.5598389866999014
 21
40.0
 31
0.0
  0
ARC
  5
15EA
  8
0
 10
157.5584302768874068
 20
39.8548512965076824
 30
0.0
 40
1.0118732876273731
 50
346.1698009109589975
 51
8.2472738204620892
  0
LINE
  5
15EB
  8
0
 10
158.5279999999999063
 20
39.5999999999999872
 30
0.0
 11
158.5409677594998925
 21
39.6129677594999876
 31
0.0
  0
LINE
  5
15EC
  8
0
 10
158.0
 20
39.8719999999999928
 30
0.0
 11
158.2719999999999061
 21
39.5999999999999872
 31
0.0
  0
LINE
  5
15ED
  8
0
 10
157.727999999999895
 20
39.5999999999999872
 30
0.0
 11
158.0
 21
39.8719999999999928
 31
0.0
  0
LINE
  5
15EE
  8
0
 10
157.1999999999999034
 20
39.8719999999999928
 30
0.0
 11
157.4720000000000084
 21
39.5999999999999872
 31
0.0
  0
LINE
  5
15EF
  8
0
 10
156.9279999999999973
 20
39.5999999999999872
 30
0.0
 11
157.1999999999999034
 21
39.8719999999999928
 31
0.0
  0
LINE
  5
15F0
  8
0
 10
156.4000000000000057
 20
39.8719999999999928
 30
0.0
 11
156.6719999999999118
 21
39.5999999999999872
 31
0.0
  0
LINE
  5
15F1
  8
0
 10
156.1279999999999006
 20
39.5999999999999872
 30
0.0
 11
156.4000000000000057
 21
39.8719999999999928
 31
0.0
  0
LINE
  5
15F2
  8
0
 10
155.5999999999999091
 20
39.8719999999999928
 30
0.0
 11
155.8719999999999004
 21
39.5999999999999872
 31
0.0
  0
LINE
  5
15F3
  8
0
 10
155.3279999999998893
 20
39.5999999999999872
 30
0.0
 11
155.5999999999999091
 21
39.8719999999999928
 31
0.0
  0
LINE
  5
15F4
  8
0
 10
154.7999999999998977
 20
39.8719999999999928
 30
0.0
 11
155.0720000000000027
 21
39.5999999999999872
 31
0.0
  0
LINE
  5
15F5
  8
0
 10
154.5279999999999063
 20
39.5999999999999872
 30
0.0
 11
154.7999999999998977
 21
39.8719999999999928
 31
0.0
  0
LINE
  5
15F6
  8
0
 10
154.0
 20
39.8719999999999928
 30
0.0
 11
154.2719999999999061
 21
39.5999999999999872
 31
0.0
  0
LINE
  5
15F7
  8
0
 10
153.727999999999895
 20
39.5999999999999872
 30
0.0
 11
154.0
 21
39.8719999999999928
 31
0.0
  0
LINE
  5
15F8
  8
0
 10
153.4590322404999085
 20
39.6129677594999876
 30
0.0
 11
153.4720000000000084
 21
39.5999999999999872
 31
0.0
  0
ARC
  5
15F9
  8
0
 10
154.4414278807583116
 20
39.854844380444689
 30
0.0
 40
1.011733904620298
 50
171.7511863077795908
 51
193.8317389607813936
  0
LINE
  5
15FA
  8
0
 10
158.0
 20
36.9279999999999902
 30
0.0
 11
158.0
 21
37.4719999999999871
 31
0.0
  0
LINE
  5
15FB
  8
0
 10
158.0
 20
36.1280000000000001
 30
0.0
 11
158.0
 21
36.6719999999999899
 31
0.0
  0
LINE
  5
15FC
  8
0
 10
158.0
 20
36.1280000000000001
 30
0.0
 11
157.727999999999895
 21
36.3999999999999986
 31
0.0
  0
LINE
  5
15FD
  8
0
 10
157.4720000000000084
 20
36.3999999999999986
 30
0.0
 11
157.1999999999999034
 21
36.1280000000000001
 31
0.0
  0
LINE
  5
15FE
  8
0
 10
157.1999999999999034
 20
36.1280000000000001
 30
0.0
 11
157.1999999999999034
 21
36.6719999999999899
 31
0.0
  0
LINE
  5
15FF
  8
0
 10
157.1999999999999034
 20
36.1280000000000001
 30
0.0
 11
156.9279999999999973
 21
36.3999999999999986
 31
0.0
  0
LINE
  5
1600
  8
0
 10
157.1999999999999034
 20
38.5279999999999987
 30
0.0
 11
157.1999999999999034
 21
39.0719999999999885
 31
0.0
  0
LINE
  5
1601
  8
0
 10
157.1999999999999034
 20
36.9279999999999902
 30
0.0
 11
157.1999999999999034
 21
37.4719999999999871
 31
0.0
  0
ARC
  5
1602
  8
0
 10
158.3980992000788035
 20
38.8956124708126723
 30
0.0
 40
0.7314438019962572
 50
56.6698671025356475
 51
78.7363461974856023
  0
LINE
  5
1603
  8
0
 10
158.7999999999998977
 20
39.328000000000003
 30
0.0
 11
158.7999999999998977
 21
39.5067473025000027
 31
0.0
  0
LINE
  5
1604
  8
0
 10
158.0
 20
37.7279999999999873
 30
0.0
 11
158.0
 21
38.2719999999999985
 31
0.0
  0
LINE
  5
1605
  8
0
 10
158.2719999999999061
 20
36.3999999999999986
 30
0.0
 11
158.0
 21
36.1280000000000001
 31
0.0
  0
LINE
  5
1606
  8
0
 10
157.1999999999999034
 20
37.7279999999999873
 30
0.0
 11
157.1999999999999034
 21
38.2719999999999985
 31
0.0
  0
LINE
  5
1607
  8
0
 10
158.7999999999998977
 20
36.9279999999999902
 30
0.0
 11
158.7999999999998977
 21
37.4719999999999871
 31
0.0
  0
LINE
  5
1608
  8
0
 10
156.9279999999999973
 20
35.5999999999999872
 30
0.0
 11
157.1999999999999034
 21
35.8719999999999928
 31
0.0
  0
LINE
  5
1609
  8
0
 10
157.1999999999999034
 20
35.328000000000003
 30
0.0
 11
157.1999999999999034
 21
35.8719999999999928
 31
0.0
  0
LINE
  5
160A
  8
0
 10
157.1999999999999034
 20
35.328000000000003
 30
0.0
 11
156.9279999999999973
 21
35.5999999999999872
 31
0.0
  0
LINE
  5
160B
  8
0
 10
158.0
 20
39.328000000000003
 30
0.0
 11
158.0
 21
39.8719999999999928
 31
0.0
  0
LINE
  5
160C
  8
0
 10
157.1999999999999034
 20
39.328000000000003
 30
0.0
 11
157.1999999999999034
 21
39.8719999999999928
 31
0.0
  0
LINE
  5
160D
  8
0
 10
154.7999999999998977
 20
35.328000000000003
 30
0.0
 11
154.5279999999999063
 21
35.5999999999999872
 31
0.0
  0
LINE
  5
160E
  8
0
 10
155.0720000000000027
 20
35.5999999999999872
 30
0.0
 11
154.7999999999998977
 21
35.328000000000003
 31
0.0
  0
LINE
  5
160F
  8
0
 10
155.0720000000000027
 20
35.5999999999999872
 30
0.0
 11
155.3279999999998893
 21
35.5999999999999872
 31
0.0
  0
LINE
  5
1610
  8
0
 10
155.5999999999999091
 20
35.328000000000003
 30
0.0
 11
155.3279999999998893
 21
35.5999999999999872
 31
0.0
  0
LINE
  5
1611
  8
0
 10
155.8719999999999004
 20
35.5999999999999872
 30
0.0
 11
155.5999999999999091
 21
35.328000000000003
 31
0.0
  0
LINE
  5
1612
  8
0
 10
155.8719999999999004
 20
35.5999999999999872
 30
0.0
 11
156.1279999999999006
 21
35.5999999999999872
 31
0.0
  0
LINE
  5
1613
  8
0
 10
156.4000000000000057
 20
35.328000000000003
 30
0.0
 11
156.1279999999999006
 21
35.5999999999999872
 31
0.0
  0
LINE
  5
1614
  8
0
 10
156.6719999999999118
 20
35.5999999999999872
 30
0.0
 11
156.4000000000000057
 21
35.328000000000003
 31
0.0
  0
LINE
  5
1615
  8
0
 10
156.6719999999999118
 20
35.5999999999999872
 30
0.0
 11
156.9279999999999973
 21
35.5999999999999872
 31
0.0
  0
LINE
  5
1616
  8
0
 10
157.4720000000000084
 20
35.5999999999999872
 30
0.0
 11
157.1999999999999034
 21
35.328000000000003
 31
0.0
  0
LINE
  5
1617
  8
0
 10
157.4720000000000084
 20
35.5999999999999872
 30
0.0
 11
157.727999999999895
 21
35.5999999999999872
 31
0.0
  0
LINE
  5
1618
  8
0
 10
157.7918773021999073
 20
35.5361226977999891
 30
0.0
 11
157.727999999999895
 21
35.5999999999999872
 31
0.0
  0
ARC
  5
1619
  8
0
 10
156.9801712098528128
 20
35.6866037702003567
 30
0.0
 40
0.8255369970535914
 50
323.882786100901285
 51
349.4972539062313217
  0
LINE
  5
161A
  8
0
 10
154.3529494124998962
 20
35.2000000000000028
 30
0.0
 11
157.6470505874999049
 21
35.2000000000000028
 31
0.0
  0
ARC
  5
161B
  8
0
 10
155.0180821341164972
 20
35.6858511805765772
 30
0.0
 40
0.8236825280609009
 50
190.4734196739406968
 51
216.1465403189031065
  0
LINE
  5
161C
  8
0
 10
154.2719999999999061
 20
35.5999999999999872
 30
0.0
 11
154.2081226977998938
 21
35.5361226977999891
 31
0.0
  0
LINE
  5
161D
  8
0
 10
154.2719999999999061
 20
35.5999999999999872
 30
0.0
 11
154.5279999999999063
 21
35.5999999999999872
 31
0.0
  0
ARC
  5
161E
  8
0
 10
157.933010490880406
 20
36.4938721720896666
 30
0.0
 40
0.968092264430038
 50
261.6172690651151811
 51
273.967892300988126
  0
LINE
  5
161F
  8
0
 10
157.727999999999895
 20
35.5999999999999872
 30
0.0
 11
158.0
 21
35.8719999999999928
 31
0.0
  0
LINE
  5
1620
  8
0
 10
158.0
 20
35.5281004401999922
 30
0.0
 11
158.0
 21
35.8719999999999928
 31
0.0
  0
LINE
  5
1621
  8
0
 10
154.2719999999999061
 20
40.3999999999999986
 30
0.0
 11
154.5279999999999063
 21
40.3999999999999986
 31
0.0
  0
LINE
  5
1622
  8
0
 10
154.7999999999998977
 20
40.127999999999993
 30
0.0
 11
154.5279999999999063
 21
40.3999999999999986
 31
0.0
  0
LINE
  5
1623
  8
0
 10
155.0720000000000027
 20
40.3999999999999986
 30
0.0
 11
154.7999999999998977
 21
40.127999999999993
 31
0.0
  0
LINE
  5
1624
  8
0
 10
155.0720000000000027
 20
40.3999999999999986
 30
0.0
 11
155.3279999999998893
 21
40.3999999999999986
 31
0.0
  0
LINE
  5
1625
  8
0
 10
155.5999999999999091
 20
40.127999999999993
 30
0.0
 11
155.3279999999998893
 21
40.3999999999999986
 31
0.0
  0
LINE
  5
1626
  8
0
 10
155.8719999999999004
 20
40.3999999999999986
 30
0.0
 11
155.5999999999999091
 21
40.127999999999993
 31
0.0
  0
LINE
  5
1627
  8
0
 10
155.8719999999999004
 20
40.3999999999999986
 30
0.0
 11
156.1279999999999006
 21
40.3999999999999986
 31
0.0
  0
LINE
  5
1628
  8
0
 10
156.4000000000000057
 20
40.127999999999993
 30
0.0
 11
156.1279999999999006
 21
40.3999999999999986
 31
0.0
  0
LINE
  5
1629
  8
0
 10
156.6719999999999118
 20
40.3999999999999986
 30
0.0
 11
156.4000000000000057
 21
40.127999999999993
 31
0.0
  0
LINE
  5
162A
  8
0
 10
156.6719999999999118
 20
40.3999999999999986
 30
0.0
 11
156.9279999999999973
 21
40.3999999999999986
 31
0.0
  0
LINE
  5
162B
  8
0
 10
157.1999999999999034
 20
40.127999999999993
 30
0.0
 11
156.9279999999999973
 21
40.3999999999999986
 31
0.0
  0
LINE
  5
162C
  8
0
 10
157.4720000000000084
 20
40.3999999999999986
 30
0.0
 11
157.1999999999999034
 21
40.127999999999993
 31
0.0
  0
LINE
  5
162D
  8
0
 10
157.4720000000000084
 20
40.3999999999999986
 30
0.0
 11
157.727999999999895
 21
40.3999999999999986
 31
0.0
  0
LINE
  5
162E
  8
0
 10
158.0
 20
40.127999999999993
 30
0.0
 11
157.727999999999895
 21
40.3999999999999986
 31
0.0
  0
LINE
  5
162F
  8
0
 10
158.1278970124998864
 20
40.2558970124999931
 30
0.0
 11
158.0
 21
40.127999999999993
 31
0.0
  0
ARC
  5
1630
  8
0
 10
156.6698881627362141
 20
37.3023502374698595
 30
0.0
 40
3.293816685591386
 50
54.9852361441470805
 51
63.7268984671815204
  0
ARC
  5
1631
  8
0
 10
155.3237334046530123
 20
37.3131167280491667
 30
0.0
 40
3.2813391581116149
 50
116.2564486328405025
 51
125.0314167558439067
  0
LINE
  5
1632
  8
0
 10
154.0
 20
40.127999999999993
 30
0.0
 11
153.8721029874998862
 21
40.2558970124999931
 31
0.0
  0
LINE
  5
1633
  8
0
 10
154.2719999999999061
 20
40.3999999999999986
 30
0.0
 11
154.0
 21
40.127999999999993
 31
0.0
  0
LINE
  5
1634
  8
0
 10
153.4401610133000133
 20
36.0
 30
0.0
 11
158.5598389866999014
 21
36.0
 31
0.0
  0
ARC
  5
1635
  8
0
 10
156.6291484051257896
 20
38.7664165338126594
 30
0.0
 40
3.3735184244836658
 50
296.376559182427286
 51
304.911306206251993
  0
LINE
  5
1636
  8
0
 10
158.0
 20
35.8719999999999928
 30
0.0
 11
158.1278970124998864
 21
35.7441029874999927
 31
0.0
  0
LINE
  5
1637
  8
0
 10
157.1999999999999034
 20
35.8719999999999928
 30
0.0
 11
157.4720000000000084
 21
35.5999999999999872
 31
0.0
  0
LINE
  5
1638
  8
0
 10
156.4000000000000057
 20
35.8719999999999928
 30
0.0
 11
156.6719999999999118
 21
35.5999999999999872
 31
0.0
  0
LINE
  5
1639
  8
0
 10
156.1279999999999006
 20
35.5999999999999872
 30
0.0
 11
156.4000000000000057
 21
35.8719999999999928
 31
0.0
  0
LINE
  5
163A
  8
0
 10
155.5999999999999091
 20
35.8719999999999928
 30
0.0
 11
155.8719999999999004
 21
35.5999999999999872
 31
0.0
  0
LINE
  5
163B
  8
0
 10
155.3279999999998893
 20
35.5999999999999872
 30
0.0
 11
155.5999999999999091
 21
35.8719999999999928
 31
0.0
  0
LINE
  5
163C
  8
0
 10
154.7999999999998977
 20
35.8719999999999928
 30
0.0
 11
155.0720000000000027
 21
35.5999999999999872
 31
0.0
  0
LINE
  5
163D
  8
0
 10
154.5279999999999063
 20
35.5999999999999872
 30
0.0
 11
154.7999999999998977
 21
35.8719999999999928
 31
0.0
  0
LINE
  5
163E
  8
0
 10
154.0
 20
35.8719999999999928
 30
0.0
 11
154.2719999999999061
 21
35.5999999999999872
 31
0.0
  0
LINE
  5
163F
  8
0
 10
153.8721029874998862
 20
35.7441029874999927
 30
0.0
 11
154.0
 21
35.8719999999999928
 31
0.0
  0
ARC
  5
1640
  8
0
 10
155.3561519905456976
 20
38.7416043015350482
 30
0.0
 40
3.3447594190139771
 50
235.0519330621986001
 51
243.6602015491386055
  0
LINE
  5
1641
  8
0
 10
154.0
 20
36.1280000000000001
 30
0.0
 11
153.727999999999895
 21
36.3999999999999986
 31
0.0
  0
LINE
  5
1642
  8
0
 10
154.2719999999999061
 20
36.3999999999999986
 30
0.0
 11
154.0
 21
36.1280000000000001
 31
0.0
  0
LINE
  5
1643
  8
0
 10
154.7999999999998977
 20
36.1280000000000001
 30
0.0
 11
154.5279999999999063
 21
36.3999999999999986
 31
0.0
  0
LINE
  5
1644
  8
0
 10
155.0720000000000027
 20
36.3999999999999986
 30
0.0
 11
154.7999999999998977
 21
36.1280000000000001
 31
0.0
  0
LINE
  5
1645
  8
0
 10
155.5999999999999091
 20
36.1280000000000001
 30
0.0
 11
155.3279999999998893
 21
36.3999999999999986
 31
0.0
  0
LINE
  5
1646
  8
0
 10
155.8719999999999004
 20
36.3999999999999986
 30
0.0
 11
155.5999999999999091
 21
36.1280000000000001
 31
0.0
  0
LINE
  5
1647
  8
0
 10
156.4000000000000057
 20
36.1280000000000001
 30
0.0
 11
156.1279999999999006
 21
36.3999999999999986
 31
0.0
  0
LINE
  5
1648
  8
0
 10
156.6719999999999118
 20
36.3999999999999986
 30
0.0
 11
156.4000000000000057
 21
36.1280000000000001
 31
0.0
  0
LINE
  5
1649
  8
0
 10
158.5409677594998925
 20
36.3870322404999982
 30
0.0
 11
158.5279999999999063
 21
36.3999999999999986
 31
0.0
  0
ARC
  5
164A
  8
0
 10
157.5583494817051076
 20
36.1451447640162726
 30
0.0
 40
1.011952682261436
 50
351.7536031201516948
 51
13.8293221484249198
  0
ARC
  5
164B
  8
0
 10
154.4417565766117093
 20
36.1451395927402572
 30
0.0
 40
1.0120569024647741
 50
166.1718287861922079
 51
188.2452459452470066
  0
LINE
  5
164C
  8
0
 10
153.4720000000000084
 20
36.3999999999999986
 30
0.0
 11
153.4590322404999085
 21
36.3870322404999982
 31
0.0
  0
ARC
  5
164D
  8
0
 10
158.3978903687298043
 20
37.104896791279252
 30
0.0
 40
0.7319840524322184
 50
281.2718990850505065
 51
303.3218876149747985
  0
LINE
  5
164E
  8
0
 10
158.7999999999998977
 20
36.4932526974999902
 30
0.0
 11
158.7999999999998977
 21
36.6719999999999899
 31
0.0
  0
LINE
  5
164F
  8
0
 10
154.3529494124998962
 20
40.7999999999999901
 30
0.0
 11
157.6470505874999049
 21
40.7999999999999901
 31
0.0
  0
ARC
  5
1650
  8
0
 10
156.9820570742913901
 20
40.3142088007828079
 30
0.0
 40
0.8235347362718014
 50
10.4710766769815002
 51
36.1488833158823795
  0
LINE
  5
1651
  8
0
 10
157.727999999999895
 20
40.3999999999999986
 30
0.0
 11
157.7918773021999073
 21
40.4638773021999825
 31
0.0
  0
LINE
  5
1652
  8
0
 10
157.1999999999999034
 20
40.6719999999999828
 30
0.0
 11
157.4720000000000084
 21
40.3999999999999986
 31
0.0
  0
LINE
  5
1653
  8
0
 10
156.9279999999999973
 20
40.3999999999999986
 30
0.0
 11
157.1999999999999034
 21
40.6719999999999828
 31
0.0
  0
LINE
  5
1654
  8
0
 10
156.4000000000000057
 20
40.6719999999999828
 30
0.0
 11
156.6719999999999118
 21
40.3999999999999986
 31
0.0
  0
LINE
  5
1655
  8
0
 10
156.1279999999999006
 20
40.3999999999999986
 30
0.0
 11
156.4000000000000057
 21
40.6719999999999828
 31
0.0
  0
LINE
  5
1656
  8
0
 10
155.5999999999999091
 20
40.6719999999999828
 30
0.0
 11
155.8719999999999004
 21
40.3999999999999986
 31
0.0
  0
LINE
  5
1657
  8
0
 10
155.3279999999998893
 20
40.3999999999999986
 30
0.0
 11
155.5999999999999091
 21
40.6719999999999828
 31
0.0
  0
LINE
  5
1658
  8
0
 10
154.7999999999998977
 20
40.6719999999999828
 30
0.0
 11
155.0720000000000027
 21
40.3999999999999986
 31
0.0
  0
LINE
  5
1659
  8
0
 10
154.5279999999999063
 20
40.3999999999999986
 30
0.0
 11
154.7999999999998977
 21
40.6719999999999828
 31
0.0
  0
LINE
  5
165A
  8
0
 10
154.2081226977998938
 20
40.4638773021999825
 30
0.0
 11
154.2719999999999061
 21
40.3999999999999986
 31
0.0
  0
ARC
  5
165B
  8
0
 10
155.0264412193970998
 20
40.3105471023509168
 30
0.0
 40
0.8325595191785183
 50
143.9926253380835988
 51
169.3874146690640998
  0
ARC
  5
165C
  8
0
 10
157.9330411599287913
 20
39.5053321759377596
 30
0.0
 40
0.9688838907784312
 50
86.0371728398948363
 51
98.3776657939964849
  0
LINE
  5
165D
  8
0
 10
158.0
 20
40.127999999999993
 30
0.0
 11
158.0
 21
40.4718995597999793
 31
0.0
  0
LINE
  5
165E
  8
0
 10
157.1999999999999034
 20
40.127999999999993
 30
0.0
 11
157.1999999999999034
 21
40.6719999999999828
 31
0.0
  0
LINE
  5
165F
  8
0
 10
158.0
 20
38.5279999999999987
 30
0.0
 11
158.0
 21
39.0719999999999885
 31
0.0
  0
LINE
  5
1660
  8
0
 10
158.7999999999998977
 20
38.5279999999999987
 30
0.0
 11
158.7999999999998977
 21
39.0719999999999885
 31
0.0
  0
LINE
  5
1661
  8
0
 10
158.7999999999998977
 20
37.7279999999999873
 30
0.0
 11
158.7999999999998977
 21
38.2719999999999985
 31
0.0
  0
LINE
  5
1662
  8
0
 10
155.5999999999999091
 20
36.1280000000000001
 30
0.0
 11
155.5999999999999091
 21
36.6719999999999899
 31
0.0
  0
LINE
  5
1663
  8
0
 10
154.7999999999998977
 20
35.328000000000003
 30
0.0
 11
154.7999999999998977
 21
35.8719999999999928
 31
0.0
  0
LINE
  5
1664
  8
0
 10
155.5999999999999091
 20
35.328000000000003
 30
0.0
 11
155.5999999999999091
 21
35.8719999999999928
 31
0.0
  0
LINE
  5
1665
  8
0
 10
154.7999999999998977
 20
36.1280000000000001
 30
0.0
 11
154.7999999999998977
 21
36.6719999999999899
 31
0.0
  0
LINE
  5
1666
  8
0
 10
156.4000000000000057
 20
35.328000000000003
 30
0.0
 11
156.4000000000000057
 21
35.8719999999999928
 31
0.0
  0
LINE
  5
1667
  8
0
 10
155.5999999999999091
 20
37.7279999999999873
 30
0.0
 11
155.5999999999999091
 21
38.2719999999999985
 31
0.0
  0
LINE
  5
1668
  8
0
 10
156.4000000000000057
 20
36.1280000000000001
 30
0.0
 11
156.4000000000000057
 21
36.6719999999999899
 31
0.0
  0
LINE
  5
1669
  8
0
 10
156.4000000000000057
 20
38.5279999999999987
 30
0.0
 11
156.4000000000000057
 21
39.0719999999999885
 31
0.0
  0
LINE
  5
166A
  8
0
 10
155.5999999999999091
 20
38.5279999999999987
 30
0.0
 11
155.5999999999999091
 21
39.0719999999999885
 31
0.0
  0
LINE
  5
166B
  8
0
 10
155.5999999999999091
 20
36.9279999999999902
 30
0.0
 11
155.5999999999999091
 21
37.4719999999999871
 31
0.0
  0
LINE
  5
166C
  8
0
 10
156.4000000000000057
 20
39.328000000000003
 30
0.0
 11
156.4000000000000057
 21
39.8719999999999928
 31
0.0
  0
LINE
  5
166D
  8
0
 10
155.5999999999999091
 20
40.127999999999993
 30
0.0
 11
155.5999999999999091
 21
40.6719999999999828
 31
0.0
  0
LINE
  5
166E
  8
0
 10
156.4000000000000057
 20
40.127999999999993
 30
0.0
 11
156.4000000000000057
 21
40.6719999999999828
 31
0.0
  0
LINE
  5
166F
  8
0
 10
154.7999999999998977
 20
40.127999999999993
 30
0.0
 11
154.7999999999998977
 21
40.6719999999999828
 31
0.0
  0
LINE
  5
1670
  8
0
 10
154.7999999999998977
 20
37.7279999999999873
 30
0.0
 11
154.7999999999998977
 21
38.2719999999999985
 31
0.0
  0
LINE
  5
1671
  8
0
 10
156.4000000000000057
 20
36.9279999999999902
 30
0.0
 11
156.4000000000000057
 21
37.4719999999999871
 31
0.0
  0
LINE
  5
1672
  8
0
 10
154.7999999999998977
 20
38.5279999999999987
 30
0.0
 11
154.7999999999998977
 21
39.0719999999999885
 31
0.0
  0
LINE
  5
1673
  8
0
 10
155.5999999999999091
 20
39.328000000000003
 30
0.0
 11
155.5999999999999091
 21
39.8719999999999928
 31
0.0
  0
LINE
  5
1674
  8
0
 10
154.7999999999998977
 20
39.328000000000003
 30
0.0
 11
154.7999999999998977
 21
39.8719999999999928
 31
0.0
  0
LINE
  5
1675
  8
0
 10
156.4000000000000057
 20
37.7279999999999873
 30
0.0
 11
156.4000000000000057
 21
38.2719999999999985
 31
0.0
  0
LINE
  5
1676
  8
0
 10
154.7999999999998977
 20
36.9279999999999902
 30
0.0
 11
154.7999999999998977
 21
37.4719999999999871
 31
0.0
  0
LINE
  5
1677
  8
0
 10
154.0
 20
36.1280000000000001
 30
0.0
 11
154.0
 21
36.6719999999999899
 31
0.0
  0
LINE
  5
1678
  8
0
 10
154.0
 20
38.5279999999999987
 30
0.0
 11
154.0
 21
39.0719999999999885
 31
0.0
  0
ARC
  5
1679
  8
0
 10
153.6021177356047076
 20
37.1049165547426512
 30
0.0
 40
0.7320050187976211
 50
236.6784321229854982
 51
258.7277811770703124
  0
LINE
  5
167A
  8
0
 10
153.1999999999999034
 20
36.4932526974999902
 30
0.0
 11
153.1999999999999034
 21
36.6719999999999899
 31
0.0
  0
LINE
  5
167B
  8
0
 10
154.0
 20
39.328000000000003
 30
0.0
 11
154.0
 21
39.8719999999999928
 31
0.0
  0
LINE
  5
167C
  8
0
 10
153.1999999999999034
 20
37.7279999999999873
 30
0.0
 11
153.1999999999999034
 21
38.2719999999999985
 31
0.0
  0
ARC
  5
167D
  8
0
 10
154.0669641424229894
 20
39.5054697356908022
 30
0.0
 40
0.9687470264719086
 50
81.6214590889646843
 51
93.9637022771411949
  0
LINE
  5
167E
  8
0
 10
154.0
 20
40.127999999999993
 30
0.0
 11
154.0
 21
40.4718995597999793
 31
0.0
  0
LINE
  5
167F
  8
0
 10
154.0
 20
36.9279999999999902
 30
0.0
 11
154.0
 21
37.4719999999999871
 31
0.0
  0
ARC
  5
1680
  8
0
 10
153.602025054833689
 20
38.8953094592334025
 30
0.0
 40
0.7317652498531391
 50
101.2685612227851948
 51
123.3252254771963976
  0
LINE
  5
1681
  8
0
 10
153.1999999999999034
 20
39.328000000000003
 30
0.0
 11
153.1999999999999034
 21
39.5067473025000027
 31
0.0
  0
ARC
  5
1682
  8
0
 10
154.0672354075018973
 20
36.4874927914609017
 30
0.0
 40
0.9617454360067949
 50
265.9911949615761273
 51
278.4236436723177235
  0
LINE
  5
1683
  8
0
 10
154.0
 20
35.5281004401999922
 30
0.0
 11
154.0
 21
35.8719999999999928
 31
0.0
  0
LINE
  5
1684
  8
0
 10
154.0
 20
37.7279999999999873
 30
0.0
 11
154.0
 21
38.2719999999999985
 31
0.0
  0
LINE
  5
1685
  8
0
 10
153.1999999999999034
 20
38.5279999999999987
 30
0.0
 11
153.1999999999999034
 21
39.0719999999999885
 31
0.0
  0
LINE
  5
1686
  8
0
 10
153.1999999999999034
 20
36.9279999999999902
 30
0.0
 11
153.1999999999999034
 21
37.4719999999999871
 31
0.0
  0
ARC
  5
1687
  8
0
 10
156.9410115084056088
 20
39.2815662091707196
 30
0.0
 40
2.3034423839479219
 50
125.6038174916237011
 51
129.6201602152247858
  0
ARC
  5
1688
  8
0
 10
155.9626691875162123
 20
36.277328514188298
 30
0.0
 40
4.803667076292963
 50
95.8612750631488382
 51
104.1068266528318986
  0
ARC
  5
1689
  8
0
 10
155.8185200994734032
 20
36.8503115918931314
 30
0.0
 40
4.2128299229437181
 50
104.1048071366913064
 51
110.357866715314799
  0
ARC
  5
168A
  8
0
 10
156.8028279150161097
 20
38.666454694077828
 30
0.0
 40
3.3339879250465279
 50
147.2123431263588884
 51
151.5273584749317024
  0
ARC
  5
168B
  8
0
 10
157.3919004922080092
 20
38.1441932240967816
 30
0.0
 40
4.4077866728266004
 50
161.9935338395021063
 51
163.8530589990402007
  0
ARC
  5
168C
  8
0
 10
157.8829397171195126
 20
38.0327318797489369
 30
0.0
 40
4.9115202386067303
 50
169.5308916645828106
 51
172.0775191783083073
  0
ARC
  5
168D
  8
0
 10
158.0880039945309932
 20
37.9999999999999929
 30
0.0
 40
5.118547176431715
 50
179.534042578715912
 51
180.4659574212840027
  0
ARC
  5
168E
  8
0
 10
157.8829975457647095
 20
37.9672774816777974
 30
0.0
 40
4.9115788056193868
 50
187.9224960027636087
 51
190.4690931459556964
  0
ARC
  5
168F
  8
0
 10
157.3533791491566092
 20
37.8439732063559333
 30
0.0
 40
4.3674940468985337
 50
196.1383626469128956
 51
198.0150445145121125
  0
ARC
  5
1690
  8
0
 10
156.7150666901486034
 20
37.2815811109879078
 30
0.0
 40
3.2320707904966421
 50
208.404574958078399
 51
212.8557234405894008
  0
ARC
  5
1691
  8
0
 10
155.8280190702012931
 20
39.1803153159613728
 30
0.0
 40
4.2448487027864763
 50
249.6657397861845027
 51
255.871586362382601
  0
ARC
  5
1692
  8
0
 10
155.9643286832339015
 20
39.7320982975396575
 30
0.0
 40
4.81321412251694
 50
255.9013650042830079
 51
264.1305332793564276
  0
ARC
  5
1693
  8
0
 10
157.1343153276588964
 20
36.9693352957515771
 30
0.0
 40
2.620001430785698
 50
230.6225571801504941
 51
234.1534651129508973
  0
ARC
  5
1694
  8
0
 10
154.8726938565181115
 20
36.4269947466213608
 30
0.0
 40
1.7406342728495381
 50
294.6982751510307139
 51
300.2270572828019795
  0
ARC
  5
1695
  8
0
 10
155.9999999999998863
 20
40.0616031667099222
 30
0.0
 40
5.1447087319110016
 50
267.2032980365702883
 51
272.7967019634297117
  0
ARC
  5
1696
  8
0
 10
157.1070781187189027
 20
36.3880751761513466
 30
0.0
 40
1.6968242816221379
 50
239.7015118152662865
 51
245.373155750943198
  0
ARC
  5
1697
  8
0
 10
155.2502660089257915
 20
36.4701623539653212
 30
0.0
 40
1.9902552225445871
 50
305.287649386910573
 51
309.9363283200618184
  0
ARC
  5
1698
  8
0
 10
156.0364673295187004
 20
39.7275765247485992
 30
0.0
 40
4.8086346644037601
 50
275.8655414756104847
 51
284.1025602411410205
  0
ARC
  5
1699
  8
0
 10
156.1665929955636898
 20
39.1976872787129622
 30
0.0
 40
4.2630104691292212
 50
284.1416459233553269
 51
290.3210279274829873
  0
ARC
  5
169A
  8
0
 10
154.9573877738843919
 20
37.4755237104210508
 30
0.0
 40
3.6124709759258771
 50
327.3787337851853749
 51
331.3609678161873831
  0
ARC
  5
169B
  8
0
 10
154.685651677130096
 20
37.8319831260361781
 30
0.0
 40
4.3266686124766318
 50
341.9761007166766831
 51
343.870492121837799
  0
ARC
  5
169C
  8
0
 10
154.1154774627995039
 20
37.9675243615273601
 30
0.0
 40
4.9131232700740206
 50
349.5313071875846731
 51
352.0771036636937765
  0
ARC
  5
169D
  8
0
 10
153.8143762738390024
 20
38.0
 30
0.0
 40
5.2161637403343297
 50
359.5427628067346859
 51
0.4572371932650579
  0
ARC
  5
169E
  8
0
 10
154.1077337273484886
 20
38.0312220098747673
 30
0.0
 40
4.9209658910825302
 50
7.9249253121082779
 51
10.4666638450007792
  0
ARC
  5
169F
  8
0
 10
154.6311813288739927
 20
38.1512838474593678
 30
0.0
 40
4.383643494934204
 50
16.1418198248823614
 51
18.0115873365911909
  0
ARC
  5
16A0
  8
0
 10
155.1561788496796055
 20
38.6421822380665319
 30
0.0
 40
3.3815949214034031
 50
28.5030295564264016
 51
32.7572688422206397
  0
ARC
  5
16A1
  8
0
 10
156.1712559873124064
 20
36.8173472994920488
 30
0.0
 40
4.2472923415754851
 50
69.6675267693953089
 51
75.8697993797763672
  0
ARC
  5
16A2
  8
0
 10
156.0370444618044132
 20
36.2757018913423792
 30
0.0
 40
4.8053144389208731
 50
75.8945891639592816
 51
84.1373091192608058
  0
ARC
  5
16A3
  8
0
 10
155.2468816471348987
 20
39.5254448643999012
 30
0.0
 40
1.995795980347741
 50
50.0701280724275719
 51
54.7058942207067815
  0
ARC
  5
16A4
  8
0
 10
157.0528671891437114
 20
39.7162289325623732
 30
0.0
 40
1.5794282205747301
 50
114.4158706957493052
 51
120.5094617380592013
  0
ARC
  5
16A5
  8
0
 10
156.000000000000199
 20
35.934578947437501
 30
0.0
 40
5.1485220738313409
 50
87.2053711071042414
 51
92.7946288929022955
  0
ARC
  5
16A6
  8
0
 10
154.9349801901992976
 20
39.6928467792576001
 30
0.0
 40
1.605743266811763
 50
59.5405153489616197
 51
65.5341522172114708
  0
LINE
  5
16A7
  8
0
 10
156.4000000000000057
 20
35.0720000000000027
 30
0.0
 11
156.5278823316999137
 21
34.9441176682999881
 31
0.0
  0
LINE
  5
16A8
  8
0
 10
156.2510220526999092
 20
34.9230220526999915
 30
0.0
 11
156.4000000000000057
 21
35.0720000000000027
 31
0.0
  0
LINE
  5
16A9
  8
0
 10
155.5999999999999091
 20
35.0720000000000027
 30
0.0
 11
155.7489779473000056
 21
34.9230220526999915
 31
0.0
  0
LINE
  5
16AA
  8
0
 10
155.472117668300001
 20
34.9441176682999881
 30
0.0
 11
155.5999999999999091
 21
35.0720000000000027
 31
0.0
  0
LINE
  5
16AB
  8
0
 10
155.5999999999999091
 20
40.9279999999999902
 30
0.0
 11
155.472117668300001
 21
41.0558823316999906
 31
0.0
  0
LINE
  5
16AC
  8
0
 10
155.7489779473000056
 20
41.0769779472999872
 30
0.0
 11
155.5999999999999091
 21
40.9279999999999902
 31
0.0
  0
LINE
  5
16AD
  8
0
 10
156.4000000000000057
 20
40.9279999999999902
 30
0.0
 11
156.2510220526999092
 21
41.0769779472999872
 31
0.0
  0
LINE
  5
16AE
  8
0
 10
156.5278823316999137
 20
41.0558823316999906
 30
0.0
 11
156.4000000000000057
 21
40.9279999999999902
 31
0.0
  0
LINE
  5
16AF
  8
0
 10
155.5999999999999091
 20
40.9279999999999902
 30
0.0
 11
155.5999999999999091
 21
41.1544076200999882
 31
0.0
  0
LINE
  5
16B0
  8
0
 10
156.4000000000000057
 20
40.9279999999999902
 30
0.0
 11
156.4000000000000057
 21
41.1544076200999882
 31
0.0
  0
LINE
  5
16B1
  8
0
 10
155.5999999999999091
 20
34.8455923798999905
 30
0.0
 11
155.5999999999999091
 21
35.0720000000000027
 31
0.0
  0
LINE
  5
16B2
  8
0
 10
156.4000000000000057
 20
34.8455923798999905
 30
0.0
 11
156.4000000000000057
 21
35.0720000000000027
 31
0.0
  0
ARC
  5
16B3
  8
0
 10
116.1972243622999059
 20
38.0
 30
0.0
 40
3.5000000000000031
 50
290.0994196338257893
 51
298.2505978955005048
  0
ARC
  5
16B4
  8
0
 10
116.1972243622999059
 20
38.0
 30
0.0
 40
3.4999999999999911
 50
61.7494021044995023
 51
69.9005803661741965
  0
LINE
  5
16B5
  8
0
 10
117.6769494676998988
 20
40.9415595740999905
 30
0.0
 11
117.8198529146000055
 21
41.0558823316999977
 31
0.0
  0
LINE
  5
16B6
  8
0
 10
117.5
 20
40.7999999999999972
 30
0.0
 11
117.6701641465999018
 21
40.9361313171999868
 31
0.0
  0
LINE
  5
16B7
  8
0
 10
117.920153372200005
 20
40.4638773021999896
 30
0.0
 11
117.5
 21
40.7999999999999972
 31
0.0
  0
LINE
  5
16B8
  8
0
 10
117.5
 20
40.0
 30
0.0
 11
117.8198712656999021
 21
40.2558970125000002
 31
0.0
  0
LINE
  5
16B9
  8
0
 10
117.9837903006999937
 20
39.6129677595000018
 30
0.0
 11
117.5
 21
40.0
 31
0.0
  0
LINE
  5
16BA
  8
0
 10
117.5
 20
39.2000000000000028
 30
0.0
 11
117.7125077526999064
 21
39.3700062021000008
 31
0.0
  0
LINE
  5
16BB
  8
0
 10
117.8435231715998981
 20
38.9251814626999888
 30
0.0
 11
117.5
 21
39.2000000000000028
 31
0.0
  0
LINE
  5
16BC
  8
0
 10
117.5
 20
38.4000000000000128
 30
0.0
 11
117.8871278919998957
 21
38.7097023134999887
 31
0.0
  0
LINE
  5
16BD
  8
0
 10
117.9479673987999035
 20
38.0416260809000022
 30
0.0
 11
117.5
 21
38.4000000000000128
 31
0.0
  0
LINE
  5
16BE
  8
0
 10
117.5
 20
37.6000000000000014
 30
0.0
 11
117.9479673987999035
 21
37.9583739190999978
 31
0.0
  0
LINE
  5
16BF
  8
0
 10
117.8871278919998957
 20
37.2902976864999971
 30
0.0
 11
117.5
 21
37.6000000000000014
 31
0.0
  0
LINE
  5
16C0
  8
0
 10
117.5
 20
36.7999999999999972
 30
0.0
 11
117.8435231715998981
 21
37.0748185371999881
 31
0.0
  0
LINE
  5
16C1
  8
0
 10
117.7125077526999064
 20
36.6299937978999992
 30
0.0
 11
117.5
 21
36.7999999999999972
 31
0.0
  0
LINE
  5
16C2
  8
0
 10
117.5
 20
36.0
 30
0.0
 11
117.9837903006999937
 21
36.3870322405000124
 31
0.0
  0
LINE
  5
16C3
  8
0
 10
117.8198712656999021
 20
35.7441029874999998
 30
0.0
 11
117.5
 21
36.0
 31
0.0
  0
LINE
  5
16C4
  8
0
 10
117.5
 20
35.2000000000000028
 30
0.0
 11
117.920153372200005
 21
35.5361226978000033
 31
0.0
  0
LINE
  5
16C5
  8
0
 10
117.6701641465999018
 20
35.0638686826999901
 30
0.0
 11
117.5
 21
35.2000000000000028
 31
0.0
  0
LINE
  5
16C6
  8
0
 10
117.8198529146000055
 20
34.9441176683000023
 30
0.0
 11
117.6769494676998988
 21
35.0584404258000006
 31
0.0
  0
LINE
  5
16C7
  8
0
 10
117.8538753704442001
 20
34.9168997036725415
 30
0.0
 11
117.8462224340999001
 21
34.9230220526999915
 31
0.0
  0
LINE
  5
16C8
  8
0
 10
117.8462224340999001
 20
41.0769779472999872
 30
0.0
 11
117.8538753704442001
 21
41.0831002963274514
 31
0.0
  0
LINE
  5
16C9
  8
0
 10
118.0
 20
36.4000000000000128
 30
0.0
 11
117.9837903006999937
 21
36.3870322405000124
 31
0.0
  0
LINE
  5
16CA
  8
0
 10
117.7125077526999064
 20
36.6299937978999992
 30
0.0
 11
118.0
 21
36.4000000000000128
 31
0.0
  0
LINE
  5
16CB
  8
0
 10
117.9837903006999937
 20
39.6129677595000018
 30
0.0
 11
118.0
 21
39.5999999999999872
 31
0.0
  0
LINE
  5
16CC
  8
0
 10
118.0
 20
39.5999999999999872
 30
0.0
 11
117.7125077526999064
 21
39.3700062021000008
 31
0.0
  0
LINE
  5
16CD
  8
0
 10
118.0
 20
37.2000000000000099
 30
0.0
 11
117.8435231715998981
 21
37.0748185371999881
 31
0.0
  0
LINE
  5
16CE
  8
0
 10
117.8871278919998957
 20
37.2902976864999971
 30
0.0
 11
118.0
 21
37.2000000000000099
 31
0.0
  0
LINE
  5
16CF
  8
0
 10
118.0
 20
38.0
 30
0.0
 11
117.9479673987999035
 21
37.9583739190999978
 31
0.0
  0
LINE
  5
16D0
  8
0
 10
117.9479673987999035
 20
38.0416260809000022
 30
0.0
 11
118.0
 21
38.0
 31
0.0
  0
LINE
  5
16D1
  8
0
 10
117.8435231715998981
 20
38.9251814626999888
 30
0.0
 11
118.0
 21
38.7999999999999972
 31
0.0
  0
LINE
  5
16D2
  8
0
 10
118.0
 20
38.7999999999999972
 30
0.0
 11
117.8871278919998957
 21
38.7097023134999887
 31
0.0
  0
LINE
  5
16D3
  8
0
 10
117.920153372200005
 20
40.4638773021999896
 30
0.0
 11
118.0
 21
40.3999999999999986
 31
0.0
  0
LINE
  5
16D4
  8
0
 10
118.0
 20
40.3999999999999986
 30
0.0
 11
117.8198712656999021
 21
40.2558970125000002
 31
0.0
  0
LINE
  5
16D5
  8
0
 10
118.0
 20
35.6000000000000014
 30
0.0
 11
117.920153372200005
 21
35.5361226978000033
 31
0.0
  0
LINE
  5
16D6
  8
0
 10
117.8198712656999021
 20
35.7441029874999998
 30
0.0
 11
118.0
 21
35.6000000000000014
 31
0.0
  0
LINE
  5
16D7
  8
0
 10
117.6769494676998988
 20
40.9415595740999905
 30
0.0
 11
117.6701641465999018
 21
40.9361313171999868
 31
0.0
  0
LINE
  5
16D8
  8
0
 10
117.6701641465999018
 20
35.0638686826999901
 30
0.0
 11
117.6769494676998988
 21
35.0584404258000006
 31
0.0
  0
LINE
  5
16D9
  8
0
 10
117.8198529146000055
 20
34.9441176683000023
 30
0.0
 11
117.8462224340999001
 21
34.9230220526999915
 31
0.0
  0
LINE
  5
16DA
  8
0
 10
117.8462224340999001
 20
41.0769779472999872
 30
0.0
 11
117.8198529146000055
 21
41.0558823316999977
 31
0.0
  0
ARC
  5
16DB
  8
0
 10
116.1972243622999059
 20
84.0000000000000142
 30
0.0
 40
3.50000000000002
 50
59.9820306210994332
 51
69.9005803661741965
  0
ARC
  5
16DC
  8
0
 10
116.1972243622999059
 20
84.0000000000000142
 30
0.0
 40
3.5000000000000031
 50
290.0994196338257893
 51
300.0179693789006024
  0
LINE
  5
16DD
  8
0
 10
117.8198529146000055
 20
83.4721176683000152
 30
0.0
 11
117.6599999999998971
 21
83.6000000000000085
 31
0.0
  0
LINE
  5
16DE
  8
0
 10
117.6599999999998971
 20
82.7999999999999829
 30
0.0
 11
117.6769494676998988
 21
82.8135595741999992
 31
0.0
  0
LINE
  5
16DF
  8
0
 10
117.6701641465999018
 20
82.7918686828000006
 30
0.0
 11
117.6599999999998971
 21
82.7999999999999829
 31
0.0
  0
LINE
  5
16E0
  8
0
 10
117.6599999999998971
 20
82.0000000000000142
 30
0.0
 11
117.920153372200005
 21
82.2081226978000359
 31
0.0
  0
LINE
  5
16E1
  8
0
 10
117.8198712656999021
 20
81.8721029875000141
 30
0.0
 11
117.6599999999998971
 21
82.0000000000000142
 31
0.0
  0
LINE
  5
16E2
  8
0
 10
117.6599999999998971
 20
81.2000000000000028
 30
0.0
 11
117.9837903006999937
 21
81.4590322405999956
 31
0.0
  0
LINE
  5
16E3
  8
0
 10
117.7125077526999064
 20
81.157993797900005
 30
0.0
 11
117.6599999999998971
 21
81.2000000000000028
 31
0.0
  0
LINE
  5
16E4
  8
0
 10
117.8871278919998957
 20
81.0182976864999915
 30
0.0
 11
117.8435231715998981
 21
81.0531814628000262
 31
0.0
  0
LINE
  5
16E5
  8
0
 10
117.8435231715998981
 20
86.946818537300004
 30
0.0
 11
117.8871278919998957
 21
86.9817023136000245
 31
0.0
  0
LINE
  5
16E6
  8
0
 10
117.6599999999998971
 20
86.8000000000000256
 30
0.0
 11
117.7125077526999064
 21
86.8420062022000252
 31
0.0
  0
LINE
  5
16E7
  8
0
 10
117.9837903006999937
 20
86.5409677595000062
 30
0.0
 11
117.6599999999998971
 21
86.8000000000000256
 31
0.0
  0
LINE
  5
16E8
  8
0
 10
117.6599999999998971
 20
86.0000000000000142
 30
0.0
 11
117.8198712656999021
 21
86.1278970125000143
 31
0.0
  0
LINE
  5
16E9
  8
0
 10
117.920153372200005
 20
85.7918773022999943
 30
0.0
 11
117.6599999999998971
 21
86.0000000000000142
 31
0.0
  0
LINE
  5
16EA
  8
0
 10
117.6599999999998971
 20
85.2000000000000171
 30
0.0
 11
117.6701641465999018
 21
85.2081313173000154
 31
0.0
  0
LINE
  5
16EB
  8
0
 10
117.6769494676998988
 20
85.1864404259000167
 30
0.0
 11
117.6599999999998971
 21
85.2000000000000171
 31
0.0
  0
LINE
  5
16EC
  8
0
 10
117.6599999999998971
 20
84.4000000000000341
 30
0.0
 11
117.8198529146000055
 21
84.5278823317000132
 31
0.0
  0
LINE
  5
16ED
  8
0
 10
117.8462224340999001
 20
84.2510220526999944
 30
0.0
 11
117.6599999999998971
 21
84.4000000000000341
 31
0.0
  0
LINE
  5
16EE
  8
0
 10
117.6599999999998971
 20
83.6000000000000085
 30
0.0
 11
117.8462224340999001
 21
83.7489779472999913
 31
0.0
  0
LINE
  5
16EF
  8
0
 10
118.0
 20
85.7279999999999944
 30
0.0
 11
117.920153372200005
 21
85.7918773022999943
 31
0.0
  0
LINE
  5
16F0
  8
0
 10
118.0
 20
85.4719999999999942
 30
0.0
 11
118.0
 21
85.7279999999999944
 31
0.0
  0
LINE
  5
16F1
  8
0
 10
117.6701641465999018
 20
85.2081313173000154
 30
0.0
 11
118.0
 21
85.4719999999999942
 31
0.0
  0
LINE
  5
16F2
  8
0
 10
118.0
 20
84.9279999999999973
 30
0.0
 11
117.6769494676998988
 21
85.1864404259000167
 31
0.0
  0
LINE
  5
16F3
  8
0
 10
118.0
 20
84.6720000000000113
 30
0.0
 11
118.0
 21
84.9279999999999973
 31
0.0
  0
LINE
  5
16F4
  8
0
 10
117.8198529146000055
 20
84.5278823317000132
 30
0.0
 11
118.0
 21
84.6720000000000113
 31
0.0
  0
LINE
  5
16F5
  8
0
 10
118.0
 20
84.1280000000000001
 30
0.0
 11
117.8462224340999001
 21
84.2510220526999944
 31
0.0
  0
LINE
  5
16F6
  8
0
 10
118.0
 20
83.8719999999999857
 30
0.0
 11
118.0
 21
84.1280000000000001
 31
0.0
  0
LINE
  5
16F7
  8
0
 10
117.8462224340999001
 20
83.7489779472999913
 30
0.0
 11
118.0
 21
83.8719999999999857
 31
0.0
  0
LINE
  5
16F8
  8
0
 10
118.0
 20
83.3280000000000172
 30
0.0
 11
117.8198529146000055
 21
83.4721176683000152
 31
0.0
  0
LINE
  5
16F9
  8
0
 10
118.0
 20
83.0720000000000169
 30
0.0
 11
118.0
 21
83.3280000000000172
 31
0.0
  0
LINE
  5
16FA
  8
0
 10
117.6769494676998988
 20
82.8135595741999992
 30
0.0
 11
118.0
 21
83.0720000000000169
 31
0.0
  0
LINE
  5
16FB
  8
0
 10
118.0
 20
82.5280000000000058
 30
0.0
 11
117.6701641465999018
 21
82.7918686828000006
 31
0.0
  0
LINE
  5
16FC
  8
0
 10
118.0
 20
82.2720000000000056
 30
0.0
 11
118.0
 21
82.5280000000000058
 31
0.0
  0
LINE
  5
16FD
  8
0
 10
117.920153372200005
 20
82.2081226978000359
 30
0.0
 11
118.0
 21
82.2720000000000056
 31
0.0
  0
LINE
  5
16FE
  8
0
 10
118.0
 20
86.5280000000000058
 30
0.0
 11
117.9837903006999937
 21
86.5409677595000062
 31
0.0
  0
LINE
  5
16FF
  8
0
 10
118.0
 20
86.2720000000000056
 30
0.0
 11
118.0
 21
86.5280000000000058
 31
0.0
  0
LINE
  5
1700
  8
0
 10
117.8198712656999021
 20
86.1278970125000143
 30
0.0
 11
118.0
 21
86.2720000000000056
 31
0.0
  0
LINE
  5
1701
  8
0
 10
118.0
 20
81.7279999999999944
 30
0.0
 11
117.8198712656999021
 21
81.8721029875000141
 31
0.0
  0
LINE
  5
1702
  8
0
 10
118.0
 20
81.4719999999999942
 30
0.0
 11
118.0
 21
81.7279999999999944
 31
0.0
  0
LINE
  5
1703
  8
0
 10
117.9837903006999937
 20
81.4590322405999956
 30
0.0
 11
118.0
 21
81.4719999999999942
 31
0.0
  0
LINE
  5
1704
  8
0
 10
117.7125077526999064
 20
86.8420062022000252
 30
0.0
 11
117.8435231715998981
 21
86.946818537300004
 31
0.0
  0
LINE
  5
1705
  8
0
 10
117.8435231715998981
 20
81.0531814628000262
 30
0.0
 11
117.7125077526999064
 21
81.157993797900005
 31
0.0
  0
LINE
  5
1706
  8
0
 10
117.8871278919998957
 20
86.9817023136000245
 30
0.0
 11
117.9481749009530063
 21
87.0305399207386756
 31
0.0
  0
LINE
  5
1707
  8
0
 10
117.9481749009529068
 20
80.9694600792613244
 30
0.0
 11
117.8871278919998957
 21
81.0182976864999915
 31
0.0
  0
ENDSEC
  0
EOF
