  0
SECTION
  2
HEADER
  9
$ACADVER
  1
AC1009
  9
$INSBASE
 10
0.0
 20
0.0
 30
0.0
  9
$EXTMIN
 10
0.0
 20
-1.4802182810368341
 30
0.0
  9
$EXTMAX
 10
314.32744282477682
 20
223.306654676259
 30
0.0
  9
$LIMMIN
 10
0.0
 20
0.0
  9
$LIMMAX
 10
375.0
 20
270.0
  9
$ORTHOMODE
 70
     1
  9
$REGENMODE
 70
     1
  9
$FILLMODE
 70
     1
  9
$QTEXTMODE
 70
     0
  9
$MIRRTEXT
 70
     0
  9
$DRAGMODE
 70
     2
  9
$LTSCALE
 40
10.0
  9
$OSMODE
 70
  3071
  9
$ATTMODE
 70
     1
  9
$TEXTSIZE
 40
5.0
  9
$TRACEWID
 40
0.05
  9
$TEXTSTYLE
  7
STANDARD
  9
$CLAYER
  8
0
  9
$CELTYPE
  6
BYLAYER
  9
$CECOLOR
 62
   256
  9
$DIMSCALE
 40
1.0
  9
$DIMASZ
 40
3.0
  9
$DIMEXO
 40
2.0
  9
$DIMDLI
 40
0.38
  9
$DIMRND
 40
0.0
  9
$DIMDLE
 40
0.0
  9
$DIMEXE
 40
2.0
  9
$DIMTP
 40
0.0
  9
$DIMTM
 40
0.0
  9
$DIMTXT
 40
3.2000000000000002
  9
$DIMCEN
 40
0.0
  9
$DIMTSZ
 40
0.0
  9
$DIMTOL
 70
     0
  9
$DIMLIM
 70
     0
  9
$DIMTIH
 70
     0
  9
$DIMTOH
 70
     0
  9
$DIMSE1
 70
     0
  9
$DIMSE2
 70
     0
  9
$DIMTAD
 70
     1
  9
$DIMZIN
 70
     0
  9
$DIMBLK
  1

  9
$DIMASO
 70
     0
  9
$DIMSHO
 70
     0
  9
$DIMPOST
  1

  9
$DIMAPOST
  1

  9
$DIMALT
 70
     0
  9
$DIMALTD
 70
     2
  9
$DIMALTF
 40
25.399999999999999
  9
$DIMLFAC
 40
1.0
  9
$DIMTOFL
 70
     1
  9
$DIMTVP
 40
1.6000000000000001
  9
$DIMTIX
 70
     1
  9
$DIMSOXD
 70
     0
  9
$DIMSAH
 70
     0
  9
$DIMBLK1
  1

  9
$DIMBLK2
  1

  9
$DIMSTYLE
  2
STANDARD
  9
$DIMCLRD
 70
     0
  9
$DIMCLRE
 70
     0
  9
$DIMCLRT
 70
     0
  9
$DIMTFAC
 40
1.0
  9
$DIMGAP
 40
0.09
  9
$LUNITS
 70
     2
  9
$LUPREC
 70
     4
  9
$SKETCHINC
 40
0.1
  9
$FILLETRAD
 40
0.4
  9
$AUNITS
 70
     0
  9
$AUPREC
 70
     4
  9
$MENU
  1
E:\r13\win\SUPPORT\ACAD
  9
$ELEVATION
 40
0.0
  9
$PELEVATION
 40
0.0
  9
$THICKNESS
 40
0.0
  9
$LIMCHECK
 70
     0
  9
$BLIPMODE
 70
     0
  9
$CHAMFERA
 40
0.0
  9
$CHAMFERB
 40
0.0
  9
$SKPOLY
 70
     0
  9
$TDCREATE
 40
2449840.6217129631
  9
$TDUPDATE
 40
2456597.5929948152
  9
$TDINDWG
 40
0.000154213
  9
$TDUSRTIMER
 40
0.000154213
  9
$USRTIMER
 70
     1
  9
$ANGBASE
 50
0.0
  9
$ANGDIR
 70
     0
  9
$PDMODE
 70
     0
  9
$PDSIZE
 40
0.0
  9
$PLINEWID
 40
0.0
  9
$COORDS
 70
     1
  9
$SPLFRAME
 70
     0
  9
$SPLINETYPE
 70
     6
  9
$SPLINESEGS
 70
     8
  9
$ATTDIA
 70
     0
  9
$ATTREQ
 70
     1
  9
$HANDLING
 70
     1
  9
$HANDSEED
  5
26A
  9
$SURFTAB1
 70
     6
  9
$SURFTAB2
 70
     6
  9
$SURFTYPE
 70
     6
  9
$SURFU
 70
     6
  9
$SURFV
 70
     6
  9
$UCSNAME
  2

  9
$UCSORG
 10
0.0
 20
0.0
 30
0.0
  9
$UCSXDIR
 10
1.0
 20
0.0
 30
0.0
  9
$UCSYDIR
 10
0.0
 20
1.0
 30
0.0
  9
$PUCSNAME
  2

  9
$PUCSORG
 10
0.0
 20
0.0
 30
0.0
  9
$PUCSXDIR
 10
1.0
 20
0.0
 30
0.0
  9
$PUCSYDIR
 10
0.0
 20
1.0
 30
0.0
  9
$USERI1
 70
     0
  9
$USERI2
 70
     1
  9
$USERI3
 70
     0
  9
$USERI4
 70
     0
  9
$USERI5
 70
     0
  9
$USERR1
 40
0.0
  9
$USERR2
 40
0.0
  9
$USERR3
 40
0.0
  9
$USERR4
 40
0.0
  9
$USERR5
 40
0.0
  9
$WORLDVIEW
 70
     1
  9
$SHADEDGE
 70
     3
  9
$SHADEDIF
 70
    70
  9
$TILEMODE
 70
     1
  9
$MAXACTVP
 70
    16
  9
$PLIMCHECK
 70
     0
  9
$PEXTMIN
 10
1.0000000000000000E+020
 20
1.0000000000000000E+020
 30
1.0000000000000000E+020
  9
$PEXTMAX
 10
-1.0000000000000000E+020
 20
-1.0000000000000000E+020
 30
-1.0000000000000000E+020
  9
$PLIMMIN
 10
0.0
 20
0.0
  9
$PLIMMAX
 10
12.0
 20
9.0
  9
$UNITMODE
 70
     0
  9
$VISRETAIN
 70
     0
  9
$PLINEGEN
 70
     0
  9
$PSLTSCALE
 70
     0
  0
ENDSEC
  0
SECTION
  2
TABLES
  0
TABLE
  2
VPORT
 70
     1
  0
VPORT
  2
*ACTIVE
 70
     0
 10
0.0
 20
0.0
 11
1.0
 21
1.0
 12
195.01701172807989
 22
134.25430329196891
 13
0.0
 23
0.0
 14
10.0
 24
10.0
 15
10.0
 25
10.0
 16
0.0
 26
0.0
 36
1.0
 17
0.0
 27
0.0
 37
0.0
 40
273.92629380544389
 41
1.831871345029239
 42
50.0
 43
0.0
 44
0.0
 50
0.0
 51
0.0
 71
     0
 72
   500
 73
     1
 74
     0
 75
     0
 76
     0
 77
     0
 78
     2
  0
ENDTAB
  0
TABLE
  2
LTYPE
 70
     4
  0
LTYPE
  2
CONTINUOUS
 70
     0
  3
Solid Line
 72
    65
 73
     0
 40
0.0
  0
LTYPE
  2
CENTER
 70
     0
  3
____ _ ____ _ ____ _ ____ _ ____ _ ____ _ ____
 72
    65
 73
     4
 40
2.0
 49
1.25
 49
-0.25
 49
0.25
 49
-0.25
  0
LTYPE
  2
HIDDEN
 70
     0
  3
_ _ _ _ _ _ _ _ _ _ _ _ _ _ _ _ _ _ _ _ _ _ _
 72
    65
 73
     2
 40
0.375
 49
0.25
 49
-0.125
  0
LTYPE
  2
PHANTOM2
 70
     0
  3
___ _ _ ___ _ _ ___ _ _ ___ _ _
 72
    65
 73
     6
 40
1.25
 49
0.625
 49
-0.125
 49
0.125
 49
-0.125
 49
0.125
 49
-0.125
  0
ENDTAB
  0
TABLE
  2
LAYER
 70
     4
  0
LAYER
  2
0
 70
     0
 62
     7
  6
CONTINUOUS
  0
LAYER
  2
1
 70
     0
 62
     1
  6
CENTER
  0
LAYER
  2
2
 70
     0
 62
     2
  6
HIDDEN
  0
LAYER
  2
3
 70
     0
 62
     3
  6
CONTINUOUS
  0
ENDTAB
  0
TABLE
  2
STYLE
 70
     2
  0
STYLE
  2
STANDARD
 70
     0
 40
0.0
 41
1.0
 50
0.0
 71
     0
 42
5.0
  3
TXT
  4
BIGFONT
  0
STYLE
  2
STANDARD1
 70
     0
 40
0.0
 41
1.0
 50
0.0
 71
     0
 42
3.0
  3
txt
  4

  0
ENDTAB
  0
TABLE
  2
VIEW
 70
     1
  0
VIEW
  2
ALL
 70
     0
 40
270.0
 10
220.99159663865549
 20
135.0
 41
0.0
 11
0.0
 21
0.0
 31
1.0
 12
0.0
 22
0.0
 32
0.0
 42
0.0
 43
0.0
 44
0.0
 50
0.0
 71
     0
  0
ENDTAB
  0
TABLE
  2
UCS
 70
     0
  0
ENDTAB
  0
TABLE
  2
APPID
 70
     3
  0
APPID
  2
ACAD
 70
     0
  0
APPID
  2
ACAD_MLEADERVER
 70
     0
  0
APPID
  2
ACAD_NAV_VCDISPLAY
 70
     0
  0
ENDTAB
  0
TABLE
  2
DIMSTYLE
 70
     1
  0
DIMSTYLE
  2
STANDARD
 70
     0
  3

  4

  5

  6

  7

 40
1.0
 41
0.18
 42
0.0625
 43
0.38
 44
0.18
 45
0.0
 46
0.0
 47
0.0
 48
0.0
140
0.18
141
0.09
142
0.0
143
25.399999999999999
144
1.0
145
0.0
146
1.0
147
0.09
 71
     0
 72
     0
 73
     1
 74
     1
 75
     0
 76
     0
 77
     0
 78
     0
170
     0
171
     2
172
     0
173
     0
174
     0
175
     0
176
     0
177
     0
178
     0
  0
ENDTAB
  0
ENDSEC
  0
SECTION
  2
BLOCKS
  0
BLOCK
  8
0
  2
$MODEL_SPACE
 70
     0
 10
0.0
 20
0.0
 30
0.0
  3
$MODEL_SPACE
  1

  0
ENDBLK
  5
E5
  8
0
  0
BLOCK
 67
     1
  8
0
  2
$PAPER_SPACE
 70
     0
 10
0.0
 20
0.0
 30
0.0
  3
$PAPER_SPACE
  1

  0
ENDBLK
  5
E3
 67
     1
  8
0
  0
ENDSEC
  0
SECTION
  2
ENTITIES
  0
CIRCLE
  5
36
  8
0
 10
68.991529957524122
 20
132.2122302158273
 30
0.0
 40
6.9607695154587068
  0
LINE
  5
37
  8
0
 10
64.991529957524577
 20
129.90282913906921
 30
0.0
 11
68.991529957524577
 21
127.59342806231049
 31
0.0
  0
LINE
  5
38
  8
0
 10
68.991529957524577
 20
127.59342806231049
 30
0.0
 11
72.991529957524122
 21
129.90282913906921
 31
0.0
  0
LINE
  5
39
  8
0
 10
72.991529957524122
 20
129.90282913906921
 30
0.0
 11
72.991529957524122
 21
134.52163129258679
 31
0.0
  0
LINE
  5
3A
  8
0
 10
72.991529957524122
 20
134.52163129258679
 30
0.0
 11
68.991529957524122
 21
136.83103236934451
 31
0.0
  0
LINE
  5
3B
  8
0
 10
68.991529957524122
 20
136.83103236934451
 30
0.0
 11
64.991529957523667
 21
134.5216312925854
 31
0.0
  0
LINE
  5
3C
  8
0
 10
64.991529957523667
 20
134.5216312925854
 30
0.0
 11
64.991529957524577
 21
129.90282913906921
 31
0.0
  0
CIRCLE
  5
3D
  8
0
 10
68.991529957524122
 20
132.2122302158273
 30
0.0
 40
8.0
  0
LINE
  5
3E
  8
3
 10
160.94320477253319
 20
128.0242302158272
 30
0.0
 11
159.5367795167875
 21
127.2122302158273
 31
0.0
  0
LINE
  5
3F
  8
3
 10
160.94320477253319
 20
136.40023021582741
 30
0.0
 11
159.5367795167875
 21
137.2122302158273
 31
0.0
  0
LINE
  5
40
  8
0
 10
160.94320477253319
 20
137.2122302158273
 30
0.0
 11
160.94320477253311
 21
127.2122302158273
 31
0.0
  0
LINE
  5
41
  8
0
 10
159.93677951678751
 20
137.2122302158273
 30
0.0
 11
216.67171600732649
 21
137.2122302158273
 31
0.0
  0
LINE
  5
42
  8
3
 10
160.94320477253319
 20
136.40023021582741
 30
0.0
 11
218.0781412630723
 21
136.40023021582741
 31
0.0
  0
LINE
  5
43
  8
3
 10
160.94320477253311
 20
128.0242302158272
 30
0.0
 11
218.07814126307221
 21
128.0242302158272
 31
0.0
  0
LINE
  5
44
  8
0
 10
159.93677951678751
 20
127.2122302158273
 30
0.0
 11
216.6717160073263
 21
127.2122302158273
 31
0.0
  0
LINE
  5
45
  8
0
 10
218.83677951678749
 20
135.9622302158273
 30
0.0
 11
218.83677951678749
 21
128.4622302158273
 31
0.0
  0
LINE
  5
46
  8
0
 10
150.13677951678741
 20
124.2122302158273
 30
0.0
 11
149.5367795167875
 21
125.2514607003686
 31
0.0
  0
LINE
  5
47
  8
0
 10
150.1367795167875
 20
140.2122302158273
 30
0.0
 11
149.5367795167875
 21
139.17299973128601
 31
0.0
  0
LINE
  5
48
  8
0
 10
150.1367795167875
 20
124.2122302158273
 30
0.0
 11
150.13677951678741
 21
140.2122302158273
 31
0.0
  0
LINE
  5
49
  8
0
 10
149.5367795167875
 20
125.2514607003686
 30
0.0
 11
149.5367795167875
 21
139.17299973128601
 31
0.0
  0
LINE
  5
4A
  8
0
 10
159.5367795167875
 20
124.2122302158273
 30
0.0
 11
150.13677951678741
 21
124.2122302158273
 31
0.0
  0
LINE
  5
4B
  8
0
 10
159.5367795167875
 20
140.2122302158273
 30
0.0
 11
159.5367795167875
 21
124.2122302158273
 31
0.0
  0
LINE
  5
4C
  8
0
 10
150.1367795167875
 20
140.2122302158273
 30
0.0
 11
159.5367795167875
 21
140.2122302158273
 31
0.0
  0
LINE
  5
4D
  8
1
 10
81.991529957524108
 20
132.2122302158273
 30
0.0
 11
55.991529957524122
 21
132.2122302158273
 31
0.0
  0
LINE
  5
4E
  8
1
 10
68.991529957524122
 20
145.2122302158273
 30
0.0
 11
68.991529957524122
 21
119.2122302158273
 31
0.0
  0
LINE
  5
4F
  8
1
 10
144.5367795167875
 20
132.2122302158273
 30
0.0
 11
223.83677951678749
 21
132.2122302158273
 31
0.0
  0
ARC
  5
50
  8
0
 10
217.7367795167871
 20
132.2122302158273
 30
0.0
 40
3.5
 50
288.31769841120399
 51
300.94972307886621
  0
ARC
  5
51
  8
0
 10
217.7367795167871
 20
132.2122302158273
 30
0.0
 40
3.5
 50
59.050276921133921
 51
71.68230158879463
  0
LINE
  5
52
  8
0
 10
219.5367795167875
 20
135.2138964197878
 30
0.0
 11
219.5367795167875
 21
129.21056401186689
 31
0.0
  0
ARC
  5
53
  8
2
 10
217.73677951678721
 20
132.2122302158273
 30
0.0
 40
3.5
 50
71.682301588794999
 51
288.31769841120359
  0
LINE
  5
54
  8
0
 10
218.83677951678749
 20
135.9622302158273
 30
0.0
 11
216.67171600732649
 21
137.21223021582719
 31
0.0
  0
LINE
  5
55
  8
0
 10
218.83677951678749
 20
128.4622302158273
 30
0.0
 11
216.67171600732649
 21
127.2122302158274
 31
0.0
  0
LINE
  5
56
  8
0
 10
216.67171600732649
 20
137.2122302158273
 30
0.0
 11
216.6717160073263
 21
127.2122302158273
 31
0.0
  0
LINE
  5
57
  8
1
 10
217.73677951678721
 20
140.7122302158273
 30
0.0
 11
217.73677951678721
 21
123.7122302158273
 31
0.0
  0
LINE
  5
58
  8
2
 10
154.5367795167875
 20
134.52163129258679
 30
0.0
 11
149.53677951678739
 21
134.52163129258679
 31
0.0
  0
LINE
  5
59
  8
2
 10
154.53677951678739
 20
136.83103236934451
 30
0.0
 11
149.53677951678739
 21
136.83103236934451
 31
0.0
  0
LINE
  5
5A
  8
2
 10
154.53677951678739
 20
136.83103236934451
 30
0.0
 11
154.5367795167875
 21
127.5934280623101
 31
0.0
  0
LINE
  5
5B
  8
2
 10
154.5367795167875
 20
129.90282913906779
 30
0.0
 11
149.53677951678739
 21
129.90282913906779
 31
0.0
  0
LINE
  5
5C
  8
2
 10
154.5367795167875
 20
127.5934280623101
 30
0.0
 11
149.53677951678739
 21
127.5934280623101
 31
0.0
  0
LINE
  5
5D
  8
2
 10
154.5367795167875
 20
127.5934280623101
 30
0.0
 11
157.2034461834543
 21
132.2122302158273
 31
0.0
  0
LINE
  5
5E
  8
2
 10
154.5367795167875
 20
136.83103236934451
 30
0.0
 11
157.2034461834543
 21
132.2122302158273
 31
0.0
  0
ARC
  5
5F
  8
0
 10
159.93677951678751
 20
137.61223021582731
 30
0.0
 40
0.4
 50
180.0
 51
269.99999999999989
  0
ARC
  5
60
  8
0
 10
159.93677951678751
 20
126.8122302158273
 30
0.0
 40
0.4
 50
89.999999999999986
 51
179.99999999999989
  0
LINE
  5
66
  8
1
 10
301.32744282477682
 20
145.2122302158273
 30
0.0
 11
301.32744282477682
 21
119.2122302158273
 31
0.0
  0
CIRCLE
  5
67
  8
0
 10
301.32744282477682
 20
132.2122302158273
 30
0.0
 40
8.0
  0
LINE
  5
68
  8
1
 10
314.32744282477682
 20
132.2122302158273
 30
0.0
 11
288.32744282477682
 21
132.2122302158273
 31
0.0
  0
CIRCLE
  5
69
  8
0
 10
301.32744282477682
 20
132.2122302158273
 30
0.0
 40
5.0
  0
CIRCLE
  5
6A
  8
0
 10
301.32744282477682
 20
132.2122302158273
 30
0.0
 40
3.3226495451668541
  0
CIRCLE
  5
6B
  8
0
 10
301.32744282477682
 20
132.2122302158273
 30
0.0
 40
3.3226495451657438
  0
CIRCLE
  5
6C
  8
0
 10
301.32744282477682
 20
132.2122302158273
 30
0.0
 40
3.0016662039629121
  0
ARC
  5
6D
  8
0
 10
159.93677951678751
 20
209.406654676259
 30
0.0
 40
0.4
 50
89.999999999999986
 51
179.99999999999989
  0
ARC
  5
6E
  8
0
 10
159.93677951678751
 20
220.20665467625901
 30
0.0
 40
0.4
 50
180.0
 51
269.99999999999989
  0
LINE
  5
6F
  8
1
 10
217.73677951678721
 20
223.306654676259
 30
0.0
 11
217.73677951678721
 21
206.306654676259
 31
0.0
  0
LINE
  5
70
  8
0
 10
216.67171600732649
 20
219.806654676259
 30
0.0
 11
216.6717160073263
 21
209.806654676259
 31
0.0
  0
LINE
  5
71
  8
0
 10
218.83677951678749
 20
211.056654676259
 30
0.0
 11
216.67171600732649
 21
209.80665467625909
 31
0.0
  0
LINE
  5
72
  8
0
 10
218.83677951678749
 20
218.556654676259
 30
0.0
 11
216.67171600732649
 21
219.80665467625889
 31
0.0
  0
ARC
  5
73
  8
2
 10
217.73677951678721
 20
214.806654676259
 30
0.0
 40
3.5
 50
71.682301588794999
 51
288.31769841120359
  0
LINE
  5
74
  8
0
 10
219.5367795167875
 20
217.8083208802195
 30
0.0
 11
219.5367795167875
 21
211.80498847229859
 31
0.0
  0
ARC
  5
75
  8
0
 10
217.7367795167871
 20
214.806654676259
 30
0.0
 40
3.5
 50
59.050276921133921
 51
71.68230158879463
  0
ARC
  5
76
  8
0
 10
217.7367795167871
 20
214.806654676259
 30
0.0
 40
3.5
 50
288.31769841120399
 51
300.94972307886621
  0
LINE
  5
77
  8
1
 10
144.5367795167875
 20
214.806654676259
 30
0.0
 11
223.83677951678749
 21
214.806654676259
 31
0.0
  0
LINE
  5
78
  8
0
 10
150.1367795167875
 20
222.806654676259
 30
0.0
 11
159.5367795167875
 21
222.806654676259
 31
0.0
  0
LINE
  5
79
  8
0
 10
159.5367795167875
 20
222.806654676259
 30
0.0
 11
159.5367795167875
 21
206.806654676259
 31
0.0
  0
LINE
  5
7A
  8
0
 10
159.5367795167875
 20
206.806654676259
 30
0.0
 11
150.13677951678741
 21
206.806654676259
 31
0.0
  0
LINE
  5
7B
  8
0
 10
149.5367795167875
 20
207.84588516080029
 30
0.0
 11
149.5367795167875
 21
221.76742419171771
 31
0.0
  0
LINE
  5
7C
  8
0
 10
150.1367795167875
 20
206.806654676259
 30
0.0
 11
150.13677951678741
 21
222.806654676259
 31
0.0
  0
LINE
  5
7D
  8
0
 10
150.1367795167875
 20
222.806654676259
 30
0.0
 11
149.5367795167875
 21
221.76742419171771
 31
0.0
  0
LINE
  5
7E
  8
0
 10
150.13677951678741
 20
206.806654676259
 30
0.0
 11
149.5367795167875
 21
207.84588516080029
 31
0.0
  0
LINE
  5
7F
  8
0
 10
218.83677951678749
 20
218.556654676259
 30
0.0
 11
218.83677951678749
 21
211.056654676259
 31
0.0
  0
LINE
  5
80
  8
0
 10
159.93677951678751
 20
209.806654676259
 30
0.0
 11
216.6717160073263
 21
209.806654676259
 31
0.0
  0
LINE
  5
81
  8
3
 10
160.94320477253311
 20
210.6186546762589
 30
0.0
 11
218.07814126307221
 21
210.6186546762589
 31
0.0
  0
LINE
  5
82
  8
3
 10
160.94320477253319
 20
218.9946546762591
 30
0.0
 11
218.0781412630723
 21
218.9946546762591
 31
0.0
  0
LINE
  5
83
  8
0
 10
159.93677951678751
 20
219.806654676259
 30
0.0
 11
216.67171600732649
 21
219.806654676259
 31
0.0
  0
LINE
  5
84
  8
0
 10
160.94320477253319
 20
219.806654676259
 30
0.0
 11
160.94320477253311
 21
209.806654676259
 31
0.0
  0
LINE
  5
85
  8
3
 10
160.94320477253319
 20
218.9946546762591
 30
0.0
 11
159.5367795167875
 21
219.806654676259
 31
0.0
  0
LINE
  5
86
  8
3
 10
160.94320477253319
 20
210.6186546762589
 30
0.0
 11
159.5367795167875
 21
209.806654676259
 31
0.0
  0
CIRCLE
  5
8A
  8
3
 10
301.32744282477682
 20
132.2122302158273
 30
0.0
 40
4.188000000000045
  0
LINE
  5
8B
  8
2
 10
154.53677951678739
 20
218.80665467625931
 30
0.0
 11
154.5367795167875
 21
210.8066546762596
 31
0.0
  0
LINE
  5
8C
  8
2
 10
149.53677951678739
 20
218.8066546762592
 30
0.0
 11
154.53677951678739
 21
218.80665467625931
 31
0.0
  0
LINE
  5
8D
  8
2
 10
149.53677951678739
 20
214.8066546762596
 30
0.0
 11
154.53677951678739
 21
214.80665467625971
 31
0.0
  0
LINE
  5
8E
  8
2
 10
149.53677951678739
 20
210.8066546762596
 30
0.0
 11
154.5367795167875
 21
210.80665467625971
 31
0.0
  0
LINE
  5
8F
  8
2
 10
154.5367795167875
 20
210.80665467625971
 30
0.0
 11
157.2034461834543
 21
214.806654676259
 31
0.0
  0
LINE
  5
90
  8
2
 10
157.2034461834543
 20
214.806654676259
 30
0.0
 11
154.53677951678739
 21
218.8066546762592
 31
0.0
  0
LINE
  5
91
  8
2
 10
157.2034461834543
 20
46.906474820143899
 30
0.0
 11
154.53677951678739
 21
50.906474820144119
 31
0.0
  0
LINE
  5
92
  8
2
 10
154.5367795167875
 20
42.906474820144581
 30
0.0
 11
157.2034461834543
 21
46.906474820143863
 31
0.0
  0
LINE
  5
93
  8
2
 10
149.53677951678739
 20
42.906474820144489
 30
0.0
 11
154.5367795167875
 21
42.906474820144581
 31
0.0
  0
LINE
  5
94
  8
2
 10
149.53677951678739
 20
46.906474820144467
 30
0.0
 11
154.53677951678739
 21
46.906474820144552
 31
0.0
  0
LINE
  5
95
  8
2
 10
149.53677951678739
 20
50.906474820144098
 30
0.0
 11
154.53677951678739
 21
50.906474820144147
 31
0.0
  0
LINE
  5
96
  8
2
 10
154.53677951678739
 20
50.906474820144183
 30
0.0
 11
154.5367795167875
 21
42.906474820144552
 31
0.0
  0
LINE
  5
97
  8
3
 10
160.94320477253319
 20
42.71847482014379
 30
0.0
 11
159.5367795167875
 21
41.906474820143899
 31
0.0
  0
LINE
  5
98
  8
3
 10
160.94320477253319
 20
51.094474820144001
 30
0.0
 11
159.5367795167875
 21
51.906474820143899
 31
0.0
  0
LINE
  5
99
  8
0
 10
160.94320477253319
 20
51.906474820143899
 30
0.0
 11
160.94320477253311
 21
41.906474820143863
 31
0.0
  0
LINE
  5
9A
  8
0
 10
159.93677951678751
 20
51.906474820143899
 30
0.0
 11
216.67171600732649
 21
51.906474820143899
 31
0.0
  0
LINE
  5
9B
  8
3
 10
160.94320477253319
 20
51.094474820143972
 30
0.0
 11
218.0781412630723
 21
51.094474820143937
 31
0.0
  0
LINE
  5
9C
  8
3
 10
160.94320477253311
 20
42.71847482014379
 30
0.0
 11
218.07814126307221
 21
42.718474820143818
 31
0.0
  0
LINE
  5
9D
  8
0
 10
159.93677951678751
 20
41.906474820143899
 30
0.0
 11
216.6717160073263
 21
41.906474820143863
 31
0.0
  0
LINE
  5
9E
  8
0
 10
218.83677951678749
 20
50.656474820143899
 30
0.0
 11
218.83677951678749
 21
43.156474820143863
 31
0.0
  0
LINE
  5
9F
  8
0
 10
150.13677951678741
 20
38.906474820143927
 30
0.0
 11
149.5367795167875
 21
39.945705304685163
 31
0.0
  0
LINE
  5
A0
  8
0
 10
150.1367795167875
 20
54.906474820143899
 30
0.0
 11
149.5367795167875
 21
53.867244335602599
 31
0.0
  0
LINE
  5
A1
  8
0
 10
150.1367795167875
 20
38.906474820143899
 30
0.0
 11
150.13677951678741
 21
54.906474820143899
 31
0.0
  0
LINE
  5
A2
  8
0
 10
149.5367795167875
 20
39.945705304685163
 30
0.0
 11
149.5367795167875
 21
53.867244335602599
 31
0.0
  0
LINE
  5
A3
  8
0
 10
159.5367795167875
 20
38.906474820143899
 30
0.0
 11
150.13677951678741
 21
38.906474820143899
 31
0.0
  0
LINE
  5
A4
  8
0
 10
159.5367795167875
 20
54.906474820143899
 30
0.0
 11
159.5367795167875
 21
38.90647482014387
 31
0.0
  0
LINE
  5
A5
  8
0
 10
150.1367795167875
 20
54.906474820143899
 30
0.0
 11
159.5367795167875
 21
54.906474820143899
 31
0.0
  0
LINE
  5
A6
  8
1
 10
144.5367795167875
 20
46.906474820143899
 30
0.0
 11
223.83677951678749
 21
46.906474820143899
 31
0.0
  0
ARC
  5
A7
  8
0
 10
217.7367795167871
 20
46.906474820143927
 30
0.0
 40
3.5
 50
288.31769841120399
 51
300.94972307886621
  0
ARC
  5
A8
  8
0
 10
217.7367795167871
 20
46.906474820143927
 30
0.0
 40
3.5
 50
59.050276921133921
 51
71.68230158879463
  0
LINE
  5
A9
  8
0
 10
219.5367795167875
 20
49.908141024104388
 30
0.0
 11
219.5367795167875
 21
43.904808616183452
 31
0.0
  0
ARC
  5
AA
  8
2
 10
217.73677951678721
 20
46.906474820143927
 30
0.0
 40
3.5
 50
71.682301588794999
 51
288.31769841120359
  0
LINE
  5
AB
  8
0
 10
218.83677951678749
 20
50.656474820143899
 30
0.0
 11
216.67171600732649
 21
51.906474820143842
 31
0.0
  0
LINE
  5
AC
  8
0
 10
218.83677951678749
 20
43.156474820143899
 30
0.0
 11
216.67171600732649
 21
41.906474820143977
 31
0.0
  0
LINE
  5
AD
  8
0
 10
216.67171600732649
 20
51.906474820143899
 30
0.0
 11
216.6717160073263
 21
41.906474820143842
 31
0.0
  0
LINE
  5
AE
  8
1
 10
217.73677951678721
 20
55.40647482014392
 30
0.0
 11
217.73677951678721
 21
38.406474820143927
 31
0.0
  0
ARC
  5
AF
  8
0
 10
159.93677951678751
 20
52.306474820143897
 30
0.0
 40
0.4
 50
180.0
 51
269.99999999999989
  0
ARC
  5
B0
  8
0
 10
159.93677951678751
 20
41.506474820143893
 30
0.0
 40
0.4
 50
89.999999999999986
 51
179.99999999999989
  0
TEXT
  5
1D9
  8
0
 62
     3
 10
0.0
 20
0.0
 30
0.0
 40
5.0
  1
BCF10X60
  7
STANDARD1
  0
ENDSEC
  0
EOF
