  0
SECTION
  2
HEADER
  9
$ACADVER
  1
AC1009
  9
$INSBASE
 10
0.0
 20
0.0
 30
0.0
  9
$EXTMIN
 10
0.0
 20
-1.4802182810368341
 30
0.0
  9
$EXTMAX
 10
290.28100505904621
 20
225.57284172661869
 30
0.0
  9
$LIMMIN
 10
0.0
 20
0.0
  9
$LIMMAX
 10
375.0
 20
270.0
  9
$ORTHOMODE
 70
     1
  9
$REGENMODE
 70
     1
  9
$FILLMODE
 70
     1
  9
$QTEXTMODE
 70
     0
  9
$MIRRTEXT
 70
     0
  9
$DRAGMODE
 70
     2
  9
$LTSCALE
 40
10.0
  9
$OSMODE
 70
  3071
  9
$ATTMODE
 70
     1
  9
$TEXTSIZE
 40
5.0
  9
$TRACEWID
 40
0.05
  9
$TEXTSTYLE
  7
STANDARD
  9
$CLAYER
  8
0
  9
$CELTYPE
  6
BYLAYER
  9
$CECOLOR
 62
   256
  9
$DIMSCALE
 40
1.0
  9
$DIMASZ
 40
3.0
  9
$DIMEXO
 40
2.0
  9
$DIMDLI
 40
0.38
  9
$DIMRND
 40
0.0
  9
$DIMDLE
 40
0.0
  9
$DIMEXE
 40
2.0
  9
$DIMTP
 40
0.0
  9
$DIMTM
 40
0.0
  9
$DIMTXT
 40
3.2000000000000002
  9
$DIMCEN
 40
0.0
  9
$DIMTSZ
 40
0.0
  9
$DIMTOL
 70
     0
  9
$DIMLIM
 70
     0
  9
$DIMTIH
 70
     0
  9
$DIMTOH
 70
     0
  9
$DIMSE1
 70
     0
  9
$DIMSE2
 70
     0
  9
$DIMTAD
 70
     1
  9
$DIMZIN
 70
     0
  9
$DIMBLK
  1

  9
$DIMASO
 70
     0
  9
$DIMSHO
 70
     0
  9
$DIMPOST
  1

  9
$DIMAPOST
  1

  9
$DIMALT
 70
     0
  9
$DIMALTD
 70
     2
  9
$DIMALTF
 40
25.399999999999999
  9
$DIMLFAC
 40
1.0
  9
$DIMTOFL
 70
     1
  9
$DIMTVP
 40
1.6000000000000001
  9
$DIMTIX
 70
     1
  9
$DIMSOXD
 70
     0
  9
$DIMSAH
 70
     0
  9
$DIMBLK1
  1

  9
$DIMBLK2
  1

  9
$DIMSTYLE
  2
STANDARD
  9
$DIMCLRD
 70
     0
  9
$DIMCLRE
 70
     0
  9
$DIMCLRT
 70
     0
  9
$DIMTFAC
 40
1.0
  9
$DIMGAP
 40
0.09
  9
$LUNITS
 70
     2
  9
$LUPREC
 70
     4
  9
$SKETCHINC
 40
0.1
  9
$FILLETRAD
 40
0.4
  9
$AUNITS
 70
     0
  9
$AUPREC
 70
     4
  9
$MENU
  1
E:\r13\win\SUPPORT\ACAD
  9
$ELEVATION
 40
0.0
  9
$PELEVATION
 40
0.0
  9
$THICKNESS
 40
0.0
  9
$LIMCHECK
 70
     0
  9
$BLIPMODE
 70
     0
  9
$CHAMFERA
 40
0.0
  9
$CHAMFERB
 40
0.0
  9
$SKPOLY
 70
     0
  9
$TDCREATE
 40
2449840.6216666671
  9
$TDUPDATE
 40
2456597.5929198149
  9
$TDINDWG
 40
0.0001921875
  9
$TDUSRTIMER
 40
0.0001921875
  9
$USRTIMER
 70
     1
  9
$ANGBASE
 50
0.0
  9
$ANGDIR
 70
     0
  9
$PDMODE
 70
     0
  9
$PDSIZE
 40
0.0
  9
$PLINEWID
 40
0.0
  9
$COORDS
 70
     1
  9
$SPLFRAME
 70
     0
  9
$SPLINETYPE
 70
     6
  9
$SPLINESEGS
 70
     8
  9
$ATTDIA
 70
     0
  9
$ATTREQ
 70
     1
  9
$HANDLING
 70
     1
  9
$HANDSEED
  5
26B
  9
$SURFTAB1
 70
     6
  9
$SURFTAB2
 70
     6
  9
$SURFTYPE
 70
     6
  9
$SURFU
 70
     6
  9
$SURFV
 70
     6
  9
$UCSNAME
  2

  9
$UCSORG
 10
0.0
 20
0.0
 30
0.0
  9
$UCSXDIR
 10
1.0
 20
0.0
 30
0.0
  9
$UCSYDIR
 10
0.0
 20
1.0
 30
0.0
  9
$PUCSNAME
  2

  9
$PUCSORG
 10
0.0
 20
0.0
 30
0.0
  9
$PUCSXDIR
 10
1.0
 20
0.0
 30
0.0
  9
$PUCSYDIR
 10
0.0
 20
1.0
 30
0.0
  9
$USERI1
 70
     0
  9
$USERI2
 70
     1
  9
$USERI3
 70
     0
  9
$USERI4
 70
     0
  9
$USERI5
 70
     0
  9
$USERR1
 40
0.0
  9
$USERR2
 40
0.0
  9
$USERR3
 40
0.0
  9
$USERR4
 40
0.0
  9
$USERR5
 40
0.0
  9
$WORLDVIEW
 70
     1
  9
$SHADEDGE
 70
     3
  9
$SHADEDIF
 70
    70
  9
$TILEMODE
 70
     1
  9
$MAXACTVP
 70
    16
  9
$PLIMCHECK
 70
     0
  9
$PEXTMIN
 10
1.0000000000000000E+020
 20
1.0000000000000000E+020
 30
1.0000000000000000E+020
  9
$PEXTMAX
 10
-1.0000000000000000E+020
 20
-1.0000000000000000E+020
 30
-1.0000000000000000E+020
  9
$PLIMMIN
 10
0.0
 20
0.0
  9
$PLIMMAX
 10
12.0
 20
9.0
  9
$UNITMODE
 70
     0
  9
$VISRETAIN
 70
     0
  9
$PLINEGEN
 70
     0
  9
$PSLTSCALE
 70
     0
  0
ENDSEC
  0
SECTION
  2
TABLES
  0
TABLE
  2
VPORT
 70
     1
  0
VPORT
  2
*ACTIVE
 70
     0
 10
0.0
 20
0.0
 11
1.0
 21
1.0
 12
195.01701172807989
 22
134.25430329196891
 13
0.0
 23
0.0
 14
10.0
 24
10.0
 15
10.0
 25
10.0
 16
0.0
 26
0.0
 36
1.0
 17
0.0
 27
0.0
 37
0.0
 40
273.92629380544389
 41
1.831871345029239
 42
50.0
 43
0.0
 44
0.0
 50
0.0
 51
0.0
 71
     0
 72
   500
 73
     1
 74
     0
 75
     0
 76
     0
 77
     0
 78
     2
  0
ENDTAB
  0
TABLE
  2
LTYPE
 70
     4
  0
LTYPE
  2
CONTINUOUS
 70
     0
  3
Solid Line
 72
    65
 73
     0
 40
0.0
  0
LTYPE
  2
CENTER
 70
     0
  3
____ _ ____ _ ____ _ ____ _ ____ _ ____ _ ____
 72
    65
 73
     4
 40
2.0
 49
1.25
 49
-0.25
 49
0.25
 49
-0.25
  0
LTYPE
  2
HIDDEN
 70
     0
  3
_ _ _ _ _ _ _ _ _ _ _ _ _ _ _ _ _ _ _ _ _ _ _
 72
    65
 73
     2
 40
0.375
 49
0.25
 49
-0.125
  0
LTYPE
  2
PHANTOM2
 70
     0
  3
___ _ _ ___ _ _ ___ _ _ ___ _ _
 72
    65
 73
     6
 40
1.25
 49
0.625
 49
-0.125
 49
0.125
 49
-0.125
 49
0.125
 49
-0.125
  0
ENDTAB
  0
TABLE
  2
LAYER
 70
     4
  0
LAYER
  2
0
 70
     0
 62
     7
  6
CONTINUOUS
  0
LAYER
  2
1
 70
     0
 62
     1
  6
CENTER
  0
LAYER
  2
2
 70
     0
 62
     2
  6
HIDDEN
  0
LAYER
  2
3
 70
     0
 62
     3
  6
CONTINUOUS
  0
ENDTAB
  0
TABLE
  2
STYLE
 70
     2
  0
STYLE
  2
STANDARD
 70
     0
 40
0.0
 41
1.0
 50
0.0
 71
     0
 42
5.0
  3
TXT
  4
BIGFONT
  0
STYLE
  2
STANDARD1
 70
     0
 40
0.0
 41
1.0
 50
0.0
 71
     0
 42
3.0
  3
txt
  4

  0
ENDTAB
  0
TABLE
  2
VIEW
 70
     1
  0
VIEW
  2
ALL
 70
     0
 40
270.0
 10
220.99159663865549
 20
135.0
 41
0.0
 11
0.0
 21
0.0
 31
1.0
 12
0.0
 22
0.0
 32
0.0
 42
0.0
 43
0.0
 44
0.0
 50
0.0
 71
     0
  0
ENDTAB
  0
TABLE
  2
UCS
 70
     0
  0
ENDTAB
  0
TABLE
  2
APPID
 70
     3
  0
APPID
  2
ACAD
 70
     0
  0
APPID
  2
ACAD_MLEADERVER
 70
     0
  0
APPID
  2
ACAD_NAV_VCDISPLAY
 70
     0
  0
ENDTAB
  0
TABLE
  2
DIMSTYLE
 70
     1
  0
DIMSTYLE
  2
STANDARD
 70
     0
  3

  4

  5

  6

  7

 40
1.0
 41
0.18
 42
0.0625
 43
0.38
 44
0.18
 45
0.0
 46
0.0
 47
0.0
 48
0.0
140
0.18
141
0.09
142
0.0
143
25.399999999999999
144
1.0
145
0.0
146
1.0
147
0.09
 71
     0
 72
     0
 73
     1
 74
     1
 75
     0
 76
     0
 77
     0
 78
     0
170
     0
171
     2
172
     0
173
     0
174
     0
175
     0
176
     0
177
     0
178
     0
  0
ENDTAB
  0
ENDSEC
  0
SECTION
  2
BLOCKS
  0
BLOCK
  8
0
  2
$MODEL_SPACE
 70
     0
 10
0.0
 20
0.0
 30
0.0
  3
$MODEL_SPACE
  1

  0
ENDBLK
  5
E6
  8
0
  0
BLOCK
 67
     1
  8
0
  2
$PAPER_SPACE
 70
     0
 10
0.0
 20
0.0
 30
0.0
  3
$PAPER_SPACE
  1

  0
ENDBLK
  5
E4
 67
     1
  8
0
  0
ENDSEC
  0
SECTION
  2
ENTITIES
  0
CIRCLE
  5
36
  8
0
 10
78.991529957524122
 20
144.01528776978421
 30
0.0
 40
6.9607695154587068
  0
LINE
  5
37
  8
0
 10
74.991529957524577
 20
141.705886693026
 30
0.0
 11
78.991529957524577
 21
139.3964856162674
 31
0.0
  0
LINE
  5
38
  8
0
 10
78.991529957524577
 20
139.3964856162674
 30
0.0
 11
82.991529957524136
 21
141.705886693026
 31
0.0
  0
LINE
  5
39
  8
0
 10
82.991529957524136
 20
141.705886693026
 30
0.0
 11
82.991529957524136
 21
146.32468884654369
 31
0.0
  0
LINE
  5
3A
  8
0
 10
82.991529957524136
 20
146.32468884654369
 30
0.0
 11
78.991529957524122
 21
148.63408992330139
 31
0.0
  0
LINE
  5
3B
  8
0
 10
78.991529957524122
 20
148.63408992330139
 30
0.0
 11
74.991529957523667
 21
146.3246888465423
 31
0.0
  0
LINE
  5
3C
  8
0
 10
74.991529957523667
 20
146.3246888465423
 30
0.0
 11
74.991529957524577
 21
141.705886693026
 31
0.0
  0
CIRCLE
  5
3D
  8
0
 10
78.991529957524122
 20
144.01528776978421
 30
0.0
 40
8.0
  0
LINE
  5
3E
  8
3
 10
175.47553563199659
 20
139.82728776978411
 30
0.0
 11
174.06911037625079
 21
139.01528776978421
 31
0.0
  0
LINE
  5
3F
  8
3
 10
175.47553563199659
 20
148.2032877697842
 30
0.0
 11
174.06911037625079
 21
149.01528776978421
 31
0.0
  0
LINE
  5
40
  8
0
 10
175.47553563199659
 20
149.01528776978409
 30
0.0
 11
175.47553563199651
 21
139.01528776978409
 31
0.0
  0
LINE
  5
41
  8
0
 10
174.4691103762508
 20
149.01528776978421
 30
0.0
 11
196.20404686678989
 21
149.01528776978409
 31
0.0
  0
LINE
  5
42
  8
3
 10
175.47553563199659
 20
148.2032877697842
 30
0.0
 11
197.61047212253561
 21
148.2032877697842
 31
0.0
  0
LINE
  5
43
  8
3
 10
175.47553563199651
 20
139.82728776978399
 30
0.0
 11
197.6104721225355
 21
139.82728776978411
 31
0.0
  0
LINE
  5
44
  8
0
 10
174.4691103762508
 20
139.01528776978409
 30
0.0
 11
196.2040468667897
 21
139.01528776978409
 31
0.0
  0
LINE
  5
45
  8
0
 10
198.36911037625089
 20
147.76528776978421
 30
0.0
 11
198.3691103762508
 21
140.26528776978409
 31
0.0
  0
LINE
  5
46
  8
0
 10
164.66911037625081
 20
136.01528776978421
 30
0.0
 11
164.06911037625079
 21
137.05451825432539
 31
0.0
  0
LINE
  5
47
  8
0
 10
164.66911037625081
 20
152.01528776978421
 30
0.0
 11
164.06911037625079
 21
150.97605728524289
 31
0.0
  0
LINE
  5
48
  8
0
 10
164.66911037625081
 20
136.01528776978409
 30
0.0
 11
164.66911037625081
 21
152.01528776978421
 31
0.0
  0
LINE
  5
49
  8
0
 10
164.06911037625079
 20
137.05451825432539
 30
0.0
 11
164.06911037625079
 21
150.97605728524289
 31
0.0
  0
LINE
  5
4A
  8
0
 10
174.06911037625079
 20
136.01528776978409
 30
0.0
 11
164.66911037625081
 21
136.01528776978409
 31
0.0
  0
LINE
  5
4B
  8
0
 10
174.06911037625079
 20
152.01528776978421
 30
0.0
 11
174.06911037625079
 21
136.01528776978409
 31
0.0
  0
LINE
  5
4C
  8
0
 10
164.66911037625081
 20
152.01528776978421
 30
0.0
 11
174.06911037625079
 21
152.01528776978421
 31
0.0
  0
LINE
  5
4D
  8
1
 10
91.991529957524108
 20
144.01528776978421
 30
0.0
 11
65.991529957524122
 21
144.01528776978421
 31
0.0
  0
LINE
  5
4E
  8
1
 10
78.991529957524122
 20
157.01528776978409
 30
0.0
 11
78.991529957524122
 21
131.01528776978409
 31
0.0
  0
LINE
  5
4F
  8
1
 10
159.06911037625079
 20
144.01528776978421
 30
0.0
 11
203.3691103762508
 21
144.01528776978421
 31
0.0
  0
ARC
  5
50
  8
0
 10
197.2691103762505
 20
144.01528776978421
 30
0.0
 40
3.5
 50
288.31769841120399
 51
300.94972307886621
  0
ARC
  5
51
  8
0
 10
197.2691103762505
 20
144.01528776978421
 30
0.0
 40
3.5
 50
59.050276921133921
 51
71.68230158879463
  0
LINE
  5
52
  8
0
 10
199.06911037625079
 20
147.01695397374471
 30
0.0
 11
199.06911037625079
 21
141.01362156582371
 31
0.0
  0
ARC
  5
53
  8
2
 10
197.2691103762505
 20
144.01528776978421
 30
0.0
 40
3.5
 50
71.682301588794999
 51
288.31769841120359
  0
LINE
  5
54
  8
0
 10
198.36911037625089
 20
147.76528776978421
 30
0.0
 11
196.20404686678989
 21
149.01528776978409
 31
0.0
  0
LINE
  5
55
  8
0
 10
198.36911037625089
 20
140.26528776978421
 30
0.0
 11
196.20404686678989
 21
139.01528776978421
 31
0.0
  0
LINE
  5
56
  8
0
 10
196.20404686678981
 20
149.01528776978409
 30
0.0
 11
196.2040468667897
 21
139.01528776978409
 31
0.0
  0
LINE
  5
57
  8
1
 10
197.2691103762505
 20
152.51528776978421
 30
0.0
 11
197.2691103762505
 21
135.51528776978421
 31
0.0
  0
LINE
  5
58
  8
2
 10
169.06911037625079
 20
146.32468884654369
 30
0.0
 11
164.06911037625079
 21
146.32468884654369
 31
0.0
  0
LINE
  5
59
  8
2
 10
169.06911037625079
 20
148.63408992330139
 30
0.0
 11
164.06911037625079
 21
148.63408992330139
 31
0.0
  0
LINE
  5
5A
  8
2
 10
169.06911037625079
 20
148.63408992330139
 30
0.0
 11
169.0691103762509
 21
139.396485616267
 31
0.0
  0
LINE
  5
5B
  8
2
 10
169.06911037625079
 20
141.70588669302461
 30
0.0
 11
164.06911037625079
 21
141.70588669302461
 31
0.0
  0
LINE
  5
5C
  8
2
 10
169.0691103762509
 20
139.39648561626689
 30
0.0
 11
164.06911037625079
 21
139.39648561626689
 31
0.0
  0
LINE
  5
5D
  8
2
 10
169.0691103762509
 20
139.396485616267
 30
0.0
 11
171.7357770429177
 21
144.01528776978409
 31
0.0
  0
LINE
  5
5E
  8
2
 10
169.0691103762509
 20
148.63408992330139
 30
0.0
 11
171.7357770429177
 21
144.01528776978421
 31
0.0
  0
ARC
  5
5F
  8
0
 10
174.4691103762508
 20
149.41528776978419
 30
0.0
 40
0.4
 50
180.0
 51
269.99999999999989
  0
ARC
  5
60
  8
0
 10
174.4691103762508
 20
138.6152877697842
 30
0.0
 40
0.4
 50
89.999999999999915
 51
179.99999999999989
  0
LINE
  5
66
  8
1
 10
277.28100505904609
 20
157.01528776978409
 30
0.0
 11
277.28100505904609
 21
131.01528776978409
 31
0.0
  0
LINE
  5
67
  8
1
 10
290.28100505904621
 20
144.01528776978421
 30
0.0
 11
264.28100505904609
 21
144.01528776978421
 31
0.0
  0
CIRCLE
  5
68
  8
0
 10
277.28100505904609
 20
144.01528776978421
 30
0.0
 40
8.0
  0
CIRCLE
  5
69
  8
0
 10
277.28100505904609
 20
144.01528776978421
 30
0.0
 40
5.0000000000000284
  0
CIRCLE
  5
6A
  8
0
 10
277.28100505904609
 20
144.01528776978421
 30
0.0
 40
3.3226495451689568
  0
CIRCLE
  5
6B
  8
0
 10
277.28100505904609
 20
144.01528776978421
 30
0.0
 40
3.322649545170087
  0
CIRCLE
  5
6C
  8
0
 10
277.28100505904609
 20
144.01528776978421
 30
0.0
 40
3.3226495451700511
  0
CIRCLE
  5
6D
  8
0
 10
277.28100505904609
 20
144.01528776978421
 30
0.0
 40
3.0016662039616611
  0
ARC
  5
6E
  8
0
 10
174.4691103762508
 20
211.67284172661871
 30
0.0
 40
0.4
 50
89.999999999999915
 51
179.99999999999989
  0
ARC
  5
6F
  8
0
 10
174.4691103762508
 20
222.4728417266187
 30
0.0
 40
0.4
 50
180.0
 51
269.99999999999989
  0
LINE
  5
70
  8
2
 10
169.06911037625079
 20
221.072841726619
 30
0.0
 11
169.0691103762509
 21
213.07284172661929
 31
0.0
  0
LINE
  5
71
  8
1
 10
197.2691103762505
 20
225.57284172661869
 30
0.0
 11
197.2691103762505
 21
208.57284172661869
 31
0.0
  0
LINE
  5
72
  8
0
 10
196.20404686678981
 20
222.07284172661869
 30
0.0
 11
196.2040468667897
 21
212.07284172661861
 31
0.0
  0
LINE
  5
73
  8
0
 10
198.36911037625089
 20
213.32284172661869
 30
0.0
 11
196.20404686678989
 21
212.0728417266188
 31
0.0
  0
LINE
  5
74
  8
0
 10
198.36911037625089
 20
220.82284172661869
 30
0.0
 11
196.20404686678989
 21
222.07284172661869
 31
0.0
  0
ARC
  5
75
  8
2
 10
197.2691103762505
 20
217.07284172661869
 30
0.0
 40
3.5
 50
71.682301588794999
 51
288.31769841120359
  0
LINE
  5
76
  8
0
 10
199.06911037625079
 20
220.07450793057919
 30
0.0
 11
199.06911037625079
 21
214.07117552265831
 31
0.0
  0
ARC
  5
77
  8
0
 10
197.2691103762505
 20
217.07284172661869
 30
0.0
 40
3.5
 50
59.050276921133921
 51
71.68230158879463
  0
ARC
  5
78
  8
0
 10
197.2691103762505
 20
217.07284172661869
 30
0.0
 40
3.5
 50
288.31769841120399
 51
300.94972307886621
  0
LINE
  5
79
  8
1
 10
159.06911037625079
 20
217.07284172661869
 30
0.0
 11
203.3691103762508
 21
217.07284172661869
 31
0.0
  0
LINE
  5
7A
  8
0
 10
164.66911037625081
 20
225.07284172661869
 30
0.0
 11
174.06911037625079
 21
225.07284172661869
 31
0.0
  0
LINE
  5
7B
  8
0
 10
174.06911037625079
 20
225.07284172661869
 30
0.0
 11
174.06911037625079
 21
209.07284172661869
 31
0.0
  0
LINE
  5
7C
  8
0
 10
174.06911037625079
 20
209.07284172661869
 30
0.0
 11
164.66911037625081
 21
209.07284172661869
 31
0.0
  0
LINE
  5
7D
  8
0
 10
198.36911037625089
 20
220.82284172661869
 30
0.0
 11
198.3691103762508
 21
213.32284172661869
 31
0.0
  0
LINE
  5
7E
  8
0
 10
174.4691103762508
 20
212.07284172661869
 30
0.0
 11
196.2040468667897
 21
212.07284172661869
 31
0.0
  0
LINE
  5
7F
  8
3
 10
175.47553563199651
 20
212.88484172661859
 30
0.0
 11
197.6104721225355
 21
212.88484172661859
 31
0.0
  0
LINE
  5
80
  8
3
 10
175.47553563199659
 20
221.26084172661879
 30
0.0
 11
197.61047212253561
 21
221.26084172661879
 31
0.0
  0
LINE
  5
81
  8
0
 10
174.4691103762508
 20
222.07284172661869
 30
0.0
 11
196.20404686678989
 21
222.07284172661869
 31
0.0
  0
LINE
  5
82
  8
0
 10
175.47553563199659
 20
222.07284172661869
 30
0.0
 11
175.47553563199651
 21
212.07284172661869
 31
0.0
  0
LINE
  5
83
  8
3
 10
175.47553563199659
 20
221.26084172661879
 30
0.0
 11
174.06911037625079
 21
222.07284172661869
 31
0.0
  0
LINE
  5
84
  8
3
 10
175.47553563199659
 20
212.88484172661859
 30
0.0
 11
174.06911037625079
 21
212.07284172661869
 31
0.0
  0
LINE
  5
85
  8
0
 10
164.06911037625079
 20
210.11207221116001
 30
0.0
 11
164.06911037625079
 21
224.0336112420774
 31
0.0
  0
LINE
  5
86
  8
0
 10
164.66911037625081
 20
209.07284172661869
 30
0.0
 11
164.66911037625081
 21
225.07284172661869
 31
0.0
  0
LINE
  5
87
  8
0
 10
164.66911037625081
 20
225.07284172661869
 30
0.0
 11
164.06911037625079
 21
224.0336112420774
 31
0.0
  0
LINE
  5
88
  8
0
 10
164.66911037625081
 20
209.07284172661869
 30
0.0
 11
164.06911037625079
 21
210.11207221116001
 31
0.0
  0
CIRCLE
  5
8D
  8
3
 10
277.28100505904609
 20
144.01528776978421
 30
0.0
 40
4.1880000000000734
  0
LINE
  5
8E
  8
2
 10
164.06911037625079
 20
221.07284172661889
 30
0.0
 11
169.06911037625079
 21
221.072841726619
 31
0.0
  0
LINE
  5
8F
  8
2
 10
164.06911037625079
 20
217.07284172661929
 30
0.0
 11
169.06911037625079
 21
217.0728417266194
 31
0.0
  0
LINE
  5
90
  8
2
 10
164.06911037625079
 20
213.07284172661929
 30
0.0
 11
169.0691103762509
 21
213.0728417266194
 31
0.0
  0
LINE
  5
91
  8
2
 10
169.0691103762509
 20
213.0728417266194
 30
0.0
 11
171.7357770429177
 21
217.07284172661869
 31
0.0
  0
LINE
  5
92
  8
2
 10
171.7357770429177
 20
217.07284172661869
 30
0.0
 11
169.06911037625079
 21
221.072841726619
 31
0.0
  0
LINE
  5
93
  8
0
 10
164.66911037625081
 20
58.411870503597143
 30
0.0
 11
164.06911037625079
 21
59.451100988138371
 31
0.0
  0
LINE
  5
94
  8
0
 10
164.66911037625081
 20
74.4118705035971
 30
0.0
 11
164.06911037625079
 21
73.372640019055837
 31
0.0
  0
LINE
  5
95
  8
0
 10
164.66911037625081
 20
58.4118705035971
 30
0.0
 11
164.66911037625081
 21
74.411870503597129
 31
0.0
  0
LINE
  5
96
  8
0
 10
164.06911037625079
 20
59.451100988138371
 30
0.0
 11
164.06911037625079
 21
73.372640019055837
 31
0.0
  0
LINE
  5
97
  8
3
 10
175.47553563199659
 20
62.223870503597027
 30
0.0
 11
174.06911037625079
 21
61.411870503597108
 31
0.0
  0
LINE
  5
98
  8
3
 10
175.47553563199659
 20
70.599870503597174
 30
0.0
 11
174.06911037625079
 21
71.4118705035971
 31
0.0
  0
LINE
  5
99
  8
0
 10
175.47553563199659
 20
71.411870503597072
 30
0.0
 11
175.47553563199651
 21
61.411870503597072
 31
0.0
  0
LINE
  5
9A
  8
0
 10
174.4691103762508
 20
71.4118705035971
 30
0.0
 11
196.20404686678989
 21
71.411870503597072
 31
0.0
  0
LINE
  5
9B
  8
3
 10
175.47553563199659
 20
70.599870503597174
 30
0.0
 11
197.61047212253561
 21
70.599870503597174
 31
0.0
  0
LINE
  5
9C
  8
3
 10
175.47553563199651
 20
62.223870503596977
 30
0.0
 11
197.6104721225355
 21
62.223870503597027
 31
0.0
  0
LINE
  5
9D
  8
0
 10
174.4691103762508
 20
61.411870503597072
 30
0.0
 11
196.2040468667897
 21
61.411870503597072
 31
0.0
  0
LINE
  5
9E
  8
0
 10
198.36911037625089
 20
70.1618705035971
 30
0.0
 11
198.3691103762508
 21
62.661870503597072
 31
0.0
  0
LINE
  5
9F
  8
0
 10
174.06911037625079
 20
58.4118705035971
 30
0.0
 11
164.66911037625081
 21
58.4118705035971
 31
0.0
  0
LINE
  5
A0
  8
0
 10
174.06911037625079
 20
74.4118705035971
 30
0.0
 11
174.06911037625079
 21
58.411870503597079
 31
0.0
  0
LINE
  5
A1
  8
0
 10
164.66911037625081
 20
74.4118705035971
 30
0.0
 11
174.06911037625079
 21
74.4118705035971
 31
0.0
  0
LINE
  5
A2
  8
1
 10
159.06911037625079
 20
66.4118705035971
 30
0.0
 11
203.3691103762508
 21
66.4118705035971
 31
0.0
  0
ARC
  5
A3
  8
0
 10
197.2691103762505
 20
66.411870503597129
 30
0.0
 40
3.5
 50
288.31769841120399
 51
300.94972307886621
  0
ARC
  5
A4
  8
0
 10
197.2691103762505
 20
66.411870503597129
 30
0.0
 40
3.5
 50
59.050276921133921
 51
71.68230158879463
  0
LINE
  5
A5
  8
0
 10
199.06911037625079
 20
69.413536707557597
 30
0.0
 11
199.06911037625079
 21
63.410204299636661
 31
0.0
  0
ARC
  5
A6
  8
2
 10
197.2691103762505
 20
66.411870503597129
 30
0.0
 40
3.5
 50
71.682301588794999
 51
288.31769841120359
  0
LINE
  5
A7
  8
0
 10
198.36911037625089
 20
70.1618705035971
 30
0.0
 11
196.20404686678989
 21
71.411870503597072
 31
0.0
  0
LINE
  5
A8
  8
0
 10
198.36911037625089
 20
62.661870503597108
 30
0.0
 11
196.20404686678989
 21
61.411870503597193
 31
0.0
  0
LINE
  5
A9
  8
0
 10
196.20404686678981
 20
71.411870503597072
 30
0.0
 11
196.2040468667897
 21
61.411870503597051
 31
0.0
  0
LINE
  5
AA
  8
1
 10
197.2691103762505
 20
74.911870503597115
 30
0.0
 11
197.2691103762505
 21
57.911870503597129
 31
0.0
  0
ARC
  5
AB
  8
0
 10
174.4691103762508
 20
71.811870503597106
 30
0.0
 40
0.4
 50
180.0
 51
269.99999999999989
  0
ARC
  5
AC
  8
0
 10
174.4691103762508
 20
61.011870503597102
 30
0.0
 40
0.4
 50
89.999999999999915
 51
179.99999999999989
  0
LINE
  5
AD
  8
2
 10
169.06911037625079
 20
70.411870503597413
 30
0.0
 11
169.0691103762509
 21
62.41187050359779
 31
0.0
  0
LINE
  5
AE
  8
2
 10
164.06911037625079
 20
70.411870503597328
 30
0.0
 11
169.06911037625079
 21
70.411870503597385
 31
0.0
  0
LINE
  5
AF
  8
2
 10
164.06911037625079
 20
66.411870503597697
 30
0.0
 11
169.06911037625079
 21
66.411870503597783
 31
0.0
  0
LINE
  5
B0
  8
2
 10
164.06911037625079
 20
62.411870503597733
 30
0.0
 11
169.0691103762509
 21
62.411870503597818
 31
0.0
  0
LINE
  5
B1
  8
2
 10
169.0691103762509
 20
62.411870503597818
 30
0.0
 11
171.7357770429177
 21
66.4118705035971
 31
0.0
  0
LINE
  5
B2
  8
2
 10
171.7357770429177
 20
66.411870503597129
 30
0.0
 11
169.06911037625079
 21
70.411870503597356
 31
0.0
  0
TEXT
  5
1DA
  8
0
 62
     3
 10
0.0
 20
0.0
 30
0.0
 40
5.0
  1
BCF10X25
  7
STANDARD1
  0
ENDSEC
  0
EOF
