  0
SECTION
  2
HEADER
  9
$ACADVER
  1
AC1009
  9
$INSBASE
 10
0.0
 20
0.0
 30
0.0
  9
$EXTMIN
 10
0.0
 20
-1.4802182810368341
 30
0.0
  9
$EXTMAX
 10
143.0
 20
105.5
 30
0.0
  9
$LIMMIN
 10
0.0
 20
0.0
  9
$LIMMAX
 10
187.5
 20
135.0
  9
$ORTHOMODE
 70
     1
  9
$REGENMODE
 70
     1
  9
$FILLMODE
 70
     1
  9
$QTEXTMODE
 70
     0
  9
$MIRRTEXT
 70
     0
  9
$DRAGMODE
 70
     2
  9
$LTSCALE
 40
5.0
  9
$OSMODE
 70
  3071
  9
$ATTMODE
 70
     1
  9
$TEXTSIZE
 40
0.2
  9
$TRACEWID
 40
0.05
  9
$TEXTSTYLE
  7
STANDARD
  9
$CLAYER
  8
0
  9
$CELTYPE
  6
BYLAYER
  9
$CECOLOR
 62
   256
  9
$DIMSCALE
 40
0.5
  9
$DIMASZ
 40
3.0
  9
$DIMEXO
 40
2.0
  9
$DIMDLI
 40
0.38
  9
$DIMRND
 40
0.0
  9
$DIMDLE
 40
0.0
  9
$DIMEXE
 40
2.0
  9
$DIMTP
 40
0.0
  9
$DIMTM
 40
0.0
  9
$DIMTXT
 40
3.0
  9
$DIMCEN
 40
0.0
  9
$DIMTSZ
 40
0.0
  9
$DIMTOL
 70
     0
  9
$DIMLIM
 70
     0
  9
$DIMTIH
 70
     0
  9
$DIMTOH
 70
     0
  9
$DIMSE1
 70
     0
  9
$DIMSE2
 70
     0
  9
$DIMTAD
 70
     1
  9
$DIMZIN
 70
     0
  9
$DIMBLK
  1

  9
$DIMASO
 70
     0
  9
$DIMSHO
 70
     0
  9
$DIMPOST
  1

  9
$DIMAPOST
  1

  9
$DIMALT
 70
     0
  9
$DIMALTD
 70
     2
  9
$DIMALTF
 40
25.399999999999999
  9
$DIMLFAC
 40
1.0
  9
$DIMTOFL
 70
     1
  9
$DIMTVP
 40
1.6000000000000001
  9
$DIMTIX
 70
     1
  9
$DIMSOXD
 70
     0
  9
$DIMSAH
 70
     0
  9
$DIMBLK1
  1

  9
$DIMBLK2
  1

  9
$DIMSTYLE
  2
STANDARD
  9
$DIMCLRD
 70
     0
  9
$DIMCLRE
 70
     0
  9
$DIMCLRT
 70
     0
  9
$DIMTFAC
 40
1.0
  9
$DIMGAP
 40
0.09
  9
$LUNITS
 70
     2
  9
$LUPREC
 70
     4
  9
$SKETCHINC
 40
0.1
  9
$FILLETRAD
 40
0.5
  9
$AUNITS
 70
     0
  9
$AUPREC
 70
     4
  9
$MENU
  1
E:\r13\win\SUPPORT\ACAD
  9
$ELEVATION
 40
0.0
  9
$PELEVATION
 40
0.0
  9
$THICKNESS
 40
0.0
  9
$LIMCHECK
 70
     0
  9
$BLIPMODE
 70
     0
  9
$CHAMFERA
 40
0.0
  9
$CHAMFERB
 40
0.0
  9
$SKPOLY
 70
     0
  9
$TDCREATE
 40
2449840.6113888891
  9
$TDUPDATE
 40
2456597.5915892008
  9
$TDINDWG
 40
0.0003422106
  9
$TDUSRTIMER
 40
0.0003422106
  9
$USRTIMER
 70
     1
  9
$ANGBASE
 50
0.0
  9
$ANGDIR
 70
     0
  9
$PDMODE
 70
     0
  9
$PDSIZE
 40
0.0
  9
$PLINEWID
 40
0.0
  9
$COORDS
 70
     1
  9
$SPLFRAME
 70
     0
  9
$SPLINETYPE
 70
     6
  9
$SPLINESEGS
 70
     8
  9
$ATTDIA
 70
     0
  9
$ATTREQ
 70
     1
  9
$HANDLING
 70
     1
  9
$HANDSEED
  5
296
  9
$SURFTAB1
 70
     6
  9
$SURFTAB2
 70
     6
  9
$SURFTYPE
 70
     6
  9
$SURFU
 70
     6
  9
$SURFV
 70
     6
  9
$UCSNAME
  2

  9
$UCSORG
 10
0.0
 20
0.0
 30
0.0
  9
$UCSXDIR
 10
1.0
 20
0.0
 30
0.0
  9
$UCSYDIR
 10
0.0
 20
1.0
 30
0.0
  9
$PUCSNAME
  2

  9
$PUCSORG
 10
0.0
 20
0.0
 30
0.0
  9
$PUCSXDIR
 10
1.0
 20
0.0
 30
0.0
  9
$PUCSYDIR
 10
0.0
 20
1.0
 30
0.0
  9
$USERI1
 70
     3
  9
$USERI2
 70
     1
  9
$USERI3
 70
     0
  9
$USERI4
 70
     0
  9
$USERI5
 70
     0
  9
$USERR1
 40
0.5
  9
$USERR2
 40
3.0
  9
$USERR3
 40
3.0
  9
$USERR4
 40
3.0
  9
$USERR5
 40
10.0
  9
$WORLDVIEW
 70
     1
  9
$SHADEDGE
 70
     3
  9
$SHADEDIF
 70
    70
  9
$TILEMODE
 70
     1
  9
$MAXACTVP
 70
    16
  9
$PLIMCHECK
 70
     0
  9
$PEXTMIN
 10
1.0000000000000000E+020
 20
1.0000000000000000E+020
 30
1.0000000000000000E+020
  9
$PEXTMAX
 10
-1.0000000000000000E+020
 20
-1.0000000000000000E+020
 30
-1.0000000000000000E+020
  9
$PLIMMIN
 10
0.0
 20
0.0
  9
$PLIMMAX
 10
12.0
 20
9.0
  9
$UNITMODE
 70
     0
  9
$VISRETAIN
 70
     0
  9
$PLINEGEN
 70
     0
  9
$PSLTSCALE
 70
     0
  0
ENDSEC
  0
SECTION
  2
TABLES
  0
TABLE
  2
VPORT
 70
     1
  0
VPORT
  2
*ACTIVE
 70
     0
 10
0.0
 20
0.0
 11
1.0
 21
1.0
 12
97.52905416604365
 22
66.75636307133405
 13
0.0
 23
0.0
 14
5.0
 24
5.0
 15
10.0
 25
10.0
 16
0.0
 26
0.0
 36
1.0
 17
0.0
 27
0.0
 37
0.0
 40
137.71137496815999
 41
1.831871345029239
 42
50.0
 43
0.0
 44
0.0
 50
0.0
 51
0.0
 71
     0
 72
   100
 73
     1
 74
     0
 75
     0
 76
     0
 77
     0
 78
     0
  0
ENDTAB
  0
TABLE
  2
LTYPE
 70
     4
  0
LTYPE
  2
CONTINUOUS
 70
     0
  3
Solid Line
 72
    65
 73
     0
 40
0.0
  0
LTYPE
  2
CENTER
 70
     0
  3
____ _ ____ _ ____ _ ____ _ ____ _ ____ _ ____
 72
    65
 73
     4
 40
2.0
 49
1.25
 49
-0.25
 49
0.25
 49
-0.25
  0
LTYPE
  2
HIDDEN
 70
     0
  3
_ _ _ _ _ _ _ _ _ _ _ _ _ _ _ _ _ _ _ _ _ _ _
 72
    65
 73
     2
 40
0.375
 49
0.25
 49
-0.125
  0
LTYPE
  2
PHANTOM2
 70
     0
  3
___ _ _ ___ _ _ ___ _ _ ___ _ _
 72
    65
 73
     6
 40
1.25
 49
0.625
 49
-0.125
 49
0.125
 49
-0.125
 49
0.125
 49
-0.125
  0
ENDTAB
  0
TABLE
  2
LAYER
 70
     5
  0
LAYER
  2
0
 70
     0
 62
     7
  6
CONTINUOUS
  0
LAYER
  2
1
 70
     0
 62
     1
  6
CENTER
  0
LAYER
  2
11
 70
     0
 62
     3
  6
CONTINUOUS
  0
LAYER
  2
4
 70
     0
 62
     4
  6
CONTINUOUS
  0
LAYER
  2
2
 70
     0
 62
     2
  6
HIDDEN
  0
ENDTAB
  0
TABLE
  2
STYLE
 70
     2
  0
STYLE
  2
STANDARD
 70
     0
 40
0.0
 41
1.0
 50
0.0
 71
     0
 42
0.2
  3
TXT
  4
BIGFONT
  0
STYLE
  2
STANDARD1
 70
     0
 40
0.0
 41
1.0
 50
0.0
 71
     0
 42
3.0
  3
txt
  4

  0
ENDTAB
  0
TABLE
  2
VIEW
 70
     0
  0
ENDTAB
  0
TABLE
  2
UCS
 70
     0
  0
ENDTAB
  0
TABLE
  2
APPID
 70
     3
  0
APPID
  2
ACAD
 70
     0
  0
APPID
  2
ACAD_MLEADERVER
 70
     0
  0
APPID
  2
ACAD_NAV_VCDISPLAY
 70
     0
  0
ENDTAB
  0
TABLE
  2
DIMSTYLE
 70
     1
  0
DIMSTYLE
  2
STANDARD
 70
     0
  3

  4

  5

  6

  7

 40
1.0
 41
0.18
 42
0.0625
 43
0.38
 44
0.18
 45
0.0
 46
0.0
 47
0.0
 48
0.0
140
0.18
141
0.09
142
0.0
143
25.399999999999999
144
1.0
145
0.0
146
1.0
147
0.09
 71
     0
 72
     0
 73
     1
 74
     1
 75
     0
 76
     0
 77
     0
 78
     0
170
     0
171
     2
172
     0
173
     0
174
     0
175
     0
176
     0
177
     0
178
     0
  0
ENDTAB
  0
ENDSEC
  0
SECTION
  2
BLOCKS
  0
BLOCK
  8
0
  2
$MODEL_SPACE
 70
     0
 10
0.0
 20
0.0
 30
0.0
  3
$MODEL_SPACE
  1

  0
ENDBLK
  5
115
  8
0
  0
BLOCK
 67
     1
  8
0
  2
$PAPER_SPACE
 70
     0
 10
0.0
 20
0.0
 30
0.0
  3
$PAPER_SPACE
  1

  0
ENDBLK
  5
113
 67
     1
  8
0
  0
BLOCK
  8
0
  2
STDGX5
 70
     0
 10
0.0
 20
0.0
 30
0.0
  3
STDGX5
  1

  0
ENDBLK
  5
37
  8
0
  0
ENDSEC
  0
SECTION
  2
ENTITIES
  0
INSERT
  5
41
  8
0
  2
STDGX5
 10
73.184251000000003
 20
74.442235999999994
 30
0.0
  0
INSERT
  5
42
  8
0
  2
STDGX5
 10
73.184251000000003
 20
74.442235999999994
 30
0.0
  0
INSERT
  5
43
  8
0
  2
STDGX5
 10
73.184251000000003
 20
74.442235999999994
 30
0.0
  0
INSERT
  5
44
  8
0
  2
STDGX5
 10
73.184251000000003
 20
74.442235999999994
 30
0.0
  0
INSERT
  5
45
  8
11
  2
STDGX5
 10
93.975196999999994
 20
58.248259999999988
 30
0.0
 41
0.1
 42
0.1
 43
0.1
  0
INSERT
  5
46
  8
4
  2
STDGX5
 10
93.975196999999994
 20
58.248259999999988
 30
0.0
 41
0.1
 42
0.1
 43
0.1
  0
INSERT
  5
47
  8
11
  2
STDGX5
 10
93.975196999999994
 20
58.248259999999988
 30
0.0
 41
0.1
 42
0.1
 43
0.1
  0
INSERT
  5
48
  8
11
  2
STDGX5
 10
93.975196999999994
 20
58.248259999999988
 30
0.0
 41
0.1
 42
0.1
 43
0.1
  0
INSERT
  5
49
  8
11
  2
STDGX5
 10
93.975196999999994
 20
58.248259999999988
 30
0.0
 41
0.1
 42
0.1
 43
0.1
  0
INSERT
  5
4A
  8
11
  2
STDGX5
 10
93.975196999999994
 20
58.248259999999988
 30
0.0
 41
0.1
 42
0.1
 43
0.1
  0
INSERT
  5
4B
  8
4
  2
STDGX5
 10
93.975196999999994
 20
58.248259999999988
 30
0.0
 41
0.1
 42
0.1
 43
0.1
  0
INSERT
  5
4C
  8
0
  2
STDGX5
 10
127.048614
 20
73.986294999999998
 30
0.0
 41
0.1
 42
0.1
 43
0.1
  0
INSERT
  5
4D
  8
4
  2
STDGX5
 10
127.048614
 20
73.986294999999998
 30
0.0
 41
0.1
 42
0.1
 43
0.1
  0
INSERT
  5
4E
  8
11
  2
STDGX5
 10
127.048614
 20
73.986294999999998
 30
0.0
 41
0.1
 42
0.1
 43
0.1
  0
INSERT
  5
4F
  8
4
  2
STDGX5
 10
93.975196999999994
 20
58.248259999999988
 30
0.0
 41
0.1
 42
0.1
 43
0.1
  0
INSERT
  5
50
  8
11
  2
STDGX5
 10
134.456942
 20
66.338744999999989
 30
0.0
 41
0.1
 42
0.1
 43
0.1
  0
INSERT
  5
51
  8
4
  2
STDGX5
 10
134.456942
 20
66.338744999999989
 30
0.0
 41
0.1
 42
0.1
 43
0.1
  0
INSERT
  5
52
  8
11
  2
STDGX5
 10
134.456942
 20
66.338744999999989
 30
0.0
 41
0.1
 42
0.1
 43
0.1
  0
INSERT
  5
53
  8
11
  2
STDGX5
 10
134.456942
 20
66.338744999999989
 30
0.0
 41
0.1
 42
0.1
 43
0.1
  0
INSERT
  5
54
  8
11
  2
STDGX5
 10
134.456942
 20
66.338744999999989
 30
0.0
 41
0.1
 42
0.1
 43
0.1
  0
INSERT
  5
55
  8
11
  2
STDGX5
 10
134.456942
 20
66.338744999999989
 30
0.0
 41
0.1
 42
0.1
 43
0.1
  0
INSERT
  5
56
  8
4
  2
STDGX5
 10
134.456942
 20
66.338744999999989
 30
0.0
 41
0.1
 42
0.1
 43
0.1
  0
INSERT
  5
57
  8
11
  2
STDGX5
 10
166.81757999999999
 20
88.132336999999993
 30
0.0
 41
0.1
 42
0.1
 43
0.1
  0
INSERT
  5
58
  8
4
  2
STDGX5
 10
166.81757999999999
 20
88.132336999999993
 30
0.0
 41
0.1
 42
0.1
 43
0.1
  0
INSERT
  5
59
  8
11
  2
STDGX5
 10
166.81757999999999
 20
88.132336999999993
 30
0.0
 41
0.1
 42
0.1
 43
0.1
  0
INSERT
  5
5A
  8
11
  2
STDGX5
 10
166.81757999999999
 20
88.132336999999993
 30
0.0
 41
0.1
 42
0.1
 43
0.1
  0
INSERT
  5
5B
  8
11
  2
STDGX5
 10
166.81757999999999
 20
88.132336999999993
 30
0.0
 41
0.1
 42
0.1
 43
0.1
  0
INSERT
  5
5C
  8
11
  2
STDGX5
 10
166.81757999999999
 20
88.132336999999993
 30
0.0
 41
0.1
 42
0.1
 43
0.1
  0
INSERT
  5
5D
  8
4
  2
STDGX5
 10
166.81757999999999
 20
88.132336999999993
 30
0.0
 41
0.1
 42
0.1
 43
0.1
  0
INSERT
  5
5E
  8
4
  2
STDGX5
 10
93.975196999999994
 20
58.248259999999988
 30
0.0
 41
0.1
 42
0.1
 43
0.1
  0
INSERT
  5
5F
  8
0
  2
STDGX5
 10
0.0
 20
0.0
 30
0.0
  0
CIRCLE
  5
60
  8
0
 10
80.0
 20
85.0
 30
0.0
 40
17.5
  0
CIRCLE
  5
61
  8
0
 10
80.0
 20
85.0
 30
0.0
 40
6.5
  0
LINE
  5
62
  8
1
 10
80.0
 20
105.5
 30
0.0
 11
80.0
 21
64.5
 31
0.0
  0
LINE
  5
63
  8
1
 10
100.5
 20
85.0
 30
0.0
 11
59.5
 21
85.0
 31
0.0
  0
CIRCLE
  5
64
  8
0
 10
73.75
 20
74.17468199999999
 30
0.0
 40
2.2000000000000002
  0
ARC
  5
65
  8
0
 10
73.75
 20
74.17468199999999
 30
0.0
 40
3.7999999999999989
 50
330.0
 51
150.0
  0
LINE
  5
66
  8
0
 10
77.040897000000001
 20
72.274681999999999
 30
0.0
 11
74.749673000000001
 21
68.306167000000002
 31
0.0
  0
LINE
  5
67
  8
0
 10
70.459102999999999
 20
76.074681999999996
 30
0.0
 11
68.167880000000011
 21
72.106166999999999
 31
0.0
  0
LINE
  5
68
  8
1
 10
77.906921999999994
 20
71.774681999999984
 30
0.0
 11
69.593078000000006
 21
76.574681999999996
 31
0.0
  0
LINE
  5
69
  8
1
 10
92.5
 20
89.799999999999997
 30
0.0
 11
92.5
 21
80.200000000000017
 31
0.0
  0
LINE
  5
6A
  8
0
 10
92.5
 20
81.200000000000003
 30
0.0
 11
97.082447000000016
 21
81.200000000000003
 31
0.0
  0
LINE
  5
6B
  8
0
 10
92.5
 20
88.799999999999997
 30
0.0
 11
97.082447000000016
 21
88.799999999999997
 31
0.0
  0
ARC
  5
6C
  8
0
 10
92.5
 20
85.0
 30
0.0
 40
3.7999999999999989
 50
90.0
 51
270.0
  0
CIRCLE
  5
6D
  8
0
 10
92.5
 20
85.0
 30
0.0
 40
2.2000000000000002
  0
LINE
  5
6E
  8
1
 10
76.150000000000006
 20
91.668396000000016
 30
0.0
 11
70.749946999999992
 21
101.021562
 31
0.0
  0
LINE
  5
6F
  8
0
 10
77.040897000000001
 20
97.725318000000016
 30
0.0
 11
74.749673000000001
 21
101.693833
 31
0.0
  0
LINE
  5
70
  8
0
 10
70.459102999999999
 20
93.925318000000004
 30
0.0
 11
68.167880000000011
 21
97.893833000000001
 31
0.0
  0
ARC
  5
71
  8
0
 10
73.75
 20
95.82531800000001
 30
0.0
 40
3.7999999999999989
 50
210.0
 51
30.0
  0
CIRCLE
  5
72
  8
0
 10
73.75
 20
95.82531800000001
 30
0.0
 40
2.2000000000000002
  0
LINE
  5
73
  8
1
 10
69.593078000000006
 20
93.425318000000004
 30
0.0
 11
77.906921999999994
 21
98.225318000000001
 31
0.0
  0
LINE
  5
74
  8
1
 10
76.150000000000006
 20
78.331603999999999
 30
0.0
 11
70.749946999999992
 21
68.978437999999997
 31
0.0
  0
LINE
  5
75
  8
1
 10
125.44
 20
85.0
 30
0.0
 11
143.0
 21
85.0
 31
0.0
  0
LINE
  5
76
  8
0
 10
140.0
 20
68.0
 30
0.0
 11
140.0
 21
102.0
 31
0.0
  0
LINE
  5
77
  8
0
 10
139.5
 20
102.5
 30
0.0
 11
129.44
 21
102.5
 31
0.0
  0
LINE
  5
78
  8
0
 10
129.44
 20
102.5
 30
0.0
 11
128.44
 21
101.5
 31
0.0
  0
LINE
  5
79
  8
0
 10
128.44
 20
101.5
 30
0.0
 11
128.44
 21
68.5
 31
0.0
  0
LINE
  5
7A
  8
0
 10
128.44
 20
68.5
 30
0.0
 11
129.44
 21
67.5
 31
0.0
  0
LINE
  5
7B
  8
0
 10
129.44
 20
67.5
 30
0.0
 11
139.5
 21
67.5
 31
0.0
  0
LINE
  5
7C
  8
2
 10
134.08000000000001
 20
78.5
 30
0.0
 11
134.08000000000001
 21
91.5
 31
0.0
  0
LINE
  5
7D
  8
2
 10
129.44
 20
78.5
 30
0.0
 11
134.08000000000001
 21
78.5
 31
0.0
  0
LINE
  5
7E
  8
2
 10
129.44
 20
91.5
 30
0.0
 11
134.08000000000001
 21
91.5
 31
0.0
  0
LINE
  5
7F
  8
2
 10
140.0
 20
76.349999999999994
 30
0.0
 11
136.22999999999999
 21
76.349999999999994
 31
0.0
  0
LINE
  5
80
  8
2
 10
140.0
 20
93.650000000000006
 30
0.0
 11
136.22999999999999
 21
93.650000000000006
 31
0.0
  0
LINE
  5
81
  8
2
 10
134.08000000000001
 20
91.5
 30
0.0
 11
136.22999999999999
 21
93.650000000000006
 31
0.0
  0
LINE
  5
82
  8
2
 10
134.08000000000001
 20
78.5
 30
0.0
 11
136.22999999999999
 21
76.349999999999994
 31
0.0
  0
LINE
  5
83
  8
2
 10
136.22999999999999
 20
76.349999999999994
 30
0.0
 11
136.22999999999999
 21
93.650000000000006
 31
0.0
  0
LINE
  5
84
  8
2
 10
132.94
 20
82.799999999999983
 30
0.0
 11
140.0
 21
82.799999999999983
 31
0.0
  0
LINE
  5
85
  8
2
 10
132.94
 20
87.200000000000003
 30
0.0
 11
140.0
 21
87.200000000000003
 31
0.0
  0
LINE
  5
86
  8
2
 10
128.44
 20
77.5
 30
0.0
 11
129.44
 21
78.5
 31
0.0
  0
LINE
  5
87
  8
2
 10
128.44
 20
92.5
 30
0.0
 11
129.44
 21
91.5
 31
0.0
  0
LINE
  5
88
  8
2
 10
129.44
 20
78.5
 30
0.0
 11
129.44
 21
91.5
 31
0.0
  0
LINE
  5
89
  8
0
 10
140.0
 20
68.0
 30
0.0
 11
139.5
 21
67.5
 31
0.0
  0
LINE
  5
8A
  8
0
 10
140.0
 20
102.0
 30
0.0
 11
139.5
 21
102.5
 31
0.0
  0
LINE
  5
8B
  8
0
 10
139.5
 20
67.5
 30
0.0
 11
139.5
 21
102.5
 31
0.0
  0
LINE
  5
8C
  8
0
 10
129.44
 20
67.5
 30
0.0
 11
129.44
 21
81.200000000000003
 31
0.0
  0
LINE
  5
8D
  8
0
 10
129.44
 20
88.799999999999997
 30
0.0
 11
129.44
 21
102.5
 31
0.0
  0
LINE
  5
8E
  8
0
 10
74.749673000000001
 20
45.560000000000002
 30
0.0
 11
97.5
 21
45.560000000000002
 31
0.0
  0
LINE
  5
8F
  8
0
 10
62.5
 20
45.560000000000002
 30
0.0
 11
68.167880000000011
 21
45.560000000000002
 31
0.0
  0
LINE
  5
90
  8
0
 10
62.5
 20
35.5
 30
0.0
 11
97.5
 21
35.5
 31
0.0
  0
LINE
  5
91
  8
0
 10
97.0
 20
35.0
 30
0.0
 11
97.5
 21
35.5
 31
0.0
  0
LINE
  5
92
  8
0
 10
63.0
 20
35.0
 30
0.0
 11
62.5
 21
35.5
 31
0.0
  0
LINE
  5
93
  8
1
 10
73.75
 20
48.001511000000001
 30
0.0
 11
73.75
 21
33.651116999999999
 31
0.0
  0
LINE
  5
94
  8
2
 10
75.950000000000003
 20
42.060000000000002
 30
0.0
 11
75.950000000000003
 21
35.0
 31
0.0
  0
LINE
  5
95
  8
2
 10
71.549999999999997
 20
42.060000000000002
 30
0.0
 11
71.549999999999997
 21
35.0
 31
0.0
  0
LINE
  5
96
  8
2
 10
77.549999999999983
 20
42.060000000000002
 30
0.0
 11
74.749673000000001
 21
42.060000000000002
 31
0.0
  0
LINE
  5
97
  8
2
 10
77.549999999999983
 20
46.560000000000002
 30
0.0
 11
77.549999999999983
 21
42.060000000000002
 31
0.0
  0
LINE
  5
98
  8
0
 10
74.749673000000001
 20
42.060000000000002
 30
0.0
 11
68.167880000000011
 21
42.060000000000002
 31
0.0
  0
LINE
  5
99
  8
0
 10
74.749673000000001
 20
46.560000000000002
 30
0.0
 11
74.749673000000001
 21
42.060000000000002
 31
0.0
  0
LINE
  5
9A
  8
0
 10
68.167880000000011
 20
46.560000000000002
 30
0.0
 11
68.167880000000011
 21
42.060000000000002
 31
0.0
  0
LINE
  5
9B
  8
2
 10
73.5
 20
45.560000000000002
 30
0.0
 11
86.5
 21
45.560000000000002
 31
0.0
  0
LINE
  5
9C
  8
2
 10
87.5
 20
46.560000000000002
 30
0.0
 11
86.5
 21
45.560000000000002
 31
0.0
  0
LINE
  5
9D
  8
2
 10
72.5
 20
46.560000000000002
 30
0.0
 11
73.5
 21
45.560000000000002
 31
0.0
  0
LINE
  5
9E
  8
1
 10
92.5
 20
48.001511000000001
 30
0.0
 11
92.5
 21
33.651116999999999
 31
0.0
  0
LINE
  5
9F
  8
2
 10
94.700000000000003
 20
42.060000000000002
 30
0.0
 11
94.700000000000003
 21
35.0
 31
0.0
  0
LINE
  5
A0
  8
2
 10
90.299999999999983
 20
42.060000000000002
 30
0.0
 11
90.299999999999983
 21
35.0
 31
0.0
  0
LINE
  5
A1
  8
2
 10
88.700000000000003
 20
42.060000000000002
 30
0.0
 11
97.5
 21
42.060000000000002
 31
0.0
  0
LINE
  5
A2
  8
2
 10
88.700000000000003
 20
46.560000000000002
 30
0.0
 11
88.700000000000003
 21
42.060000000000002
 31
0.0
  0
LINE
  5
A3
  8
2
 10
71.349999999999994
 20
38.77000000000001
 30
0.0
 11
88.650000000000006
 21
38.77000000000001
 31
0.0
  0
LINE
  5
A4
  8
2
 10
73.5
 20
40.920000000000002
 30
0.0
 11
71.349999999999994
 21
38.77000000000001
 31
0.0
  0
LINE
  5
A5
  8
2
 10
86.5
 20
40.920000000000002
 30
0.0
 11
88.650000000000006
 21
38.77000000000001
 31
0.0
  0
LINE
  5
A6
  8
2
 10
88.650000000000006
 20
35.0
 30
0.0
 11
88.650000000000006
 21
38.77000000000001
 31
0.0
  0
LINE
  5
A7
  8
2
 10
71.349999999999994
 20
35.0
 30
0.0
 11
71.349999999999994
 21
38.77000000000001
 31
0.0
  0
LINE
  5
A8
  8
2
 10
86.5
 20
45.560000000000002
 30
0.0
 11
86.5
 21
40.920000000000002
 31
0.0
  0
LINE
  5
A9
  8
2
 10
73.5
 20
45.560000000000002
 30
0.0
 11
73.5
 21
40.920000000000002
 31
0.0
  0
LINE
  5
AA
  8
2
 10
73.5
 20
40.920000000000002
 30
0.0
 11
86.5
 21
40.920000000000002
 31
0.0
  0
LINE
  5
AB
  8
0
 10
62.5
 20
45.560000000000002
 30
0.0
 11
62.5
 21
35.5
 31
0.0
  0
LINE
  5
AC
  8
0
 10
63.5
 20
46.560000000000002
 30
0.0
 11
62.5
 21
45.560000000000002
 31
0.0
  0
LINE
  5
AD
  8
0
 10
96.5
 20
46.560000000000002
 30
0.0
 11
63.5
 21
46.560000000000002
 31
0.0
  0
LINE
  5
AE
  8
0
 10
97.5
 20
45.560000000000002
 30
0.0
 11
96.5
 21
46.560000000000002
 31
0.0
  0
LINE
  5
AF
  8
0
 10
97.5
 20
35.5
 30
0.0
 11
97.5
 21
45.560000000000002
 31
0.0
  0
LINE
  5
B0
  8
0
 10
63.0
 20
35.0
 30
0.0
 11
97.0
 21
35.0
 31
0.0
  0
LINE
  5
B1
  8
1
 10
80.0
 20
49.560000000000002
 30
0.0
 11
80.0
 21
32.0
 31
0.0
  0
LINE
  5
B2
  8
0
 10
132.94
 20
81.200000000000003
 30
0.0
 11
132.94
 21
88.799999999999997
 31
0.0
  0
LINE
  5
B3
  8
0
 10
132.94
 20
88.799999999999997
 30
0.0
 11
128.44
 21
88.799999999999997
 31
0.0
  0
LINE
  5
B4
  8
0
 10
132.94
 20
81.200000000000003
 30
0.0
 11
128.44
 21
81.200000000000003
 31
0.0
  0
TEXT
  5
207
  8
0
 62
     3
 10
0.0
 20
0.0
 30
0.0
 40
5.0
  1
BB2-13
  7
STANDARD1
  0
ENDSEC
  0
EOF
