  0
SECTION
  2
HEADER
  9
$ACADVER
  1
AC1009
  9
$INSBASE
 10
0.0
 20
0.0
 30
0.0
  9
$EXTMIN
 10
0.0
 20
-2.960436562073669
 30
0.0
  9
$EXTMAX
 10
285.2848904022735
 20
210.24083358884789
 30
0.0
  9
$LIMMIN
 10
0.0
 20
0.0
  9
$LIMMAX
 10
375.0
 20
270.0
  9
$ORTHOMODE
 70
     1
  9
$REGENMODE
 70
     1
  9
$FILLMODE
 70
     1
  9
$QTEXTMODE
 70
     0
  9
$MIRRTEXT
 70
     0
  9
$DRAGMODE
 70
     2
  9
$LTSCALE
 40
5.0
  9
$OSMODE
 70
  3071
  9
$ATTMODE
 70
     1
  9
$TEXTSIZE
 40
4.000000000000048
  9
$TRACEWID
 40
0.05
  9
$TEXTSTYLE
  7
STANDARD
  9
$CLAYER
  8
0
  9
$CELTYPE
  6
BYLAYER
  9
$CECOLOR
 62
   256
  9
$DIMSCALE
 40
1.0
  9
$DIMASZ
 40
3.0
  9
$DIMEXO
 40
2.0
  9
$DIMDLI
 40
0.38
  9
$DIMRND
 40
0.0
  9
$DIMDLE
 40
0.0
  9
$DIMEXE
 40
2.0
  9
$DIMTP
 40
0.0
  9
$DIMTM
 40
0.0
  9
$DIMTXT
 40
3.2000000000000002
  9
$DIMCEN
 40
0.0
  9
$DIMTSZ
 40
0.0
  9
$DIMTOL
 70
     0
  9
$DIMLIM
 70
     0
  9
$DIMTIH
 70
     0
  9
$DIMTOH
 70
     0
  9
$DIMSE1
 70
     0
  9
$DIMSE2
 70
     0
  9
$DIMTAD
 70
     1
  9
$DIMZIN
 70
     0
  9
$DIMBLK
  1

  9
$DIMASO
 70
     1
  9
$DIMSHO
 70
     0
  9
$DIMPOST
  1

  9
$DIMAPOST
  1

  9
$DIMALT
 70
     0
  9
$DIMALTD
 70
     2
  9
$DIMALTF
 40
25.399999999999999
  9
$DIMLFAC
 40
1.0
  9
$DIMTOFL
 70
     1
  9
$DIMTVP
 40
1.6000000000000001
  9
$DIMTIX
 70
     1
  9
$DIMSOXD
 70
     0
  9
$DIMSAH
 70
     0
  9
$DIMBLK1
  1

  9
$DIMBLK2
  1

  9
$DIMSTYLE
  2
STANDARD
  9
$DIMCLRD
 70
     0
  9
$DIMCLRE
 70
     0
  9
$DIMCLRT
 70
     0
  9
$DIMTFAC
 40
1.0
  9
$DIMGAP
 40
0.09
  9
$LUNITS
 70
     2
  9
$LUPREC
 70
     4
  9
$SKETCHINC
 40
0.1
  9
$FILLETRAD
 40
1.5
  9
$AUNITS
 70
     0
  9
$AUPREC
 70
     4
  9
$MENU
  1
E:\r13\win\SUPPORT\ACAD
  9
$ELEVATION
 40
0.0
  9
$PELEVATION
 40
0.0
  9
$THICKNESS
 40
0.0
  9
$LIMCHECK
 70
     0
  9
$BLIPMODE
 70
     0
  9
$CHAMFERA
 40
0.0
  9
$CHAMFERB
 40
0.0
  9
$SKPOLY
 70
     0
  9
$TDCREATE
 40
2449839.7901388891
  9
$TDUPDATE
 40
2456597.5912415511
  9
$TDINDWG
 40
0.0078176042
  9
$TDUSRTIMER
 40
0.0078176042
  9
$USRTIMER
 70
     1
  9
$ANGBASE
 50
0.0
  9
$ANGDIR
 70
     0
  9
$PDMODE
 70
     0
  9
$PDSIZE
 40
0.0
  9
$PLINEWID
 40
0.0
  9
$COORDS
 70
     1
  9
$SPLFRAME
 70
     0
  9
$SPLINETYPE
 70
     6
  9
$SPLINESEGS
 70
     8
  9
$ATTDIA
 70
     0
  9
$ATTREQ
 70
     1
  9
$HANDLING
 70
     1
  9
$HANDSEED
  5
2F1
  9
$SURFTAB1
 70
     6
  9
$SURFTAB2
 70
     6
  9
$SURFTYPE
 70
     6
  9
$SURFU
 70
     6
  9
$SURFV
 70
     6
  9
$UCSNAME
  2

  9
$UCSORG
 10
0.0
 20
0.0
 30
0.0
  9
$UCSXDIR
 10
1.0
 20
0.0
 30
0.0
  9
$UCSYDIR
 10
0.0
 20
1.0
 30
0.0
  9
$PUCSNAME
  2

  9
$PUCSORG
 10
0.0
 20
0.0
 30
0.0
  9
$PUCSXDIR
 10
1.0
 20
0.0
 30
0.0
  9
$PUCSYDIR
 10
0.0
 20
1.0
 30
0.0
  9
$USERI1
 70
     0
  9
$USERI2
 70
     1
  9
$USERI3
 70
     1
  9
$USERI4
 70
     0
  9
$USERI5
 70
     0
  9
$USERR1
 40
0.0
  9
$USERR2
 40
0.0
  9
$USERR3
 40
0.0
  9
$USERR4
 40
0.0
  9
$USERR5
 40
0.0
  9
$WORLDVIEW
 70
     1
  9
$SHADEDGE
 70
     3
  9
$SHADEDIF
 70
    70
  9
$TILEMODE
 70
     1
  9
$MAXACTVP
 70
    16
  9
$PLIMCHECK
 70
     0
  9
$PEXTMIN
 10
1.0000000000000000E+020
 20
1.0000000000000000E+020
 30
1.0000000000000000E+020
  9
$PEXTMAX
 10
-1.0000000000000000E+020
 20
-1.0000000000000000E+020
 30
-1.0000000000000000E+020
  9
$PLIMMIN
 10
0.0
 20
0.0
  9
$PLIMMAX
 10
12.0
 20
9.0
  9
$UNITMODE
 70
     0
  9
$VISRETAIN
 70
     0
  9
$PLINEGEN
 70
     0
  9
$PSLTSCALE
 70
     0
  0
ENDSEC
  0
SECTION
  2
TABLES
  0
TABLE
  2
VPORT
 70
     1
  0
VPORT
  2
*ACTIVE
 70
     0
 10
0.0
 20
0.0
 11
1.0
 21
1.0
 12
195.0581083320873
 22
133.5127261426681
 13
0.0
 23
0.0
 14
10.0
 24
10.0
 15
10.0
 25
10.0
 16
0.0
 26
0.0
 36
1.0
 17
0.0
 27
0.0
 37
0.0
 40
275.42274993631997
 41
1.831871345029239
 42
50.0
 43
0.0
 44
0.0
 50
0.0
 51
0.0
 71
     0
 72
   500
 73
     1
 74
     0
 75
     0
 76
     0
 77
     0
 78
     2
  0
ENDTAB
  0
TABLE
  2
LTYPE
 70
     4
  0
LTYPE
  2
CONTINUOUS
 70
     0
  3
Solid Line
 72
    65
 73
     0
 40
0.0
  0
LTYPE
  2
CENTER
 70
     0
  3
____ _ ____ _ ____ _ ____ _ ____ _ ____ _ ____
 72
    65
 73
     4
 40
2.0
 49
1.25
 49
-0.25
 49
0.25
 49
-0.25
  0
LTYPE
  2
HIDDEN
 70
     0
  3
_ _ _ _ _ _ _ _ _ _ _ _ _ _ _ _ _ _ _ _ _ _ _
 72
    65
 73
     2
 40
0.375
 49
0.25
 49
-0.125
  0
LTYPE
  2
PHANTOM2
 70
     0
  3
___ _ _ ___ _ _ ___ _ _ ___ _ _
 72
    65
 73
     6
 40
1.25
 49
0.625
 49
-0.125
 49
0.125
 49
-0.125
 49
0.125
 49
-0.125
  0
ENDTAB
  0
TABLE
  2
LAYER
 70
     3
  0
LAYER
  2
0
 70
     0
 62
     7
  6
CONTINUOUS
  0
LAYER
  2
1
 70
     0
 62
     1
  6
CENTER
  0
LAYER
  2
2
 70
     0
 62
     2
  6
HIDDEN
  0
ENDTAB
  0
TABLE
  2
STYLE
 70
     2
  0
STYLE
  2
STANDARD
 70
     0
 40
0.0
 41
1.0
 50
0.0
 71
     0
 42
4.000000000000048
  3
TXT
  4
BIGFONT
  0
STYLE
  2
STANDARD1
 70
     0
 40
0.0
 41
1.0
 50
0.0
 71
     0
 42
3.0
  3
txt
  4

  0
ENDTAB
  0
TABLE
  2
VIEW
 70
     1
  0
VIEW
  2
ALL
 70
     0
 40
270.0
 10
220.99159663865549
 20
135.0
 41
0.0
 11
0.0
 21
0.0
 31
1.0
 12
0.0
 22
0.0
 32
0.0
 42
0.0
 43
0.0
 44
0.0
 50
0.0
 71
     0
  0
ENDTAB
  0
TABLE
  2
UCS
 70
     0
  0
ENDTAB
  0
TABLE
  2
APPID
 70
     3
  0
APPID
  2
ACAD
 70
     0
  0
APPID
  2
ACAD_MLEADERVER
 70
     0
  0
APPID
  2
ACAD_NAV_VCDISPLAY
 70
     0
  0
ENDTAB
  0
TABLE
  2
DIMSTYLE
 70
     1
  0
DIMSTYLE
  2
STANDARD
 70
     0
  3

  4

  5

  6

  7

 40
1.0
 41
0.18
 42
0.0625
 43
0.38
 44
0.18
 45
0.0
 46
0.0
 47
0.0
 48
0.0
140
0.18
141
0.09
142
0.0
143
25.399999999999999
144
1.0
145
0.0
146
1.0
147
0.09
 71
     0
 72
     0
 73
     1
 74
     1
 75
     0
 76
     0
 77
     0
 78
     0
170
     0
171
     2
172
     0
173
     0
174
     0
175
     0
176
     0
177
     0
178
     0
  0
ENDTAB
  0
ENDSEC
  0
SECTION
  2
BLOCKS
  0
BLOCK
  8
0
  2
$MODEL_SPACE
 70
     0
 10
0.0
 20
0.0
 30
0.0
  3
$MODEL_SPACE
  1

  0
ENDBLK
  5
119
  8
0
  0
BLOCK
 67
     1
  8
0
  2
$PAPER_SPACE
 70
     0
 10
0.0
 20
0.0
 30
0.0
  3
$PAPER_SPACE
  1

  0
ENDBLK
  5
117
 67
     1
  8
0
  0
ENDSEC
  0
SECTION
  2
ENTITIES
  0
LINE
  5
35
  8
0
 10
166.2848904022735
 20
74.218416168352633
 30
0.0
 11
180.2848904022735
 21
74.218416168352633
 31
0.0
  0
LINE
  5
36
  8
0
 10
180.2848904022735
 20
74.218416168352633
 30
0.0
 11
180.2848904022735
 21
75.718416168352633
 31
0.0
  0
LINE
  5
37
  8
0
 10
166.2848904022735
 20
74.218416168352633
 30
0.0
 11
166.2848904022735
 21
75.718416168352633
 31
0.0
  0
LINE
  5
38
  8
0
 10
133.2848904022735
 20
75.718416168352633
 30
0.0
 11
213.2848904022735
 21
75.718416168352633
 31
0.0
  0
LINE
  5
39
  8
0
 10
133.2848904022735
 20
75.718416168352633
 30
0.0
 11
133.8892230009107
 21
98.796947013276252
 31
0.0
  0
LINE
  5
3A
  8
0
 10
212.98272410295479
 20
87.257681590814457
 30
0.0
 11
213.2848904022735
 21
75.718416168351808
 31
0.0
  0
ARC
  5
3B
  8
0
 10
136.88819497583739
 20
98.718416168352633
 30
0.0
 40
3.0
 50
80.097191755986486
 51
178.5
  0
ARC
  5
3C
  8
0
 10
211.4832381154915
 20
87.218416168352633
 30
0.0
 40
1.5
 50
1.499999999999996
 51
80.097191755986245
  0
LINE
  5
3D
  8
1
 10
173.2848904022735
 20
100.48533320352099
 30
0.0
 11
173.2848904022735
 21
69.218416168352633
 31
0.0
  0
LINE
  5
3E
  8
0
 10
181.2848904022735
 20
94.013083428488244
 30
0.0
 11
181.2848904022735
 21
94.718416168352604
 31
0.0
  0
LINE
  5
3F
  8
0
 10
182.2848904022735
 20
95.718416168352604
 30
0.0
 11
210.12893289763261
 21
95.718416168352604
 31
0.0
  0
ARC
  5
40
  8
0
 10
210.12893289763261
 20
94.718416168352576
 30
0.0
 40
1.0
 50
1.500000000000008
 51
90.0
  0
ARC
  5
41
  8
0
 10
182.2848904022735
 20
94.718416168352604
 30
0.0
 40
1.0
 50
90.0
 51
179.99999999999989
  0
LINE
  5
42
  8
0
 10
211.1285902226081
 20
94.744593116660468
 30
0.0
 11
211.2848904022735
 21
88.775730067390981
 31
0.0
  0
LINE
  5
43
  8
0
 10
136.36435363018461
 20
182.21946875377361
 30
0.0
 11
211.82462201622911
 21
184.2184161683526
 31
0.0
  0
ARC
  5
44
  8
0
 10
136.2848904022735
 20
185.2184161683526
 30
0.0
 40
3.0
 50
180.0
 51
271.5178133803322
  0
ARC
  5
45
  8
0
 10
211.7848904022735
 20
185.7178898756421
 30
0.0
 40
1.5
 50
271.5178133803318
 51
0.0
  0
LINE
  5
46
  8
0
 10
199.16178477665591
 20
186.2184161683526
 30
0.0
 11
182.2848904022735
 21
186.2184161683526
 31
0.0
  0
ARC
  5
47
  8
0
 10
182.2848904022735
 20
187.2184161683526
 30
0.0
 40
1.0
 50
180.0
 51
269.99999999999989
  0
LINE
  5
48
  8
0
 10
139.7848904022735
 20
200.7184161683526
 30
0.0
 11
139.7848904022735
 21
187.7184161683526
 31
0.0
  0
LINE
  5
49
  8
0
 10
140.7848904022735
 20
186.7184161683526
 30
0.0
 11
173.7848904022735
 21
186.7184161683526
 31
0.0
  0
LINE
  5
4A
  8
0
 10
174.7848904022735
 20
187.7184161683526
 30
0.0
 11
174.7848904022735
 21
200.7184161683526
 31
0.0
  0
ARC
  5
4B
  8
0
 10
140.7848904022735
 20
187.7184161683526
 30
0.0
 40
1.0
 50
180.0
 51
269.99999999999989
  0
ARC
  5
4C
  8
0
 10
173.7848904022735
 20
187.7184161683526
 30
0.0
 40
1.0
 50
270.0
 51
0.0
  0
ARC
  5
4D
  8
0
 10
173.7848904022735
 20
200.7184161683526
 30
0.0
 40
1.0
 50
0.0
 51
90.000000000000028
  0
LINE
  5
4E
  8
0
 10
140.7848904022735
 20
201.7184161683526
 30
0.0
 11
173.7848904022735
 21
201.7184161683526
 31
0.0
  0
ARC
  5
4F
  8
0
 10
140.7848904022735
 20
200.7184161683526
 30
0.0
 40
1.0
 50
90.000000000000057
 51
180.0
  0
ARC
  5
50
  8
0
 10
182.2848904022735
 20
201.2184161683526
 30
0.0
 40
1.0
 50
90.000000000000057
 51
180.0
  0
LINE
  5
51
  8
0
 10
199.16178477665591
 20
202.2184161683526
 30
0.0
 11
182.2848904022735
 21
202.2184161683526
 31
0.0
  0
ARC
  5
52
  8
0
 10
211.7848904022735
 20
202.71894246106311
 30
0.0
 40
1.5
 50
0.0
 51
88.482186619668184
  0
ARC
  5
53
  8
0
 10
136.2848904022735
 20
203.21841616835269
 30
0.0
 40
3.0
 50
88.482186619667885
 51
180.0
  0
LINE
  5
54
  8
0
 10
136.36435363018461
 20
206.2173635829316
 30
0.0
 11
211.82462201622911
 21
204.2184161683526
 31
0.0
  0
LINE
  5
55
  8
0
 10
133.2848904022735
 20
203.21841616835269
 30
0.0
 11
133.2848904022735
 21
185.2184161683526
 31
0.0
  0
LINE
  5
56
  8
0
 10
181.2848904022735
 20
201.2184161683526
 30
0.0
 11
181.2848904022735
 21
187.2184161683526
 31
0.0
  0
LINE
  5
57
  8
0
 10
213.2848904022735
 20
202.71894246106311
 30
0.0
 11
213.2848904022735
 21
185.7178898756421
 31
0.0
  0
LINE
  5
58
  8
1
 10
128.2848904022735
 20
194.2184161683526
 30
0.0
 11
218.2848904022735
 21
194.2184161683526
 31
0.0
  0
LINE
  5
59
  8
1
 10
173.2848904022735
 20
210.24083358884789
 30
0.0
 11
173.2848904022735
 21
178.1959987478574
 31
0.0
  0
CIRCLE
  5
5A
  8
0
 10
203.2848904022735
 20
194.2184161683526
 30
0.0
 40
9.0
  0
LINE
  5
5B
  8
0
 10
198.2848904022735
 20
96.018416168352843
 30
0.0
 11
198.2848904022735
 21
95.718416168352604
 31
0.0
  0
LINE
  5
5C
  8
0
 10
208.2848904022735
 20
95.718416168352604
 30
0.0
 11
208.2848904022735
 21
96.018416168352843
 31
0.0
  0
LINE
  5
5D
  8
0
 10
194.2848904022735
 20
111.0184161683528
 30
0.0
 11
195.7128506997955
 21
96.738813193136025
 31
0.0
  0
ARC
  5
5E
  8
0
 10
196.50888045196351
 20
96.818416168352826
 30
0.0
 40
0.8
 50
185.71059313750109
 51
269.99999999999989
  0
ARC
  5
5F
  8
0
 10
210.0609003525835
 20
96.818416168352826
 30
0.0
 40
0.8
 50
270.00000000000011
 51
354.28940686249888
  0
LINE
  5
60
  8
0
 10
212.2848904022735
 20
111.0184161683528
 30
0.0
 11
210.85693010475151
 21
96.738813193136025
 31
0.0
  0
LINE
  5
61
  8
0
 10
196.50888045196351
 20
96.018416168352843
 30
0.0
 11
210.0609003525835
 21
96.018416168352843
 31
0.0
  0
LINE
  5
62
  8
0
 10
194.2848904022735
 20
111.0184161683528
 30
0.0
 11
212.2848904022735
 21
111.0184161683528
 31
0.0
  0
ARC
  5
63
  8
0
 10
195.7848904022735
 20
133.21387033808799
 30
0.0
 40
1.4999999999996321
 50
105.25752329045611
 51
180.0
  0
ARC
  5
64
  8
0
 10
210.80092430781761
 20
133.21387033808799
 30
0.0
 40
1.4999999999996321
 50
0.0
 51
74.74247670954388
  0
ARC
  5
65
  8
0
 10
203.2848904022735
 20
105.7184161683526
 30
0.0
 40
30.0
 50
74.712937721073132
 51
105.25752329045611
  0
LINE
  5
66
  8
0
 10
195.2848904022735
 20
133.21387033808799
 30
0.0
 11
211.2848904022735
 21
133.21387033808799
 31
0.0
  0
LINE
  5
67
  8
0
 10
194.2848904022739
 20
133.21387033808799
 30
0.0
 11
194.2848904022735
 21
111.0184161683527
 31
0.0
  0
LINE
  5
68
  8
0
 10
212.30092430781721
 20
133.21387033808799
 30
0.0
 11
212.2848904022735
 21
111.0184161683528
 31
0.0
  0
LINE
  5
69
  8
1
 10
203.2848904022735
 20
70.718416168352633
 30
0.0
 11
203.2848904022735
 21
140.7184161683538
 31
0.0
  0
LINE
  5
6A
  8
1
 10
203.2848904022735
 20
208.2184161683526
 30
0.0
 11
203.2848904022735
 21
180.2184161683526
 31
0.0
  0
LINE
  5
6B
  8
0
 10
211.74120680811939
 20
88.696067058661583
 30
0.0
 11
137.4041271258543
 21
101.6737188629304
 31
0.0
  0
LINE
  5
6C
  8
2
 10
166.2848904022735
 20
90.218416168352633
 30
0.0
 11
180.2848904022735
 21
90.218416168352633
 31
0.0
  0
LINE
  5
6D
  8
2
 10
165.7848904022735
 20
89.718416168352633
 30
0.0
 11
165.7848904022735
 21
75.718416168352633
 31
0.0
  0
LINE
  5
6E
  8
2
 10
180.7848904022735
 20
89.718416168352633
 30
0.0
 11
180.7848904022735
 21
75.718416168352633
 31
0.0
  0
LINE
  5
6F
  8
2
 10
168.28489040227339
 20
90.218416168352633
 30
0.0
 11
168.28489040227339
 21
74.718416168352633
 31
0.0
  0
LINE
  5
70
  8
2
 10
178.2848904022735
 20
90.218416168352633
 30
0.0
 11
178.2848904022735
 21
74.718416168352633
 31
0.0
  0
LINE
  5
71
  8
2
 10
166.2848904022735
 20
90.218416168352633
 30
0.0
 11
165.7848904022735
 21
89.718416168352633
 31
0.0
  0
LINE
  5
72
  8
2
 10
180.2848904022735
 20
90.218416168352633
 30
0.0
 11
180.7848904022735
 21
89.718416168352633
 31
0.0
  0
LINE
  5
73
  8
2
 10
168.28489040227339
 20
74.718416168352633
 30
0.0
 11
167.7848904022735
 21
74.218416168352633
 31
0.0
  0
LINE
  5
74
  8
2
 10
178.2848904022735
 20
74.718416168352633
 30
0.0
 11
178.7848904022735
 21
74.218416168352633
 31
0.0
  0
LINE
  5
75
  8
2
 10
168.28489040227339
 20
74.718416168352633
 30
0.0
 11
178.2848904022735
 21
74.718416168352633
 31
0.0
  0
LINE
  5
76
  8
2
 10
139.7848904022735
 20
101.2580889113394
 30
0.0
 11
139.7848904022735
 21
100.75052669013201
 31
0.0
  0
LINE
  5
77
  8
2
 10
174.7848904022735
 20
95.147843323392635
 30
0.0
 11
174.7848904022735
 21
94.640281102185256
 31
0.0
  0
LINE
  5
78
  8
2
 10
174.7848904022735
 20
94.640281102185256
 30
0.0
 11
139.7848904022735
 21
100.75052669013201
 31
0.0
  0
LINE
  5
79
  8
0
 10
85.284890402273504
 20
75.718416168352633
 30
0.0
 11
61.284890402273497
 21
75.718416168352633
 31
0.0
  0
LINE
  5
7A
  8
0
 10
61.284890402273497
 20
98.718416168352633
 30
0.0
 11
61.284890402273497
 21
75.718416168352633
 31
0.0
  0
LINE
  5
7B
  8
0
 10
85.284890402273504
 20
98.718416168352633
 30
0.0
 11
85.284890402273504
 21
75.718416168352633
 31
0.0
  0
LINE
  5
7C
  8
0
 10
82.284890402273504
 20
101.7184161683526
 30
0.0
 11
64.284890402273504
 21
101.7184161683526
 31
0.0
  0
LINE
  5
7D
  8
1
 10
73.284890402273504
 20
70.718416168352633
 30
0.0
 11
73.284890402273504
 21
140.7184161683538
 31
0.0
  0
ARC
  5
7E
  8
0
 10
64.284890402273504
 20
98.718416168352633
 30
0.0
 40
3.0
 50
89.999999999999986
 51
179.99999999999989
  0
ARC
  5
7F
  8
0
 10
82.284890402273504
 20
98.718416168352633
 30
0.0
 40
3.0
 50
0.0
 51
89.999999999999943
  0
LINE
  5
80
  8
0
 10
66.284890402273504
 20
74.218416168352633
 30
0.0
 11
66.284890402273504
 21
75.718416168352633
 31
0.0
  0
LINE
  5
81
  8
0
 10
66.284890402273504
 20
74.218416168352633
 30
0.0
 11
80.284890402273504
 21
74.218416168352633
 31
0.0
  0
LINE
  5
82
  8
0
 10
80.284890402273504
 20
74.218416168352633
 30
0.0
 11
80.284890402273504
 21
75.718416168352633
 31
0.0
  0
LINE
  5
83
  8
0
 10
82.30092430781724
 20
133.21387033808799
 30
0.0
 11
82.284890402273504
 21
111.0184161683528
 31
0.0
  0
LINE
  5
84
  8
0
 10
64.284890402273959
 20
133.21387033808799
 30
0.0
 11
64.284890402273504
 21
111.0184161683527
 31
0.0
  0
LINE
  5
85
  8
0
 10
65.284890402273504
 20
133.21387033808799
 30
0.0
 11
81.284890402273504
 21
133.21387033808799
 31
0.0
  0
ARC
  5
86
  8
0
 10
73.284890402273504
 20
105.7184161683526
 30
0.0
 40
30.0
 50
74.712937721073132
 51
105.25752329045611
  0
ARC
  5
87
  8
0
 10
80.800924307817596
 20
133.21387033808799
 30
0.0
 40
1.4999999999996321
 50
0.0
 51
74.74247670954388
  0
ARC
  5
88
  8
0
 10
65.784890402273561
 20
133.21387033808799
 30
0.0
 40
1.4999999999996321
 50
105.25752329045611
 51
180.0
  0
LINE
  5
89
  8
0
 10
64.284890402273504
 20
111.0184161683528
 30
0.0
 11
82.284890402273504
 21
111.0184161683528
 31
0.0
  0
LINE
  5
8A
  8
0
 10
64.284890402273504
 20
111.0184161683528
 30
0.0
 11
65.214890402273795
 21
101.7184161683526
 31
0.0
  0
LINE
  5
8B
  8
0
 10
82.284890402273504
 20
111.0184161683528
 30
0.0
 11
81.354890402273327
 21
101.7184161683526
 31
0.0
  0
LINE
  5
8C
  8
0
 10
280.2848904022735
 20
74.218416168352633
 30
0.0
 11
280.2848904022735
 21
75.718416168352633
 31
0.0
  0
LINE
  5
8D
  8
0
 10
266.2848904022735
 20
74.218416168352633
 30
0.0
 11
280.2848904022735
 21
74.218416168352633
 31
0.0
  0
LINE
  5
8E
  8
0
 10
266.2848904022735
 20
74.218416168352633
 30
0.0
 11
266.2848904022735
 21
75.718416168352633
 31
0.0
  0
ARC
  5
8F
  8
0
 10
282.2848904022735
 20
98.718416168352633
 30
0.0
 40
3.0
 50
0.0
 51
89.999999999999943
  0
LINE
  5
90
  8
0
 10
282.2848904022735
 20
101.7184161683526
 30
0.0
 11
281.35489040227333
 21
101.7184161683526
 31
0.0
  0
LINE
  5
91
  8
0
 10
285.2848904022735
 20
98.718416168352633
 30
0.0
 11
285.2848904022735
 21
75.718416168352633
 31
0.0
  0
LINE
  5
92
  8
0
 10
261.2848904022735
 20
98.718416168352633
 30
0.0
 11
261.2848904022735
 21
75.718416168352633
 31
0.0
  0
LINE
  5
93
  8
0
 10
285.2848904022735
 20
75.718416168352633
 30
0.0
 11
261.2848904022735
 21
75.718416168352633
 31
0.0
  0
LINE
  5
94
  8
1
 10
273.2848904022735
 20
70.718416168352633
 30
0.0
 11
273.2848904022735
 21
140.7184161683538
 31
0.0
  0
LINE
  5
95
  8
0
 10
264.7848904022735
 20
88.775730067390995
 30
0.0
 11
281.78489040227362
 21
88.775730067390981
 31
0.0
  0
LINE
  5
96
  8
0
 10
263.2848904022735
 20
87.275730067390995
 30
0.0
 11
263.2848904022735
 21
75.718416168352647
 31
0.0
  0
LINE
  5
97
  8
0
 10
283.28489040227362
 20
87.275730067390995
 30
0.0
 11
283.28489040227362
 21
75.718416168352647
 31
0.0
  0
ARC
  5
98
  8
0
 10
281.78489040227362
 20
87.275730067390995
 30
0.0
 40
1.5
 50
359.99999999999972
 51
89.999999999999943
  0
LINE
  5
99
  8
0
 10
266.18489040227342
 20
95.718416168352604
 30
0.0
 11
280.38489040227353
 21
95.718416168352604
 31
0.0
  0
LINE
  5
9A
  8
0
 10
265.18489040227348
 20
88.775730067390981
 30
0.0
 11
265.18489040227342
 21
94.718416168352576
 31
0.0
  0
LINE
  5
9B
  8
0
 10
281.38489040227353
 20
88.775730067390981
 30
0.0
 11
281.38489040227353
 21
94.718416168352604
 31
0.0
  0
ARC
  5
9C
  8
0
 10
266.18489040227342
 20
94.718416168352604
 30
0.0
 40
1.0
 50
90.0
 51
180.0000000000004
  0
ARC
  5
9D
  8
0
 10
280.38489040227353
 20
94.718416168352604
 30
0.0
 40
1.0
 50
0.0
 51
90.0
  0
LINE
  5
9E
  8
0
 10
282.3009243078173
 20
133.21387033808799
 30
0.0
 11
282.2848904022735
 21
111.0184161683528
 31
0.0
  0
LINE
  5
9F
  8
0
 10
264.28489040227402
 20
133.21387033808799
 30
0.0
 11
264.2848904022735
 21
111.0184161683527
 31
0.0
  0
LINE
  5
A0
  8
0
 10
265.2848904022735
 20
133.21387033808799
 30
0.0
 11
281.2848904022735
 21
133.21387033808799
 31
0.0
  0
ARC
  5
A1
  8
0
 10
273.2848904022735
 20
105.7184161683526
 30
0.0
 40
30.0
 50
74.712937721073132
 51
105.25752329045611
  0
ARC
  5
A2
  8
0
 10
280.80092430781758
 20
133.21387033808799
 30
0.0
 40
1.4999999999996321
 50
0.0
 51
74.74247670954388
  0
ARC
  5
A3
  8
0
 10
265.78489040227362
 20
133.21387033808799
 30
0.0
 40
1.4999999999996321
 50
105.25752329045611
 51
180.0
  0
LINE
  5
A4
  8
0
 10
264.2848904022735
 20
111.0184161683528
 30
0.0
 11
282.2848904022735
 21
111.0184161683528
 31
0.0
  0
LINE
  5
A5
  8
0
 10
266.50888045196348
 20
96.018416168352843
 30
0.0
 11
280.06090035258347
 21
96.018416168352843
 31
0.0
  0
LINE
  5
A6
  8
0
 10
282.2848904022735
 20
111.0184161683528
 30
0.0
 11
280.85693010475148
 21
96.738813193136025
 31
0.0
  0
ARC
  5
A7
  8
0
 10
280.06090035258347
 20
96.818416168352826
 30
0.0
 40
0.8
 50
270.00000000000011
 51
354.28940686249888
  0
ARC
  5
A8
  8
0
 10
266.50888045196348
 20
96.818416168352826
 30
0.0
 40
0.8
 50
185.71059313750109
 51
269.99999999999989
  0
LINE
  5
A9
  8
0
 10
264.2848904022735
 20
111.0184161683528
 30
0.0
 11
265.71285069979558
 21
96.738813193136025
 31
0.0
  0
LINE
  5
AA
  8
0
 10
278.2848904022735
 20
95.718416168352604
 30
0.0
 11
278.2848904022735
 21
96.018416168352843
 31
0.0
  0
LINE
  5
AB
  8
0
 10
268.2848904022735
 20
96.018416168352843
 30
0.0
 11
268.2848904022735
 21
95.718416168352604
 31
0.0
  0
LINE
  5
AC
  8
0
 10
265.2148904022738
 20
101.7184161683526
 30
0.0
 11
264.2848904022735
 21
101.7184161683526
 31
0.0
  0
LINE
  5
AD
  8
0
 10
261.75756332329217
 20
98.718416168352633
 30
0.0
 11
263.32410948399638
 21
88.775730067390981
 31
0.0
  0
ARC
  5
AE
  8
0
 10
264.2848904022735
 20
98.718416168352633
 30
0.0
 40
3.0
 50
90.000000000000185
 51
179.99999999999989
  0
ARC
  5
AF
  8
0
 10
264.7848904022735
 20
87.275730067390995
 30
0.0
 40
1.5
 50
90.0
 51
179.99999999999989
  0
LINE
  5
B0
  8
0
 10
284.81221748125478
 20
98.718416168352633
 30
0.0
 11
283.24567132055063
 21
88.775730067390981
 31
0.0
  0
CIRCLE
  5
BA
  8
0
 10
173.2848904022735
 20
82.218416168352647
 30
0.0
 40
2.75
  0
LINE
  5
173
  8
1
 10
168.0348904022735
 20
82.218416168352647
 30
0.0
 11
178.5348904022735
 21
82.218416168352647
 31
0.0
  0
TEXT
  5
262
  8
0
 62
     3
 10
0.0
 20
0.0
 30
0.0
 40
10.0
  1
BA80
  7
STANDARD1
  0
ENDSEC
  0
EOF
