  0
SECTION
  2
HEADER
  9
$ACADVER
  1
AC1009
  9
$INSBASE
 10
0.0
 20
0.0
 30
0.0
  9
$EXTMIN
 10
-0.0204638472032742
 20
-2.960436562073669
 30
0.0
  9
$EXTMAX
 10
236.0101715716616
 20
102.0
 30
0.0
  9
$LIMMIN
 10
0.0
 20
0.0
  9
$LIMMAX
 10
750.0
 20
540.0
  9
$ORTHOMODE
 70
     1
  9
$REGENMODE
 70
     1
  9
$FILLMODE
 70
     1
  9
$QTEXTMODE
 70
     0
  9
$MIRRTEXT
 70
     0
  9
$DRAGMODE
 70
     2
  9
$LTSCALE
 40
10.0
  9
$OSMODE
 70
    37
  9
$ATTMODE
 70
     1
  9
$TEXTSIZE
 40
0.2
  9
$TRACEWID
 40
0.05
  9
$TEXTSTYLE
  7
STANDARD
  9
$CLAYER
  8
0
  9
$CELTYPE
  6
BYLAYER
  9
$CECOLOR
 62
   256
  9
$DIMSCALE
 40
1.0
  9
$DIMASZ
 40
3.0
  9
$DIMEXO
 40
1.0
  9
$DIMDLI
 40
0.38
  9
$DIMRND
 40
0.0
  9
$DIMDLE
 40
0.0
  9
$DIMEXE
 40
1.0
  9
$DIMTP
 40
0.0
  9
$DIMTM
 40
0.0
  9
$DIMTXT
 40
3.0
  9
$DIMCEN
 40
0.0
  9
$DIMTSZ
 40
0.0
  9
$DIMTOL
 70
     0
  9
$DIMLIM
 70
     0
  9
$DIMTIH
 70
     0
  9
$DIMTOH
 70
     0
  9
$DIMSE1
 70
     0
  9
$DIMSE2
 70
     0
  9
$DIMTAD
 70
     1
  9
$DIMZIN
 70
     8
  9
$DIMBLK
  1

  9
$DIMASO
 70
     0
  9
$DIMSHO
 70
     0
  9
$DIMPOST
  1

  9
$DIMAPOST
  1

  9
$DIMALT
 70
     0
  9
$DIMALTD
 70
     2
  9
$DIMALTF
 40
25.399999999999999
  9
$DIMLFAC
 40
1.0
  9
$DIMTOFL
 70
     0
  9
$DIMTVP
 40
1.6000000000000001
  9
$DIMTIX
 70
     0
  9
$DIMSOXD
 70
     0
  9
$DIMSAH
 70
     0
  9
$DIMBLK1
  1

  9
$DIMBLK2
  1

  9
$DIMSTYLE
  2
STANDARD
  9
$DIMCLRD
 70
     0
  9
$DIMCLRE
 70
     0
  9
$DIMCLRT
 70
     0
  9
$DIMTFAC
 40
1.0
  9
$DIMGAP
 40
1.0
  9
$LUNITS
 70
     2
  9
$LUPREC
 70
     1
  9
$SKETCHINC
 40
0.1
  9
$FILLETRAD
 40
0.0
  9
$AUNITS
 70
     0
  9
$AUPREC
 70
     1
  9
$MENU
  1
E:\r13\win\SUPPORT\ACAD
  9
$ELEVATION
 40
0.0
  9
$PELEVATION
 40
0.0
  9
$THICKNESS
 40
0.0
  9
$LIMCHECK
 70
     0
  9
$BLIPMODE
 70
     0
  9
$CHAMFERA
 40
0.0
  9
$CHAMFERB
 40
0.0
  9
$SKPOLY
 70
     0
  9
$TDCREATE
 40
2449840.6227546302
  9
$TDUPDATE
 40
2458232.6387389242
  9
$TDINDWG
 40
0.2520858218
  9
$TDUSRTIMER
 40
0.2520858218
  9
$USRTIMER
 70
     1
  9
$ANGBASE
 50
0.0
  9
$ANGDIR
 70
     0
  9
$PDMODE
 70
     0
  9
$PDSIZE
 40
0.0
  9
$PLINEWID
 40
0.0
  9
$COORDS
 70
     1
  9
$SPLFRAME
 70
     0
  9
$SPLINETYPE
 70
     6
  9
$SPLINESEGS
 70
     8
  9
$ATTDIA
 70
     0
  9
$ATTREQ
 70
     1
  9
$HANDLING
 70
     1
  9
$HANDSEED
  5
5A4F
  9
$SURFTAB1
 70
     6
  9
$SURFTAB2
 70
     6
  9
$SURFTYPE
 70
     6
  9
$SURFU
 70
     6
  9
$SURFV
 70
     6
  9
$UCSNAME
  2

  9
$UCSORG
 10
0.0
 20
0.0
 30
0.0
  9
$UCSXDIR
 10
1.0
 20
0.0
 30
0.0
  9
$UCSYDIR
 10
0.0
 20
1.0
 30
0.0
  9
$PUCSNAME
  2

  9
$PUCSORG
 10
0.0
 20
0.0
 30
0.0
  9
$PUCSXDIR
 10
1.0
 20
0.0
 30
0.0
  9
$PUCSYDIR
 10
0.0
 20
1.0
 30
0.0
  9
$USERI1
 70
     0
  9
$USERI2
 70
     1
  9
$USERI3
 70
     0
  9
$USERI4
 70
     0
  9
$USERI5
 70
     0
  9
$USERR1
 40
0.0
  9
$USERR2
 40
0.0
  9
$USERR3
 40
0.0
  9
$USERR4
 40
0.0
  9
$USERR5
 40
0.0
  9
$WORLDVIEW
 70
     1
  9
$SHADEDGE
 70
     3
  9
$SHADEDIF
 70
    70
  9
$TILEMODE
 70
     1
  9
$MAXACTVP
 70
    16
  9
$PLIMCHECK
 70
     0
  9
$PEXTMIN
 10
1.0000000000000000E+020
 20
1.0000000000000000E+020
 30
1.0000000000000000E+020
  9
$PEXTMAX
 10
-1.0000000000000000E+020
 20
-1.0000000000000000E+020
 30
-1.0000000000000000E+020
  9
$PLIMMIN
 10
0.0
 20
0.0
  9
$PLIMMAX
 10
12.0
 20
9.0
  9
$UNITMODE
 70
     0
  9
$VISRETAIN
 70
     0
  9
$PLINEGEN
 70
     0
  9
$PSLTSCALE
 70
     0
  0
ENDSEC
  0
SECTION
  2
TABLES
  0
TABLE
  2
VPORT
 70
     1
  0
VPORT
  2
*ACTIVE
 70
     0
 10
0.0
 20
0.0
 11
1.0
 21
1.0
 12
181.62393162393161
 22
100.0
 13
0.0
 23
0.0
 14
20.0
 24
20.0
 15
20.0
 25
20.0
 16
0.0
 26
0.0
 36
1.0
 17
0.0
 27
0.0
 37
0.0
 40
200.0
 41
1.816239316239316
 42
50.0
 43
0.0
 44
0.0
 50
0.0
 51
0.0
 71
     0
 72
   100
 73
     1
 74
     0
 75
     0
 76
     0
 77
     0
 78
     2
  0
ENDTAB
  0
TABLE
  2
LTYPE
 70
     5
  0
LTYPE
  2
CONTINUOUS
 70
     0
  3
Solid Line
 72
    65
 73
     0
 40
0.0
  0
LTYPE
  2
CENTER
 70
     0
  3
____ _ ____ _ ____ _ ____ _ ____ _ ____ _ ____
 72
    65
 73
     4
 40
2.0
 49
1.25
 49
-0.25
 49
0.25
 49
-0.25
  0
LTYPE
  2
HIDDEN
 70
     0
  3
_ _ _ _ _ _ _ _ _ _ _ _ _ _ _ _ _ _ _ _ _ _ _
 72
    65
 73
     2
 40
0.375
 49
0.25
 49
-0.125
  0
LTYPE
  2
PHANTOM2
 70
     0
  3
___ _ _ ___ _ _ ___ _ _ ___ _ _
 72
    65
 73
     6
 40
1.25
 49
0.625
 49
-0.125
 49
0.125
 49
-0.125
 49
0.125
 49
-0.125
  0
LTYPE
  2
PHANTOM
 70
     0
  3
_____ _ _ _____ _ _ _____ _ _ _____ _ _ ____
 72
    65
 73
     6
 40
2.5
 49
1.25
 49
-0.25
 49
0.25
 49
-0.25
 49
0.25
 49
-0.25
  0
ENDTAB
  0
TABLE
  2
LAYER
 70
     6
  0
LAYER
  2
0
 70
     0
 62
     7
  6
CONTINUOUS
  0
LAYER
  2
1
 70
     0
 62
     1
  6
CENTER
  0
LAYER
  2
2
 70
     0
 62
     2
  6
HIDDEN
  0
LAYER
  2
5
 70
     0
 62
     3
  6
PHANTOM
  0
LAYER
  2
DEFPOINTS
 70
     0
 62
     7
  6
CONTINUOUS
  0
LAYER
  2
3
 70
     0
 62
     3
  6
CONTINUOUS
  0
ENDTAB
  0
TABLE
  2
STYLE
 70
     2
  0
STYLE
  2
STANDARD
 70
     0
 40
0.0
 41
1.0
 50
0.0
 71
     0
 42
0.2
  3
TXT
  4
BIGFONT
  0
STYLE
  2
STANDARD1
 70
     0
 40
0.0
 41
1.0
 50
0.0
 71
     0
 42
3.0
  3
txt
  4

  0
ENDTAB
  0
TABLE
  2
VIEW
 70
     1
  0
VIEW
  2
ALL
 70
     0
 40
540.0
 10
441.98319299999991
 20
270.0
 41
0.0
 11
0.0
 21
0.0
 31
1.0
 12
0.0
 22
0.0
 32
0.0
 42
0.0
 43
0.0
 44
0.0
 50
0.0
 71
     0
  0
ENDTAB
  0
TABLE
  2
UCS
 70
     0
  0
ENDTAB
  0
TABLE
  2
APPID
 70
     9
  0
APPID
  2
ACAD
 70
     0
  0
APPID
  2
ACAD_NAV_VCDISPLAY
 70
     0
  0
APPID
  2
ACAD_EXEMPT_FROM_CAD_STANDARDS
 70
     0
  0
APPID
  2
ACAD_DSTYLE_DIMJAG
 70
     0
  0
APPID
  2
ACAD_DSTYLE_DIMTALN
 70
     0
  0
APPID
  2
ACAD_MLEADERVER
 70
     0
  0
APPID
  2
DBPROPERTIES
 70
     0
  0
APPID
  2
ACAD_DSTYLE_DIMRADIAL_EXTENSION
 70
     0
  0
APPID
  2
ACAD_PSEXT
 70
     0
  0
ENDTAB
  0
TABLE
  2
DIMSTYLE
 70
     1
  0
DIMSTYLE
  2
STANDARD
 70
     0
  3

  4

  5

  6

  7

 40
1.0
 41
0.18
 42
0.0625
 43
0.38
 44
0.18
 45
0.0
 46
0.0
 47
0.0
 48
0.0
140
0.18
141
0.09
142
0.0
143
25.399999999999999
144
1.0
145
0.0
146
1.0
147
0.09
 71
     0
 72
     0
 73
     1
 74
     1
 75
     0
 76
     0
 77
     0
 78
     0
170
     0
171
     2
172
     0
173
     0
174
     0
175
     0
176
     0
177
     0
178
     0
  0
ENDTAB
  0
ENDSEC
  0
SECTION
  2
BLOCKS
  0
BLOCK
  8
0
  2
$MODEL_SPACE
 70
     0
 10
0.0
 20
0.0
 30
0.0
  3
$MODEL_SPACE
  1

  0
ENDBLK
  5
11D
  8
0
  0
BLOCK
 67
     1
  8
0
  2
$PAPER_SPACE
 70
     0
 10
0.0
 20
0.0
 30
0.0
  3
$PAPER_SPACE
  1

  0
ENDBLK
  5
11B
 67
     1
  8
0
  0
ENDSEC
  0
SECTION
  2
ENTITIES
  0
TEXT
  5
4EF3
  8
0
 62
     3
 10
0.0
 20
0.0
 30
0.0
 40
10.0
  1
ATLK50-M8X40
  7
STANDARD1
  0
LINE
  5
4EF4
  8
0
 10
190.7101715716615
 20
67.5
 30
0.0
 11
191.0101715716616
 21
67.5
 31
0.0
  0
LINE
  5
4EF5
  8
0
 10
191.0101715716616
 20
79.500000000000057
 30
0.0
 11
190.7101715716615
 21
79.500000000000057
 31
0.0
  0
LINE
  5
4EF6
  8
0
 10
191.0101715716616
 20
67.5
 30
0.0
 11
191.0101715716616
 21
79.500000000000057
 31
0.0
  0
LINE
  5
4EFD
  8
0
 10
150.45409285668231
 20
96.443921285020693
 30
0.0
 11
150.0101715716616
 21
96.0
 31
0.0
  0
LINE
  5
4EFE
  8
0
 10
150.0101715716616
 20
51.000000000000028
 30
0.0
 11
150.45071054698619
 21
50.559461024675358
 31
0.0
  0
ARC
  5
4EFF
  8
0
 10
175.5101715716616
 20
50.500000000000028
 30
0.0
 40
0.5
 50
270.0
 51
0.0
  0
ARC
  5
4F00
  8
0
 10
175.5101715716616
 20
96.5
 30
0.0
 40
0.5000000000000142
 50
0.0
 51
90.0
  0
LINE
  5
4F01
  8
0
 10
169.0101715716616
 20
50.000000000000028
 30
0.0
 11
175.5101715716616
 21
50.000000000000028
 31
0.0
  0
LINE
  5
4F02
  8
0
 10
175.5101715716616
 20
97.0
 30
0.0
 11
169.0101715716616
 21
97.0
 31
0.0
  0
ARC
  5
4F03
  8
0
 10
217.0
 20
72.306720245814631
 30
0.0
 40
70.000000000000028
 50
180.0
 51
196.8637036990913
  0
ARC
  5
4F04
  8
0
 10
217.0
 20
74.693279754185355
 30
0.0
 40
70.000000000000043
 50
163.1362963009102
 51
180.0
  0
LINE
  5
4F05
  8
0
 10
147.0
 20
74.693279754185355
 30
0.0
 11
147.0
 21
72.306720245814631
 31
0.0
  0
LINE
  5
4F06
  8
0
 10
176.0101715716616
 20
54.0
 30
0.0
 11
190.21017157166159
 21
54.0
 31
0.0
  0
LINE
  5
4F07
  8
0
 10
190.21017157166159
 20
93.0
 30
0.0
 11
176.0101715716616
 21
93.0
 31
0.0
  0
ARC
  5
4F08
  8
0
 10
190.21017157166159
 20
54.5
 30
0.0
 40
0.5
 50
270.0
 51
0.0
  0
ARC
  5
4F09
  8
0
 10
190.21017157166159
 20
92.5
 30
0.0
 40
0.5
 50
0.0
 51
90.0
  0
LINE
  5
4F0A
  8
0
 10
151.01017157165549
 20
72.498687594558064
 30
0.0
 11
169.0101715716616
 21
72.498687594558064
 31
0.0
  0
ARC
  5
4F0B
  8
0
 10
151.6333437464796
 20
73.499999999998181
 30
0.0
 40
1.1793939514696701
 50
121.89629197483001
 51
238.1037080248247
  0
LINE
  5
4F0C
  8
0
 10
151.0101715716616
 20
74.501312405442036
 30
0.0
 11
169.0101715716616
 21
74.501312405442036
 31
0.0
  0
LINE
  5
4F0D
  8
0
 10
151.0101715716616
 20
96.846236361334377
 30
0.0
 11
151.0101715716583
 21
96.978657829328881
 31
0.0
  0
POLYLINE
  5
4F0E
  8
0
 66
     1
 10
0.0
 20
0.0
 30
0.0
 70
   128
  0
VERTEX
  5
5992
  8
0
 10
151.0101715716616
 20
96.846236361334377
 30
0.0
  0
VERTEX
  5
5993
  8
0
 10
150.65131518616931
 20
96.449040550590226
 30
0.0
  0
VERTEX
  5
5994
  8
0
 10
150.51140236591061
 20
96.272901381426536
 30
0.0
  0
VERTEX
  5
5995
  8
0
 10
150.45071958310029
 20
96.163614786681478
 30
0.0
  0
VERTEX
  5
5996
  8
0
 10
150.47940635461771
 20
96.144855405838143
 30
0.0
  0
VERTEX
  5
5997
  8
0
 10
150.5698855843813
 20
96.190347376642535
 30
0.0
  0
VERTEX
  5
5998
  8
0
 10
150.7800851508232
 20
96.342542732576945
 30
0.0
  0
VERTEX
  5
5999
  8
0
 10
151.01017157165481
 20
96.532956820367417
 30
0.0
  0
SEQEND
  5
599A
  8
0
  0
LINE
  5
4F0F
  8
0
 10
151.0101715716616
 20
96.138953072407503
 30
0.0
 11
151.01017157165481
 21
96.532956820367417
 31
0.0
  0
POLYLINE
  5
4F10
  8
0
 66
     1
 10
0.0
 20
0.0
 30
0.0
 70
   128
  0
VERTEX
  5
599B
  8
0
 10
151.0101715716616
 20
96.138953072407503
 30
0.0
  0
VERTEX
  5
599C
  8
0
 10
150.65130712192041
 20
95.701005745753662
 30
0.0
  0
VERTEX
  5
599D
  8
0
 10
150.51139832943761
 20
95.4867863549307
 30
0.0
  0
VERTEX
  5
599E
  8
0
 10
150.45071928063911
 20
95.328652097421809
 30
0.0
  0
VERTEX
  5
599F
  8
0
 10
150.47940814427861
 20
95.264319311597603
 30
0.0
  0
VERTEX
  5
59A0
  8
0
 10
150.5698891346878
 20
95.267924226209274
 30
0.0
  0
VERTEX
  5
59A1
  8
0
 10
150.78009206533829
 20
95.366862369064094
 30
0.0
  0
VERTEX
  5
59A2
  8
0
 10
151.01017157165981
 20
95.520107972487438
 30
0.0
  0
SEQEND
  5
59A3
  8
0
  0
LINE
  5
4F11
  8
0
 10
151.0101715716616
 20
94.874223624460384
 30
0.0
 11
151.01017157165981
 21
95.520107972487438
 31
0.0
  0
POLYLINE
  5
4F12
  8
0
 66
     1
 10
0.0
 20
0.0
 30
0.0
 70
   128
  0
VERTEX
  5
59A4
  8
0
 10
151.0101715716616
 20
94.874223624460384
 30
0.0
  0
VERTEX
  5
59A5
  8
0
 10
150.651303010558
 20
94.406311724285146
 30
0.0
  0
VERTEX
  5
59A6
  8
0
 10
150.5113962715549
 20
94.15928483810535
 30
0.0
  0
VERTEX
  5
59A7
  8
0
 10
150.45071912646529
 20
93.956194969883583
 30
0.0
  0
VERTEX
  5
59A8
  8
0
 10
150.47940905674031
 20
93.847871952767036
 30
0.0
  0
VERTEX
  5
59A9
  8
0
 10
150.5698909448023
 20
93.809500187561085
 30
0.0
  0
VERTEX
  5
59AA
  8
0
 10
150.7800955906755
 20
93.852743181656123
 30
0.0
  0
VERTEX
  5
59AB
  8
0
 10
151.0101715716591
 20
93.965050985776315
 30
0.0
  0
SEQEND
  5
59AC
  8
0
  0
LINE
  5
4F13
  8
0
 10
151.0101715716616
 20
93.083189853897807
 30
0.0
 11
151.0101715716591
 21
93.965050985776315
 31
0.0
  0
POLYLINE
  5
4F14
  8
0
 66
     1
 10
0.0
 20
0.0
 30
0.0
 70
   128
  0
VERTEX
  5
59AD
  8
0
 10
151.0101715716616
 20
93.083189853897807
 30
0.0
  0
VERTEX
  5
59AE
  8
0
 10
150.82208099219551
 20
92.848658263268135
 30
0.0
  0
VERTEX
  5
59AF
  8
0
 10
150.6513023032274
 20
92.596839392462414
 30
0.0
  0
VERTEX
  5
59B0
  8
0
 10
150.57426295192269
 20
92.459817935688534
 30
0.0
  0
VERTEX
  5
59B1
  8
0
 10
150.511395917512
 20
92.323086016294596
 30
0.0
  0
VERTEX
  5
59B2
  8
0
 10
150.46960601087889
 20
92.19709430149004
 30
0.0
  0
VERTEX
  5
59B3
  8
0
 10
150.45071909994289
 20
92.080039584808006
 30
0.0
  0
VERTEX
  5
59B4
  8
0
 10
150.4555044263617
 20
91.998191483430105
 30
0.0
  0
VERTEX
  5
59B5
  8
0
 10
150.47940921372609
 20
91.930392574734014
 30
0.0
  0
VERTEX
  5
59B6
  8
0
 10
150.51749740147201
 20
91.883288461298818
 30
0.0
  0
VERTEX
  5
59B7
  8
0
 10
150.56989125622479
 20
91.850988211582248
 30
0.0
  0
VERTEX
  5
59B8
  8
0
 10
150.66480012731279
 20
91.830416400457807
 30
0.0
  0
VERTEX
  5
59B9
  8
0
 10
150.7800961971941
 20
91.837469921290335
 30
0.0
  0
VERTEX
  5
59BA
  8
0
 10
150.8908955199974
 20
91.863497116160488
 30
0.0
  0
VERTEX
  5
59BB
  8
0
 10
151.01017157165629
 20
91.906076524185195
 30
0.0
  0
SEQEND
  5
59BC
  8
0
  0
LINE
  5
4F15
  8
0
 10
151.0101715716616
 20
90.809952956251323
 30
0.0
 11
151.01017157165629
 21
91.906076524185195
 31
0.0
  0
POLYLINE
  5
4F16
  8
0
 66
     1
 10
0.0
 20
0.0
 30
0.0
 70
   128
  0
VERTEX
  5
59BD
  8
0
 10
151.0101715716616
 20
90.809952956251323
 30
0.0
  0
VERTEX
  5
59BE
  8
0
 10
150.82208246562701
 20
90.576349666553654
 30
0.0
  0
VERTEX
  5
59BF
  8
0
 10
150.65130490973951
 20
90.317145079160696
 30
0.0
  0
VERTEX
  5
59C0
  8
0
 10
150.57426492062791
 20
90.171929914458474
 30
0.0
  0
VERTEX
  5
59C1
  8
0
 10
150.51139722216141
 20
90.023404716627567
 30
0.0
  0
VERTEX
  5
59C2
  8
0
 10
150.4696066832233
 20
89.882423607253656
 30
0.0
  0
VERTEX
  5
59C3
  8
0
 10
150.4507191976812
 20
89.746384667561017
 30
0.0
  0
VERTEX
  5
59C4
  8
0
 10
150.4555041464784
 20
89.646710379407125
 30
0.0
  0
VERTEX
  5
59C5
  8
0
 10
150.4794086352386
 20
89.559097328324924
 30
0.0
  0
VERTEX
  5
59C6
  8
0
 10
150.51749652634439
 20
89.492777499873867
 30
0.0
  0
VERTEX
  5
59C7
  8
0
 10
150.569890108641
 20
89.440614897874809
 30
0.0
  0
VERTEX
  5
59C8
  8
0
 10
150.664798441009
 20
89.391688106260744
 30
0.0
  0
VERTEX
  5
59C9
  8
0
 10
150.78009396218789
 20
89.370667198256356
 30
0.0
  0
VERTEX
  5
59CA
  8
0
 10
150.89089429288441
 20
89.373484496359197
 30
0.0
  0
VERTEX
  5
59CB
  8
0
 10
151.01017157166251
 20
89.393883372302923
 30
0.0
  0
SEQEND
  5
59CC
  8
0
  0
LINE
  5
4F17
  8
0
 10
151.0101715716616
 20
88.110487568381814
 30
0.0
 11
151.01017157166251
 21
89.393883372302923
 31
0.0
  0
POLYLINE
  5
4F18
  8
0
 66
     1
 10
0.0
 20
0.0
 30
0.0
 70
   128
  0
VERTEX
  5
59CD
  8
0
 10
151.0101715716616
 20
88.110487568381814
 30
0.0
  0
VERTEX
  5
59CE
  8
0
 10
150.82208600394759
 20
87.883567431480856
 30
0.0
  0
VERTEX
  5
59CF
  8
0
 10
150.65131116907821
 20
87.623363588494101
 30
0.0
  0
VERTEX
  5
59D0
  8
0
 10
150.57426964833039
 20
87.473530088937423
 30
0.0
  0
VERTEX
  5
59D1
  8
0
 10
150.51140035519381
 20
87.316868310412474
 30
0.0
  0
VERTEX
  5
59D2
  8
0
 10
150.469608297832
 20
87.164368539330781
 30
0.0
  0
VERTEX
  5
59D3
  8
0
 10
150.45071943242419
 20
87.012694169245947
 30
0.0
  0
VERTEX
  5
59D4
  8
0
 10
150.45550347440221
 20
86.89764742733496
 30
0.0
  0
VERTEX
  5
59D5
  8
0
 10
150.4794072460968
 20
86.792376881255663
 30
0.0
  0
VERTEX
  5
59D6
  8
0
 10
150.51749442486059
 20
86.708474095214456
 30
0.0
  0
VERTEX
  5
59D7
  8
0
 10
150.56988735289141
 20
86.637733239904833
 30
0.0
  0
VERTEX
  5
59D8
  8
0
 10
150.664794391599
 20
86.5616559866736
 30
0.0
  0
VERTEX
  5
59D9
  8
0
 10
150.7800885951458
 20
86.513077860838052
 30
0.0
  0
VERTEX
  5
59DA
  8
0
 10
150.89089134614079
 20
86.492614659930155
 30
0.0
  0
VERTEX
  5
59DB
  8
0
 10
151.01017157166581
 20
86.490330063019755
 30
0.0
  0
SEQEND
  5
59DC
  8
0
  0
LINE
  5
4F19
  8
0
 10
151.0101715716616
 20
85.051263487150436
 30
0.0
 11
151.01017157166581
 21
86.490330063019755
 31
0.0
  0
POLYLINE
  5
4F1A
  8
0
 66
     1
 10
0.0
 20
0.0
 30
0.0
 70
   128
  0
VERTEX
  5
59DD
  8
0
 10
151.0101715716616
 20
85.051263487150436
 30
0.0
  0
VERTEX
  5
59DE
  8
0
 10
150.65132420241321
 20
84.581830108903318
 30
0.0
  0
VERTEX
  5
59DF
  8
0
 10
150.51140687894241
 20
84.270126056207687
 30
0.0
  0
VERTEX
  5
59E0
  8
0
 10
150.4507199213563
 20
83.946285040339376
 30
0.0
  0
VERTEX
  5
59E1
  8
0
 10
150.4794043538275
 20
83.698360612489353
 30
0.0
  0
VERTEX
  5
59E2
  8
0
 10
150.56988161519109
 20
83.511362788359406
 30
0.0
  0
VERTEX
  5
59E3
  8
0
 10
150.78007742046731
 20
83.33506860046441
 30
0.0
  0
VERTEX
  5
59E4
  8
0
 10
151.01017157165509
 20
83.266911715151309
 30
0.0
  0
SEQEND
  5
59E5
  8
0
  0
LINE
  5
4F1B
  8
0
 10
151.0101715716616
 20
81.707608962419854
 30
0.0
 11
151.01017157165509
 21
83.266911715151309
 31
0.0
  0
POLYLINE
  5
4F1C
  8
0
 66
     1
 10
0.0
 20
0.0
 30
0.0
 70
   128
  0
VERTEX
  5
59E6
  8
0
 10
151.0101715716616
 20
81.707608962419854
 30
0.0
  0
VERTEX
  5
59E7
  8
0
 10
150.65132420241321
 20
81.267402200501365
 30
0.0
  0
VERTEX
  5
59E8
  8
0
 10
150.51140687894241
 20
80.958168357004183
 30
0.0
  0
VERTEX
  5
59E9
  8
0
 10
150.4507199213563
 20
80.622640677462186
 30
0.0
  0
VERTEX
  5
59EA
  8
0
 10
150.4794043538275
 20
80.353218313657464
 30
0.0
  0
VERTEX
  5
59EB
  8
0
 10
150.56988161519109
 20
80.138473150555399
 30
0.0
  0
VERTEX
  5
59EC
  8
0
 10
150.78007742046731
 20
79.914884143350662
 30
0.0
  0
VERTEX
  5
59ED
  8
0
 10
151.01017157165799
 20
79.802999586334224
 30
0.0
  0
SEQEND
  5
59EE
  8
0
  0
LINE
  5
4F1D
  8
0
 10
151.0101715716616
 20
78.161855865542066
 30
0.0
 11
151.01017157165799
 21
79.802999586334224
 31
0.0
  0
POLYLINE
  5
4F1E
  8
0
 66
     1
 10
0.0
 20
0.0
 30
0.0
 70
   128
  0
VERTEX
  5
59EF
  8
0
 10
151.0101715716616
 20
78.161855865542066
 30
0.0
  0
VERTEX
  5
59F0
  8
0
 10
150.65132420241321
 20
77.761715071393084
 30
0.0
  0
VERTEX
  5
59F1
  8
0
 10
150.51140687894241
 20
77.462565800609525
 30
0.0
  0
VERTEX
  5
59F2
  8
0
 10
150.4507199213563
 20
77.123613262416825
 30
0.0
  0
VERTEX
  5
59F3
  8
0
 10
150.4794043538275
 20
76.839327035415749
 30
0.0
  0
VERTEX
  5
59F4
  8
0
 10
150.56988161519109
 20
76.602122271955523
 30
0.0
  0
VERTEX
  5
59F5
  8
0
 10
150.78007742046731
 20
76.336743948847698
 30
0.0
  0
VERTEX
  5
59F6
  8
0
 10
151.01017157166021
 20
76.183886689245355
 30
0.0
  0
SEQEND
  5
59F7
  8
0
  0
LINE
  5
4F1F
  8
0
 10
151.0101715716616
 20
74.501312405442036
 30
0.0
 11
151.01017157166021
 21
76.183886689245355
 31
0.0
  0
LINE
  5
4F20
  8
0
 10
151.0101715716616
 20
70.816113310754645
 30
0.0
 11
151.01017157165549
 21
72.498687594558064
 31
0.0
  0
POLYLINE
  5
4F21
  8
0
 66
     1
 10
0.0
 20
0.0
 30
0.0
 70
   128
  0
VERTEX
  5
59F8
  8
0
 10
151.0101715716616
 20
70.816113310754645
 30
0.0
  0
VERTEX
  5
59F9
  8
0
 10
150.65131518616931
 20
70.524421804986616
 30
0.0
  0
VERTEX
  5
59FA
  8
0
 10
150.51140236591061
 20
70.267109540653735
 30
0.0
  0
VERTEX
  5
59FB
  8
0
 10
150.45071958310029
 20
69.946226250020914
 30
0.0
  0
VERTEX
  5
59FC
  8
0
 10
150.47940635461771
 20
69.653407980660745
 30
0.0
  0
VERTEX
  5
59FD
  8
0
 10
150.5698855843813
 20
69.389215856346709
 30
0.0
  0
VERTEX
  5
59FE
  8
0
 10
150.78008515082331
 20
69.060729846917638
 30
0.0
  0
VERTEX
  5
59FF
  8
0
 10
151.0101715716558
 20
68.838144134457934
 30
0.0
  0
SEQEND
  5
5A00
  8
0
  0
LINE
  5
4F22
  8
0
 10
151.0101715716616
 20
67.197000413665705
 30
0.0
 11
151.0101715716558
 21
68.838144134457934
 31
0.0
  0
POLYLINE
  5
4F23
  8
0
 66
     1
 10
0.0
 20
0.0
 30
0.0
 70
   128
  0
VERTEX
  5
5A01
  8
0
 10
151.0101715716616
 20
67.197000413665705
 30
0.0
  0
VERTEX
  5
5A02
  8
0
 10
150.65130712192041
 20
66.971026234355804
 30
0.0
  0
VERTEX
  5
5A03
  8
0
 10
150.51139832943761
 20
66.744435023977076
 30
0.0
  0
VERTEX
  5
5A04
  8
0
 10
150.45071928063911
 20
66.444599458741266
 30
0.0
  0
VERTEX
  5
5A05
  8
0
 10
150.47940814427861
 20
66.1583221514652
 30
0.0
  0
VERTEX
  5
5A06
  8
0
 10
150.5698891346878
 20
65.890266169664301
 30
0.0
  0
VERTEX
  5
5A07
  8
0
 10
150.78009206533829
 20
65.542014707575504
 30
0.0
  0
VERTEX
  5
5A08
  8
0
 10
151.0101715716616
 20
65.292391037580146
 30
0.0
  0
SEQEND
  5
5A09
  8
0
  0
LINE
  5
4F24
  8
0
 10
151.0101715716616
 20
63.733088284848691
 30
0.0
 11
151.0101715716616
 21
65.292391037580146
 31
0.0
  0
POLYLINE
  5
4F25
  8
0
 66
     1
 10
0.0
 20
0.0
 30
0.0
 70
   128
  0
VERTEX
  5
5A0A
  8
0
 10
151.0101715716616
 20
63.733088284848691
 30
0.0
  0
VERTEX
  5
5A0B
  8
0
 10
150.651303010558
 20
63.578402630659873
 30
0.0
  0
VERTEX
  5
5A0C
  8
0
 10
150.5113962715549
 20
63.388111567416551
 30
0.0
  0
VERTEX
  5
5A0D
  8
0
 10
150.45071912646529
 20
63.116705269119961
 30
0.0
  0
VERTEX
  5
5A0E
  8
0
 10
150.47940905674039
 20
62.84401681496518
 30
0.0
  0
VERTEX
  5
5A0F
  8
0
 10
150.5698909448023
 20
62.578696977949051
 30
0.0
  0
VERTEX
  5
5A10
  8
0
 10
150.78009559067559
 20
62.21925495225446
 30
0.0
  0
VERTEX
  5
5A11
  8
0
 10
151.0101715716591
 20
61.948736512849557
 30
0.0
  0
SEQEND
  5
5A12
  8
0
  0
LINE
  5
4F26
  8
0
 10
151.0101715716616
 20
60.509669936980288
 30
0.0
 11
151.0101715716591
 21
61.948736512849557
 31
0.0
  0
POLYLINE
  5
4F27
  8
0
 66
     1
 10
0.0
 20
0.0
 30
0.0
 70
   128
  0
VERTEX
  5
5A13
  8
0
 10
151.0101715716616
 20
60.509669936980288
 30
0.0
  0
VERTEX
  5
5A14
  8
0
 10
150.6513023032274
 20
60.430085816887697
 30
0.0
  0
VERTEX
  5
5A15
  8
0
 10
150.511395917512
 20
60.280780876643398
 30
0.0
  0
VERTEX
  5
5A16
  8
0
 10
150.4507190999428
 20
60.044486263085332
 30
0.0
  0
VERTEX
  5
5A17
  8
0
 10
150.479409213726
 20
59.792100547537473
 30
0.0
  0
VERTEX
  5
5A18
  8
0
 10
150.56989125622471
 20
59.536049857257517
 30
0.0
  0
VERTEX
  5
5A19
  8
0
 10
150.78009619719401
 20
59.174268292204488
 30
0.0
  0
VERTEX
  5
5A1A
  8
0
 10
151.0101715716531
 20
58.889512431618193
 30
0.0
  0
SEQEND
  5
5A1B
  8
0
  0
LINE
  5
4F28
  8
0
 10
151.0101715716616
 20
57.606116627697133
 30
0.0
 11
151.0101715716531
 21
58.889512431618193
 31
0.0
  0
POLYLINE
  5
4F29
  8
0
 66
     1
 10
0.0
 20
0.0
 30
0.0
 70
   128
  0
VERTEX
  5
5A1C
  8
0
 10
151.0101715716616
 20
57.606116627697133
 30
0.0
  0
VERTEX
  5
5A1D
  8
0
 10
150.65130490973951
 20
57.603595263168252
 30
0.0
  0
VERTEX
  5
5A1E
  8
0
 10
150.51139722216141
 20
57.49895384683424
 30
0.0
  0
VERTEX
  5
5A1F
  8
0
 10
150.4507191976812
 20
57.303589576226727
 30
0.0
  0
VERTEX
  5
5A20
  8
0
 10
150.4794086352386
 20
57.07772109961013
 30
0.0
  0
VERTEX
  5
5A21
  8
0
 10
150.569890108641
 20
56.837244655148822
 30
0.0
  0
VERTEX
  5
5A22
  8
0
 10
150.78009396218789
 20
56.482032708243082
 30
0.0
  0
VERTEX
  5
5A23
  8
0
 10
151.01017157166879
 20
56.190047043748677
 30
0.0
  0
SEQEND
  5
5A24
  8
0
  0
LINE
  5
4F2A
  8
0
 10
151.0101715716616
 20
55.093923475814812
 30
0.0
 11
151.01017157166879
 21
56.190047043748677
 31
0.0
  0
POLYLINE
  5
4F2B
  8
0
 66
     1
 10
0.0
 20
0.0
 30
0.0
 70
   128
  0
VERTEX
  5
5A25
  8
0
 10
151.0101715716616
 20
55.093923475814812
 30
0.0
  0
VERTEX
  5
5A26
  8
0
 10
150.65131116907821
 20
55.168525896308211
 30
0.0
  0
VERTEX
  5
5A27
  8
0
 10
150.51140035519381
 20
55.111126308413731
 30
0.0
  0
VERTEX
  5
5A28
  8
0
 10
150.45071943242419
 20
54.961504040500813
 30
0.0
  0
VERTEX
  5
5A29
  8
0
 10
150.47940724609691
 20
54.767714920106208
 30
0.0
  0
VERTEX
  5
5A2A
  8
0
 10
150.56988735289141
 20
54.548734680021987
 30
0.0
  0
VERTEX
  5
5A2B
  8
0
 10
150.78008859514591
 20
54.208840292309787
 30
0.0
  0
VERTEX
  5
5A2C
  8
0
 10
151.0101715716593
 20
53.916810146102222
 30
0.0
  0
SEQEND
  5
5A2D
  8
0
  0
LINE
  5
4F2C
  8
0
 10
151.0101715716616
 20
53.034949014223628
 30
0.0
 11
151.0101715716593
 21
53.916810146102222
 31
0.0
  0
POLYLINE
  5
4F2D
  8
0
 66
     1
 10
0.0
 20
0.0
 30
0.0
 70
   128
  0
VERTEX
  5
5A2E
  8
0
 10
151.0101715716616
 20
53.034949014223628
 30
0.0
  0
VERTEX
  5
5A2F
  8
0
 10
150.65132420241321
 20
53.184833583818538
 30
0.0
  0
VERTEX
  5
5A30
  8
0
 10
150.51140687894241
 20
53.176092639595531
 30
0.0
  0
VERTEX
  5
5A31
  8
0
 10
150.4507199213563
 20
53.075899348057931
 30
0.0
  0
VERTEX
  5
5A32
  8
0
 10
150.47940435382759
 20
52.918962722473047
 30
0.0
  0
VERTEX
  5
5A33
  8
0
 10
150.56988161519109
 20
52.726872108141443
 30
0.0
  0
VERTEX
  5
5A34
  8
0
 10
150.78007742046731
 20
52.410667534593607
 30
0.0
  0
VERTEX
  5
5A35
  8
0
 10
151.0101715716624
 20
52.125776375539601
 30
0.0
  0
SEQEND
  5
5A36
  8
0
  0
LINE
  5
4F2E
  8
0
 10
151.0101715716616
 20
51.479892027512527
 30
0.0
 11
151.0101715716624
 21
52.125776375539601
 31
0.0
  0
POLYLINE
  5
4F2F
  8
0
 66
     1
 10
0.0
 20
0.0
 30
0.0
 70
   128
  0
VERTEX
  5
5A37
  8
0
 10
151.0101715716616
 20
51.479892027512527
 30
0.0
  0
VERTEX
  5
5A38
  8
0
 10
150.65132420241321
 20
51.701366828734649
 30
0.0
  0
VERTEX
  5
5A39
  8
0
 10
150.51140687894241
 20
51.741494756774102
 30
0.0
  0
VERTEX
  5
5A3A
  8
0
 10
150.4507199213563
 20
51.693194906992012
 30
0.0
  0
VERTEX
  5
5A3B
  8
0
 10
150.47940435382759
 20
51.576974356930627
 30
0.0
  0
VERTEX
  5
5A3C
  8
0
 10
150.56988161519109
 20
51.416501601398998
 30
0.0
  0
VERTEX
  5
5A3D
  8
0
 10
150.78007742046731
 20
51.131768517835887
 30
0.0
  0
VERTEX
  5
5A3E
  8
0
 10
151.0101715716585
 20
50.861046927592469
 30
0.0
  0
SEQEND
  5
5A3F
  8
0
  0
LINE
  5
4F30
  8
0
 10
151.0101715716616
 20
50.467043179632547
 30
0.0
 11
151.0101715716585
 21
50.861046927592469
 31
0.0
  0
POLYLINE
  5
4F31
  8
0
 66
     1
 10
0.0
 20
0.0
 30
0.0
 70
   128
  0
VERTEX
  5
5A40
  8
0
 10
151.0101715716616
 20
50.467043179632547
 30
0.0
  0
VERTEX
  5
5A41
  8
0
 10
150.65132420241321
 20
50.754654767843107
 30
0.0
  0
VERTEX
  5
5A42
  8
0
 10
150.51140687894241
 20
50.842663485379717
 30
0.0
  0
VERTEX
  5
5A43
  8
0
 10
150.4507199213563
 20
50.847446379952679
 30
0.0
  0
VERTEX
  5
5A44
  8
0
 10
150.47940435382759
 20
50.774803641071202
 30
0.0
  0
VERTEX
  5
5A45
  8
0
 10
150.56988161519109
 20
50.649900116159301
 30
0.0
  0
VERTEX
  5
5A46
  8
0
 10
150.78007742046731
 20
50.403649596073357
 30
0.0
  0
VERTEX
  5
5A47
  8
0
 10
151.0101715716616
 20
50.153763638665623
 30
0.0
  0
SEQEND
  5
5A48
  8
0
  0
LINE
  5
4F32
  8
0
 10
151.0101715716616
 20
50.021342170671119
 30
0.0
 11
151.0101715716616
 21
50.153763638665623
 31
0.0
  0
POLYLINE
  5
4F33
  8
0
 66
     1
 10
0.0
 20
0.0
 30
0.0
 70
   128
  0
VERTEX
  5
5A49
  8
0
 10
151.0101715716616
 20
50.021342170671119
 30
0.0
  0
VERTEX
  5
5A4A
  8
0
 10
150.822093371465
 20
50.203701367022603
 30
0.0
  0
VERTEX
  5
5A4B
  8
0
 10
150.65132420241321
 20
50.368008594040163
 30
0.0
  0
VERTEX
  5
5A4C
  8
0
 10
150.51140687894241
 20
50.501731034364013
 30
0.0
  0
VERTEX
  5
5A4D
  8
0
 10
150.45071054698619
 20
50.559461024675358
 30
0.0
  0
SEQEND
  5
5A4E
  8
0
  0
ARC
  5
4F34
  8
0
 10
108.7903537804812
 20
140.3270298754162
 30
0.0
 40
60.511109503678789
 50
313.5138904283242
 51
314.24437285601829
  0
LINE
  5
4F35
  8
0
 10
150.0101715716616
 20
51.000000000000028
 30
0.0
 11
150.0101715716616
 21
96.0
 31
0.0
  0
LINE
  5
4F36
  8
0
 10
176.0101715716616
 20
50.500000000000028
 30
0.0
 11
176.0101715716616
 21
96.499999999999943
 31
0.0
  0
LINE
  5
4F37
  8
0
 10
151.01017157166021
 20
76.183886689245355
 30
0.0
 11
169.0101715716616
 21
76.183886689245355
 31
0.0
  0
LINE
  5
4F38
  8
0
 10
169.0101715716616
 20
76.183886689245355
 30
0.0
 11
169.0101715716616
 21
78.161855865542066
 31
0.0
  0
LINE
  5
4F39
  8
0
 10
151.0101715716616
 20
78.161855865542066
 30
0.0
 11
169.0101715716616
 21
78.161855865542066
 31
0.0
  0
LINE
  5
4F3A
  8
0
 10
151.01017157165799
 20
79.802999586334224
 30
0.0
 11
169.0101715716616
 21
79.802999586334224
 31
0.0
  0
LINE
  5
4F3B
  8
0
 10
169.0101715716616
 20
79.802999586334224
 30
0.0
 11
169.0101715716616
 21
81.707608962419854
 31
0.0
  0
LINE
  5
4F3C
  8
0
 10
151.0101715716616
 20
81.707608962419854
 30
0.0
 11
169.0101715716616
 21
81.707608962419854
 31
0.0
  0
LINE
  5
4F3D
  8
0
 10
151.01017157165509
 20
83.266911715151309
 30
0.0
 11
169.0101715716616
 21
83.266911715151309
 31
0.0
  0
LINE
  5
4F3E
  8
0
 10
169.0101715716616
 20
83.266911715151309
 30
0.0
 11
169.0101715716616
 21
85.051263487150436
 31
0.0
  0
LINE
  5
4F3F
  8
0
 10
151.0101715716616
 20
85.051263487150436
 30
0.0
 11
169.0101715716616
 21
85.051263487150436
 31
0.0
  0
LINE
  5
4F40
  8
0
 10
151.01017157166581
 20
86.490330063019755
 30
0.0
 11
169.0101715716616
 21
86.490330063019755
 31
0.0
  0
LINE
  5
4F41
  8
0
 10
169.0101715716616
 20
86.490330063019755
 30
0.0
 11
169.0101715716616
 21
88.110487568381814
 31
0.0
  0
LINE
  5
4F42
  8
0
 10
151.0101715716616
 20
88.110487568381814
 30
0.0
 11
169.0101715716616
 21
88.110487568381814
 31
0.0
  0
LINE
  5
4F43
  8
0
 10
151.01017157166251
 20
89.393883372302923
 30
0.0
 11
169.0101715716616
 21
89.393883372302923
 31
0.0
  0
LINE
  5
4F44
  8
0
 10
169.0101715716616
 20
89.393883372302923
 30
0.0
 11
169.0101715716616
 21
90.809952956251323
 31
0.0
  0
LINE
  5
4F45
  8
0
 10
151.0101715716616
 20
90.809952956251323
 30
0.0
 11
169.0101715716616
 21
90.809952956251323
 31
0.0
  0
LINE
  5
4F46
  8
0
 10
151.01017157165629
 20
91.906076524185195
 30
0.0
 11
169.0101715716616
 21
91.906076524185195
 31
0.0
  0
LINE
  5
4F47
  8
0
 10
169.0101715716616
 20
91.906076524185195
 30
0.0
 11
169.0101715716616
 21
93.083189853897807
 31
0.0
  0
LINE
  5
4F48
  8
0
 10
151.0101715716616
 20
93.083189853897807
 30
0.0
 11
169.0101715716616
 21
93.083189853897807
 31
0.0
  0
LINE
  5
4F49
  8
0
 10
151.0101715716591
 20
93.965050985776315
 30
0.0
 11
169.0101715716616
 21
93.965050985776315
 31
0.0
  0
LINE
  5
4F4A
  8
0
 10
169.0101715716616
 20
93.965050985776315
 30
0.0
 11
169.0101715716616
 21
94.874223624460384
 31
0.0
  0
LINE
  5
4F4B
  8
0
 10
151.0101715716616
 20
94.874223624460384
 30
0.0
 11
169.0101715716616
 21
94.874223624460384
 31
0.0
  0
LINE
  5
4F4C
  8
0
 10
151.01017157165981
 20
95.520107972487438
 30
0.0
 11
169.0101715716616
 21
95.520107972487438
 31
0.0
  0
LINE
  5
4F4D
  8
0
 10
169.0101715716616
 20
95.520107972487438
 30
0.0
 11
169.0101715716616
 21
96.138953072407503
 31
0.0
  0
LINE
  5
4F4E
  8
0
 10
151.0101715716616
 20
96.138953072407503
 30
0.0
 11
169.0101715716616
 21
96.138953072407503
 31
0.0
  0
LINE
  5
4F4F
  8
0
 10
151.01017157165481
 20
96.532956820367417
 30
0.0
 11
169.0101715716616
 21
96.532956820367417
 31
0.0
  0
LINE
  5
4F50
  8
0
 10
169.0101715716616
 20
96.532956820367417
 30
0.0
 11
169.0101715716616
 21
96.846236361334377
 31
0.0
  0
LINE
  5
4F51
  8
0
 10
151.0101715716616
 20
96.846236361334377
 30
0.0
 11
169.0101715716616
 21
96.846236361334377
 31
0.0
  0
LINE
  5
4F52
  8
0
 10
151.0101715716583
 20
96.978657829328881
 30
0.0
 11
169.0101715716616
 21
96.978657829328881
 31
0.0
  0
LINE
  5
4F53
  8
0
 10
169.0101715716616
 20
96.978657829328881
 30
0.0
 11
169.0101715716616
 21
97.0
 31
0.0
  0
LINE
  5
4F54
  8
0
 10
169.0101715716616
 20
50.000000000000028
 30
0.0
 11
169.0101715716616
 21
50.021342170671119
 31
0.0
  0
LINE
  5
4F55
  8
0
 10
151.0101715716616
 20
50.021342170671119
 30
0.0
 11
169.0101715716616
 21
50.021342170671119
 31
0.0
  0
LINE
  5
4F56
  8
0
 10
151.0101715716616
 20
50.153763638665623
 30
0.0
 11
169.0101715716616
 21
50.153763638665623
 31
0.0
  0
LINE
  5
4F57
  8
0
 10
169.0101715716616
 20
50.153763638665623
 30
0.0
 11
169.0101715716616
 21
50.467043179632547
 31
0.0
  0
LINE
  5
4F58
  8
0
 10
151.0101715716616
 20
50.467043179632547
 30
0.0
 11
169.0101715716616
 21
50.467043179632547
 31
0.0
  0
LINE
  5
4F59
  8
0
 10
151.0101715716585
 20
50.861046927592469
 30
0.0
 11
169.0101715716616
 21
50.861046927592469
 31
0.0
  0
LINE
  5
4F5A
  8
0
 10
169.0101715716616
 20
50.861046927592469
 30
0.0
 11
169.0101715716616
 21
51.479892027512527
 31
0.0
  0
LINE
  5
4F5B
  8
0
 10
151.0101715716616
 20
51.479892027512527
 30
0.0
 11
169.0101715716616
 21
51.479892027512527
 31
0.0
  0
LINE
  5
4F5C
  8
0
 10
151.0101715716624
 20
52.125776375539601
 30
0.0
 11
169.0101715716616
 21
52.125776375539601
 31
0.0
  0
LINE
  5
4F5D
  8
0
 10
169.0101715716616
 20
52.125776375539601
 30
0.0
 11
169.0101715716616
 21
53.034949014223628
 31
0.0
  0
LINE
  5
4F5E
  8
0
 10
151.0101715716616
 20
53.034949014223628
 30
0.0
 11
169.0101715716616
 21
53.034949014223628
 31
0.0
  0
LINE
  5
4F5F
  8
0
 10
151.0101715716593
 20
53.916810146102222
 30
0.0
 11
169.0101715716616
 21
53.916810146102222
 31
0.0
  0
LINE
  5
4F60
  8
0
 10
169.0101715716616
 20
53.916810146102222
 30
0.0
 11
169.0101715716616
 21
55.093923475814812
 31
0.0
  0
LINE
  5
4F61
  8
0
 10
151.0101715716616
 20
55.093923475814812
 30
0.0
 11
169.0101715716616
 21
55.093923475814812
 31
0.0
  0
LINE
  5
4F62
  8
0
 10
151.01017157166879
 20
56.190047043748677
 30
0.0
 11
169.0101715716616
 21
56.190047043748677
 31
0.0
  0
LINE
  5
4F63
  8
0
 10
169.0101715716616
 20
56.190047043748677
 30
0.0
 11
169.0101715716616
 21
57.606116627697133
 31
0.0
  0
LINE
  5
4F64
  8
0
 10
151.0101715716616
 20
57.606116627697133
 30
0.0
 11
169.0101715716616
 21
57.606116627697133
 31
0.0
  0
LINE
  5
4F65
  8
0
 10
151.0101715716531
 20
58.889512431618193
 30
0.0
 11
169.0101715716616
 21
58.889512431618193
 31
0.0
  0
LINE
  5
4F66
  8
0
 10
169.0101715716616
 20
58.889512431618193
 30
0.0
 11
169.0101715716616
 21
60.509669936980288
 31
0.0
  0
LINE
  5
4F67
  8
0
 10
151.0101715716616
 20
60.509669936980288
 30
0.0
 11
169.0101715716616
 21
60.509669936980288
 31
0.0
  0
LINE
  5
4F68
  8
0
 10
151.0101715716591
 20
61.948736512849557
 30
0.0
 11
169.0101715716616
 21
61.948736512849557
 31
0.0
  0
LINE
  5
4F69
  8
0
 10
169.0101715716616
 20
61.948736512849557
 30
0.0
 11
169.0101715716616
 21
63.733088284848691
 31
0.0
  0
LINE
  5
4F6A
  8
0
 10
151.0101715716616
 20
63.733088284848691
 30
0.0
 11
169.0101715716616
 21
63.733088284848691
 31
0.0
  0
LINE
  5
4F6B
  8
0
 10
151.0101715716616
 20
65.292391037580146
 30
0.0
 11
169.0101715716616
 21
65.292391037580146
 31
0.0
  0
LINE
  5
4F6C
  8
0
 10
169.0101715716616
 20
65.292391037580146
 30
0.0
 11
169.0101715716616
 21
67.197000413665705
 31
0.0
  0
LINE
  5
4F6D
  8
0
 10
151.0101715716616
 20
67.197000413665705
 30
0.0
 11
169.0101715716616
 21
67.197000413665705
 31
0.0
  0
LINE
  5
4F6E
  8
0
 10
151.0101715716558
 20
68.838144134457934
 30
0.0
 11
169.0101715716616
 21
68.838144134457934
 31
0.0
  0
LINE
  5
4F6F
  8
0
 10
169.0101715716616
 20
68.838144134457934
 30
0.0
 11
169.0101715716616
 21
70.816113310754645
 31
0.0
  0
LINE
  5
4F70
  8
0
 10
151.0101715716616
 20
70.816113310754645
 30
0.0
 11
169.0101715716616
 21
70.816113310754645
 31
0.0
  0
LINE
  5
4F71
  8
0
 10
169.0101715716616
 20
72.498687594558064
 30
0.0
 11
169.0101715716616
 21
74.501312405442036
 31
0.0
  0
LINE
  5
4F72
  8
0
 10
190.71017157166159
 20
54.5
 30
0.0
 11
190.71017157166159
 21
92.499999997080806
 31
0.0
  0
CIRCLE
  5
4F73
  8
0
 10
73.5
 20
73.5
 30
0.0
 40
21.499999999999989
  0
ARC
  5
4F74
  8
0
 10
77.27632798607118
 20
97.342796541966621
 30
0.0
 40
1.200000000000021
 50
204.44377894862669
 51
317.55622105137178
  0
ARC
  5
4F75
  8
0
 10
80.959670244211281
 20
96.458504303364975
 30
0.0
 40
1.200000000000069
 50
195.44377894862831
 51
308.5562210513703
  0
ARC
  5
4F76
  8
0
 10
84.459330663712578
 20
95.008897493907114
 30
0.0
 40
1.199999999999944
 50
186.44377894862441
 51
299.55622105137411
  0
ARC
  5
4F77
  8
0
 10
87.68913599034039
 20
93.029670244211275
 30
0.0
 40
1.200000000000047
 50
177.44377894863439
 51
290.55622105136661
  0
ARC
  5
4F78
  8
0
 10
90.569557697843209
 20
90.569557697843265
 30
0.0
 40
1.1999999999999591
 50
168.44377894862879
 51
281.55622105137269
  0
ARC
  5
4F79
  8
0
 10
93.029670244211204
 20
87.689135990340276
 30
0.0
 40
1.1999999999999811
 50
159.44377894862791
 51
272.55622105137212
  0
ARC
  5
4F7A
  8
0
 10
95.008897493907213
 20
84.459330663712649
 30
0.0
 40
1.2000000000000031
 50
150.44377894862819
 51
263.55622105137058
  0
ARC
  5
4F7B
  8
0
 10
96.458504303365032
 20
80.959670244211225
 30
0.0
 40
1.2000000000000419
 50
141.4437789486316
 51
254.55622105137181
  0
ARC
  5
4F7C
  8
0
 10
97.34279654196672
 20
77.276327986071124
 30
0.0
 40
1.2000000000000739
 50
132.44377894863399
 51
245.556221051368
  0
ARC
  5
4F7D
  8
0
 10
97.640000000000043
 20
73.5
 30
0.0
 40
1.200000000000035
 50
123.44377894863609
 51
236.55622105136391
  0
ARC
  5
4F7E
  8
0
 10
97.342796541966621
 20
69.723672013928763
 30
0.0
 40
1.1999999999999871
 50
114.4437789486319
 51
227.55622105137039
  0
ARC
  5
4F7F
  8
0
 10
96.458504303365032
 20
66.040329755788775
 30
0.0
 40
1.2000000000000011
 50
105.4437789486315
 51
218.5562210513705
  0
ARC
  5
4F80
  8
0
 10
95.008897493907114
 20
62.540669336287351
 30
0.0
 40
1.1999999999999471
 50
96.443778948622864
 51
209.556221051374
  0
ARC
  5
4F81
  8
0
 10
93.029670244211204
 20
59.310864009659717
 30
0.0
 40
1.1999999999999591
 50
87.443778948627937
 51
200.5562210513736
  0
ARC
  5
4F82
  8
0
 10
90.569557697843322
 20
56.430442302156727
 30
0.0
 40
1.1999999999999951
 50
78.443778948633991
 51
191.55622105137101
  0
ARC
  5
4F83
  8
0
 10
87.68913599034039
 20
53.970329755788697
 30
0.0
 40
1.2000000000000199
 50
69.44377894863338
 51
182.55622105136709
  0
ARC
  5
4F84
  8
0
 10
84.459330663712578
 20
51.991102506092737
 30
0.0
 40
1.2000000000000159
 50
60.443778948627802
 51
173.5562210513705
  0
ARC
  5
4F85
  8
0
 10
80.959670244211168
 20
50.541495696634932
 30
0.0
 40
1.199999999999988
 50
51.443778948629657
 51
164.55622105137161
  0
ARC
  5
4F86
  8
0
 10
77.27632798607118
 20
49.657203458033329
 30
0.0
 40
1.2000000000000131
 50
42.44377894863058
 51
155.55622105137161
  0
ARC
  5
4F87
  8
0
 10
73.500000000000057
 20
49.36000000000039
 30
0.0
 40
1.1999999999998161
 50
33.443778948616902
 51
146.5562210513867
  0
ARC
  5
4F88
  8
0
 10
69.72367201392882
 20
49.657203458033422
 30
0.0
 40
1.199999999999952
 50
24.443778948626768
 51
137.5562210513738
  0
ARC
  5
4F89
  8
0
 10
66.040329755788832
 20
50.541495696635081
 30
0.0
 40
1.199999999999902
 50
15.44377894862634
 51
128.5562210513786
  0
ARC
  5
4F8A
  8
0
 10
62.540669336287237
 20
51.991102506092737
 30
0.0
 40
1.200000000000023
 50
6.443778948629479
 51
119.5562210513684
  0
ARC
  5
4F8B
  8
0
 10
59.31086400965961
 20
53.970329755788782
 30
0.0
 40
1.200000000000033
 50
357.44377894862959
 51
110.5562210513736
  0
ARC
  5
4F8C
  8
0
 10
56.430442302156557
 20
56.430442302156678
 30
0.0
 40
1.200000000000109
 50
348.44377894863408
 51
101.55622105136599
  0
ARC
  5
4F8D
  8
0
 10
53.970329755788661
 20
59.31086400965966
 30
0.0
 40
1.2000000000000091
 50
339.44377894863158
 51
92.556221051368766
  0
ARC
  5
4F8E
  8
0
 10
51.991102506092652
 20
62.540669336287287
 30
0.0
 40
1.200000000000071
 50
330.44377894863533
 51
83.556221051367288
  0
ARC
  5
4F8F
  8
0
 10
50.541495696634968
 20
66.040329755788719
 30
0.0
 40
1.2000000000000079
 50
321.44377894863169
 51
74.556221051368453
  0
ARC
  5
4F90
  8
0
 10
49.657203458033393
 20
69.723672013928933
 30
0.0
 40
1.2000000000000539
 50
312.44377894862572
 51
65.556221051375189
  0
ARC
  5
4F91
  8
0
 10
49.359999999999843
 20
73.5
 30
0.0
 40
1.2000000000000819
 50
303.44377894863811
 51
56.556221051363892
  0
ARC
  5
4F92
  8
0
 10
49.657203458033393
 20
77.276327986071237
 30
0.0
 40
1.2000000000000819
 50
294.44377894862839
 51
47.556221051370471
  0
ARC
  5
4F93
  8
0
 10
50.541495696635081
 20
80.959670244211324
 30
0.0
 40
1.2000000000000539
 50
285.44377894862481
 51
38.556221051374152
  0
ARC
  5
4F94
  8
0
 10
51.991102506092652
 20
84.459330663712763
 30
0.0
 40
1.200000000000075
 50
276.44377894863271
 51
29.556221051364659
  0
ARC
  5
4F95
  8
0
 10
53.970329755788889
 20
87.689135990340347
 30
0.0
 40
1.2000000000000139
 50
267.4437789486247
 51
20.5562210513773
  0
ARC
  5
4F96
  8
0
 10
56.430442302156791
 20
90.569557697843265
 30
0.0
 40
1.200000000000059
 50
258.44377894862731
 51
11.55622105137614
  0
ARC
  5
4F97
  8
0
 10
59.310864009659717
 20
93.029670244211275
 30
0.0
 40
1.2000000000000199
 50
249.4437789486264
 51
2.5562210513720571
  0
ARC
  5
4F98
  8
0
 10
62.540669336287408
 20
95.00889749390717
 30
0.0
 40
1.1999999999999791
 50
240.44377894862589
 51
353.55622105137388
  0
ARC
  5
4F99
  8
0
 10
66.040329755788719
 20
96.458504303365075
 30
0.0
 40
1.200000000000081
 50
231.44377894863391
 51
344.55622105136689
  0
ARC
  5
4F9A
  8
0
 10
69.72367201392882
 20
97.342796541966663
 30
0.0
 40
1.2000000000000559
 50
222.4437789486316
 51
335.55622105136939
  0
ARC
  5
4F9B
  8
0
 10
73.500000000000057
 20
97.639999999999645
 30
0.0
 40
1.199999999999855
 50
213.44377894861441
 51
326.55622105138531
  0
CIRCLE
  5
4F9C
  8
0
 10
73.5
 20
73.5
 30
0.0
 40
23.5
  0
LINE
  5
4F9D
  8
1
 10
73.5
 20
102.0
 30
0.0
 11
73.5
 21
45.0
 31
0.0
  0
LINE
  5
4F9E
  8
1
 10
45.0
 20
73.5
 30
0.0
 11
102.0
 21
73.5
 31
0.0
  0
LINE
  5
4F9F
  8
1
 10
142.0
 20
73.5
 30
0.0
 11
236.0101715716616
 21
73.5
 31
0.0
  0
LINE
  5
50AA
  8
0
 10
191.0101715716616
 20
69.5
 30
0.0
 11
230.24317157166161
 21
69.5
 31
0.0
  0
LINE
  5
50AB
  8
0
 10
230.24317157166161
 20
77.5
 30
0.0
 11
191.0101715716616
 21
77.5
 31
0.0
  0
LINE
  5
50AC
  8
0
 10
230.24317157166161
 20
69.5
 30
0.0
 11
231.0101715716616
 21
70.266999999999996
 31
0.0
  0
LINE
  5
50AD
  8
0
 10
231.0101715716616
 20
76.733000000000004
 30
0.0
 11
230.24317157166161
 21
77.5
 31
0.0
  0
LINE
  5
5118
  8
0
 10
230.24317157166161
 20
69.5
 30
0.0
 11
230.24317157166161
 21
77.5
 31
0.0
  0
LINE
  5
5119
  8
0
 10
231.0101715716616
 20
70.266999999999996
 30
0.0
 11
231.0101715716616
 21
76.733000000000004
 31
0.0
  0
LINE
  5
5321
  8
3
 10
230.9196715716615
 20
76.823500000000124
 30
0.0
 11
193.0101715716616
 21
76.823500000000124
 31
0.0
  0
LINE
  5
5322
  8
3
 10
230.91967157166161
 20
70.176499999999947
 30
0.0
 11
193.0101715716616
 21
70.176499999999862
 31
0.0
  0
LINE
  5
5325
  8
0
 10
193.0101715716616
 20
69.5
 30
0.0
 11
193.0101715716616
 21
77.5
 31
0.0
  0
LINE
  5
5326
  8
3
 10
193.0101715716616
 20
70.176499999999862
 30
0.0
 11
192.07226605936319
 21
69.5
 31
0.0
  0
LINE
  5
5327
  8
3
 10
192.07226605936319
 20
77.5
 30
0.0
 11
193.0101715716616
 21
76.823500000000124
 31
0.0
  0
ENDSEC
  0
EOF
