  0
SECTION
  2
HEADER
  9
$ACADVER
  1
AC1009
  9
$INSBASE
 10
0.0
 20
0.0
 30
0.0
  9
$EXTMIN
 10
-0.0204638472032742
 20
-2.960436562073669
 30
0.0
  9
$EXTMAX
 10
209.743926391331
 20
169.98760609152399
 30
0.0
  9
$LIMMIN
 10
0.0
 20
0.0
  9
$LIMMAX
 10
420.0
 20
297.0
  9
$ORTHOMODE
 70
     1
  9
$REGENMODE
 70
     1
  9
$FILLMODE
 70
     1
  9
$QTEXTMODE
 70
     0
  9
$MIRRTEXT
 70
     0
  9
$DRAGMODE
 70
     2
  9
$LTSCALE
 40
1.0
  9
$OSMODE
 70
  3071
  9
$ATTMODE
 70
     1
  9
$TEXTSIZE
 40
2.5
  9
$TRACEWID
 40
1.0
  9
$TEXTSTYLE
  7
STANDARD
  9
$CLAYER
  8
0
  9
$CELTYPE
  6
BYLAYER
  9
$CECOLOR
 62
   256
  9
$DIMSCALE
 40
1.0
  9
$DIMASZ
 40
2.5
  9
$DIMEXO
 40
0.625
  9
$DIMDLI
 40
3.75
  9
$DIMRND
 40
0.0
  9
$DIMDLE
 40
0.0
  9
$DIMEXE
 40
1.25
  9
$DIMTP
 40
0.0
  9
$DIMTM
 40
0.0
  9
$DIMTXT
 40
2.5
  9
$DIMCEN
 40
2.5
  9
$DIMTSZ
 40
0.0
  9
$DIMTOL
 70
     0
  9
$DIMLIM
 70
     0
  9
$DIMTIH
 70
     0
  9
$DIMTOH
 70
     0
  9
$DIMSE1
 70
     0
  9
$DIMSE2
 70
     0
  9
$DIMTAD
 70
     1
  9
$DIMZIN
 70
     8
  9
$DIMBLK
  1

  9
$DIMASO
 70
     1
  9
$DIMSHO
 70
     1
  9
$DIMPOST
  1

  9
$DIMAPOST
  1

  9
$DIMALT
 70
     0
  9
$DIMALTD
 70
     3
  9
$DIMALTF
 40
0.03937007874016
  9
$DIMLFAC
 40
1.0
  9
$DIMTOFL
 70
     1
  9
$DIMTVP
 40
0.0
  9
$DIMTIX
 70
     0
  9
$DIMSOXD
 70
     0
  9
$DIMSAH
 70
     0
  9
$DIMBLK1
  1

  9
$DIMBLK2
  1

  9
$DIMSTYLE
  2
ISO-25
  9
$DIMCLRD
 70
     0
  9
$DIMCLRE
 70
     0
  9
$DIMCLRT
 70
     0
  9
$DIMTFAC
 40
1.0
  9
$DIMGAP
 40
0.625
  9
$LUNITS
 70
     2
  9
$LUPREC
 70
     4
  9
$SKETCHINC
 40
1.0
  9
$FILLETRAD
 40
0.0
  9
$AUNITS
 70
     0
  9
$AUPREC
 70
     0
  9
$MENU
  1
.
  9
$ELEVATION
 40
0.0
  9
$PELEVATION
 40
0.0
  9
$THICKNESS
 40
0.0
  9
$LIMCHECK
 70
     0
  9
$BLIPMODE
 70
     0
  9
$CHAMFERA
 40
0.0
  9
$CHAMFERB
 40
0.0
  9
$SKPOLY
 70
     0
  9
$TDCREATE
 40
2454979.4917406249
  9
$TDUPDATE
 40
2456597.56482419
  9
$TDINDWG
 40
0.1114257639
  9
$TDUSRTIMER
 40
0.1114255903
  9
$USRTIMER
 70
     1
  9
$ANGBASE
 50
0.0
  9
$ANGDIR
 70
     0
  9
$PDMODE
 70
     0
  9
$PDSIZE
 40
0.0
  9
$PLINEWID
 40
0.0
  9
$COORDS
 70
     1
  9
$SPLFRAME
 70
     0
  9
$SPLINETYPE
 70
     6
  9
$SPLINESEGS
 70
     8
  9
$ATTDIA
 70
     0
  9
$ATTREQ
 70
     1
  9
$HANDLING
 70
     1
  9
$HANDSEED
  5
16E3
  9
$SURFTAB1
 70
     6
  9
$SURFTAB2
 70
     6
  9
$SURFTYPE
 70
     6
  9
$SURFU
 70
     6
  9
$SURFV
 70
     6
  9
$UCSNAME
  2

  9
$UCSORG
 10
0.0
 20
0.0
 30
0.0
  9
$UCSXDIR
 10
1.0
 20
0.0
 30
0.0
  9
$UCSYDIR
 10
0.0
 20
1.0
 30
0.0
  9
$PUCSNAME
  2

  9
$PUCSORG
 10
0.0
 20
0.0
 30
0.0
  9
$PUCSXDIR
 10
1.0
 20
0.0
 30
0.0
  9
$PUCSYDIR
 10
0.0
 20
1.0
 30
0.0
  9
$USERI1
 70
     0
  9
$USERI2
 70
     0
  9
$USERI3
 70
     0
  9
$USERI4
 70
     0
  9
$USERI5
 70
     0
  9
$USERR1
 40
0.0
  9
$USERR2
 40
0.0
  9
$USERR3
 40
0.0
  9
$USERR4
 40
0.0
  9
$USERR5
 40
0.0
  9
$WORLDVIEW
 70
     1
  9
$SHADEDGE
 70
     3
  9
$SHADEDIF
 70
    70
  9
$TILEMODE
 70
     1
  9
$MAXACTVP
 70
    64
  9
$PLIMCHECK
 70
     0
  9
$PEXTMIN
 10
0.0
 20
0.0
 30
0.0
  9
$PEXTMAX
 10
0.0
 20
0.0
 30
0.0
  9
$PLIMMIN
 10
0.0
 20
0.0
  9
$PLIMMAX
 10
12.0
 20
9.0
  9
$UNITMODE
 70
     0
  9
$VISRETAIN
 70
     1
  9
$PLINEGEN
 70
     0
  9
$PSLTSCALE
 70
     1
  0
ENDSEC
  0
SECTION
  2
TABLES
  0
TABLE
  2
VPORT
 70
     1
  0
VPORT
  2
*ACTIVE
 70
     0
 10
0.0
 20
0.0
 11
1.0
 21
1.0
 12
218.28962076239009
 22
147.0112842185321
 13
0.0
 23
0.0
 14
10.0
 24
10.0
 15
10.0
 25
10.0
 16
0.0
 26
0.0
 36
1.0
 17
0.0
 27
0.0
 37
0.0
 40
302.66781211506969
 41
1.831871345029239
 42
50.0
 43
0.0
 44
0.0
 50
0.0
 51
0.0
 71
     0
 72
  1000
 73
     1
 74
     3
 75
     0
 76
     0
 77
     0
 78
     0
  0
ENDTAB
  0
TABLE
  2
LTYPE
 70
     4
  0
LTYPE
  2
CONTINUOUS
 70
     0
  3
Solid line
 72
    65
 73
     0
 40
0.0
  0
LTYPE
  2
CENTER
 70
     0
  3
____ _ ____ _ ____ _ ____ _ ____ _ ____ _ ____
 72
    65
 73
     4
 40
2.0
 49
1.25
 49
-0.25
 49
0.25
 49
-0.25
  0
LTYPE
  2
PHANTOM
 70
     0
  3
_____ _ _ _____ _ _ _____ _ _ _____ _ _ ____
 72
    65
 73
     6
 40
2.5
 49
1.25
 49
-0.25
 49
0.25
 49
-0.25
 49
0.25
 49
-0.25
  0
LTYPE
  2
HIDDEN
 70
     0
  3
_ _ _ _ _ _ _ _ _ _ _ _ _ _ _ _ _ _ _ _ _ _ _
 72
    65
 73
     2
 40
0.375
 49
0.25
 49
-0.125
  0
ENDTAB
  0
TABLE
  2
LAYER
 70
     5
  0
LAYER
  2
0
 70
     0
 62
     7
  6
CONTINUOUS
  0
LAYER
  2
1
 70
     0
 62
     1
  6
CENTER
  0
LAYER
  2
5
 70
     0
 62
     3
  6
PHANTOM
  0
LAYER
  2
2
 70
     0
 62
     2
  6
HIDDEN
  0
LAYER
  2
DEFPOINTS
 70
     0
 62
     7
  6
CONTINUOUS
  0
ENDTAB
  0
TABLE
  2
STYLE
 70
     2
  0
STYLE
  2
STANDARD
 70
     0
 40
0.0
 41
1.0
 50
0.0
 71
     0
 42
2.5
  3
txt
  4

  0
STYLE
  2
STANDARD1
 70
     0
 40
0.0
 41
1.0
 50
0.0
 71
     0
 42
3.0
  3
txt
  4

  0
ENDTAB
  0
TABLE
  2
VIEW
 70
     0
  0
ENDTAB
  0
TABLE
  2
UCS
 70
     0
  0
ENDTAB
  0
TABLE
  2
APPID
 70
     3
  0
APPID
  2
ACAD
 70
     0
  0
APPID
  2
ACAD_MLEADERVER
 70
     0
  0
APPID
  2
ACAD_NAV_VCDISPLAY
 70
     0
  0
ENDTAB
  0
TABLE
  2
DIMSTYLE
 70
     2
  0
DIMSTYLE
  2
ISO-25
 70
     0
  3

  4

  5

  6

  7

 40
1.0
 41
2.5
 42
0.625
 43
3.75
 44
1.25
 45
0.0
 46
0.0
 47
0.0
 48
0.0
140
2.5
141
2.5
142
0.0
143
0.03937007874016
144
1.0
145
0.0
146
1.0
147
0.625
 71
     0
 72
     0
 73
     0
 74
     0
 75
     0
 76
     0
 77
     1
 78
     8
170
     0
171
     3
172
     1
173
     0
174
     0
175
     0
176
     0
177
     0
178
     0
  0
DIMSTYLE
  2
STANDARD
 70
     0
  3

  4

  5

  6

  7

 40
1.0
 41
0.18
 42
0.0625
 43
0.38
 44
0.18
 45
0.0
 46
0.0
 47
0.0
 48
0.0
140
0.18
141
0.09
142
0.0
143
25.399999999999999
144
1.0
145
0.0
146
1.0
147
0.09
 71
     0
 72
     0
 73
     1
 74
     1
 75
     0
 76
     0
 77
     0
 78
     0
170
     0
171
     2
172
     0
173
     0
174
     0
175
     0
176
     0
177
     0
178
     0
  0
ENDTAB
  0
ENDSEC
  0
SECTION
  2
BLOCKS
  0
BLOCK
  8
0
  2
$MODEL_SPACE
 70
     0
 10
0.0
 20
0.0
 30
0.0
  3
$MODEL_SPACE
  1

  0
ENDBLK
  5
21
  8
0
  0
BLOCK
 67
     1
  8
0
  2
$PAPER_SPACE
 70
     0
 10
0.0
 20
0.0
 30
0.0
  3
$PAPER_SPACE
  1

  0
ENDBLK
  5
53
 67
     1
  8
0
  0
ENDSEC
  0
SECTION
  2
ENTITIES
  0
LINE
  5
F3D
  8
0
 10
71.060641342910273
 20
158.97427826780549
 30
0.0
 11
71.060641342910273
 21
150.01110434127301
 31
0.0
  0
POLYLINE
  5
F3E
  8
0
 66
     1
 10
0.0
 20
0.0
 30
0.0
  0
VERTEX
  5
1105
  8
0
 10
111.0606413429102
 20
158.49269130453931
 30
0.0
  0
VERTEX
  5
1106
  8
0
 10
111.0046983137196
 20
158.49230008259309
 30
0.0
  0
VERTEX
  5
1107
  8
0
 10
110.89206118404471
 20
158.4891373169404
 30
0.0
  0
VERTEX
  5
1108
  8
0
 10
110.77858483785261
 20
158.48273442811009
 30
0.0
  0
VERTEX
  5
1109
  8
0
 10
110.7215933096077
 20
158.47829620607101
 30
0.0
  0
VERTEX
  5
110A
  8
0
 10
110.6644657123592
 20
158.4730235607407
 30
0.0
  0
VERTEX
  5
110B
  8
0
 10
110.5499005991648
 20
158.45995029440601
 30
0.0
  0
VERTEX
  5
110C
  8
0
 10
110.43508479698291
 20
158.4434733800083
 30
0.0
  0
VERTEX
  5
110D
  8
0
 10
110.3202102791484
 20
158.4235642152064
 30
0.0
  0
VERTEX
  5
110E
  8
0
 10
110.2054640200567
 20
158.40020608333111
 30
0.0
  0
VERTEX
  5
110F
  8
0
 10
110.0910295506861
 20
158.37339394354419
 30
0.0
  0
VERTEX
  5
1110
  8
0
 10
110.03398666276659
 20
158.35869443021559
 30
0.0
  0
VERTEX
  5
1111
  8
0
 10
109.9770906111756
 20
158.34313515061169
 30
0.0
  0
VERTEX
  5
1112
  8
0
 10
109.8638302254689
 20
158.30944950347839
 30
0.0
  0
VERTEX
  5
1113
  8
0
 10
109.7514289291471
 20
158.2723689172
 30
0.0
  0
VERTEX
  5
1114
  8
0
 10
109.6400630723348
 20
158.23193686710519
 30
0.0
  0
VERTEX
  5
1115
  8
0
 10
109.5299031911875
 20
158.18820760282031
 30
0.0
  0
VERTEX
  5
1116
  8
0
 10
109.42108729782819
 20
158.14123382632181
 30
0.0
  0
VERTEX
  5
1117
  8
0
 10
109.3672239201375
 20
158.1165480114538
 30
0.0
  0
VERTEX
  5
1118
  8
0
 10
109.313750242379
 20
158.09107587026941
 30
0.0
  0
VERTEX
  5
1119
  8
0
 10
109.2080509659241
 20
158.03781597020321
 30
0.0
  0
VERTEX
  5
111A
  8
0
 10
109.1041449010975
 20
157.9815480905329
 30
0.0
  0
VERTEX
  5
111B
  8
0
 10
109.05291151391761
 20
157.95231858703281
 30
0.0
  0
VERTEX
  5
111C
  8
0
 10
109.0021822649836
 20
157.9223773287259
 30
0.0
  0
VERTEX
  5
111D
  8
0
 10
108.9023064663419
 20
157.86041910835431
 30
0.0
  0
VERTEX
  5
111E
  8
0
 10
108.8046526208731
 20
157.79579815810021
 30
0.0
  0
VERTEX
  5
111F
  8
0
 10
108.7566986366411
 20
157.76253044526609
 30
0.0
  0
VERTEX
  5
1120
  8
0
 10
108.7093469315393
 20
157.72864782326079
 30
0.0
  0
VERTEX
  5
1121
  8
0
 10
108.61650977979539
 20
157.65911213920191
 30
0.0
  0
VERTEX
  5
1122
  8
0
 10
108.5262566768853
 20
157.58734707935781
 30
0.0
  0
VERTEX
  5
1123
  8
0
 10
108.438696542709
 20
157.51351991018669
 30
0.0
  0
VERTEX
  5
1124
  8
0
 10
108.3539300395627
 20
157.4378082666191
 30
0.0
  0
VERTEX
  5
1125
  8
0
 10
108.2720480799198
 20
157.36039903260439
 30
0.0
  0
VERTEX
  5
1126
  8
0
 10
108.2322142178385
 20
157.32111842895989
 30
0.0
  0
VERTEX
  5
1127
  8
0
 10
108.1929336142006
 20
157.2812845668669
 30
0.0
  0
VERTEX
  5
1128
  8
0
 10
108.1155243802036
 20
157.19940260720489
 30
0.0
  0
VERTEX
  5
1129
  8
0
 10
108.0398127366594
 20
157.1146361040453
 30
0.0
  0
VERTEX
  5
112A
  8
0
 10
107.9659855675167
 20
157.0270759698621
 30
0.0
  0
VERTEX
  5
112B
  8
0
 10
107.8942205077054
 20
156.93682286695179
 30
0.0
  0
VERTEX
  5
112C
  8
0
 10
107.824684823683
 20
156.84398571521419
 30
0.0
  0
VERTEX
  5
112D
  8
0
 10
107.79080220169701
 20
156.79663401011811
 30
0.0
  0
VERTEX
  5
112E
  8
0
 10
107.7575344888828
 20
156.74868002589341
 30
0.0
  0
VERTEX
  5
112F
  8
0
 10
107.6929135386701
 20
156.65102618044429
 30
0.0
  0
VERTEX
  5
1130
  8
0
 10
107.63095531834119
 20
156.5511503818289
 30
0.0
  0
VERTEX
  5
1131
  8
0
 10
107.5717845565778
 20
156.44918774574799
 30
0.0
  0
VERTEX
  5
1132
  8
0
 10
107.51551667695099
 20
156.34528168096031
 30
0.0
  0
VERTEX
  5
1133
  8
0
 10
107.46225677692691
 20
156.239582404549
 30
0.0
  0
VERTEX
  5
1134
  8
0
 10
107.43678463576261
 20
156.18610872681339
 30
0.0
  0
VERTEX
  5
1135
  8
0
 10
107.4120988209141
 20
156.1322453491461
 30
0.0
  0
VERTEX
  5
1136
  8
0
 10
107.3651250444517
 20
156.02342945583351
 30
0.0
  0
VERTEX
  5
1137
  8
0
 10
107.3213957801984
 20
155.9132695747308
 30
0.0
  0
VERTEX
  5
1138
  8
0
 10
107.2809637301315
 20
155.80190371796181
 30
0.0
  0
VERTEX
  5
1139
  8
0
 10
107.2438831438776
 20
155.6895024216825
 30
0.0
  0
VERTEX
  5
113A
  8
0
 10
107.2101974967657
 20
155.5762420360181
 30
0.0
  0
VERTEX
  5
113B
  8
0
 10
107.1946382171715
 20
155.51934598444799
 30
0.0
  0
VERTEX
  5
113C
  8
0
 10
107.1799387038518
 20
155.46230309654939
 30
0.0
  0
VERTEX
  5
113D
  8
0
 10
107.1531265640804
 20
155.3478686272193
 30
0.0
  0
VERTEX
  5
113E
  8
0
 10
107.1297684322177
 20
155.23312236816619
 30
0.0
  0
VERTEX
  5
113F
  8
0
 10
107.10985926742541
 20
155.11824785036671
 30
0.0
  0
VERTEX
  5
1140
  8
0
 10
107.0933823530346
 20
155.00343204821581
 30
0.0
  0
VERTEX
  5
1141
  8
0
 10
107.0803090867045
 20
154.8888669350473
 30
0.0
  0
VERTEX
  5
1142
  8
0
 10
107.0750364413758
 20
154.83173933780969
 30
0.0
  0
VERTEX
  5
1143
  8
0
 10
107.0705982193378
 20
154.77474780957431
 30
0.0
  0
VERTEX
  5
1144
  8
0
 10
107.0641953305087
 20
154.6612714633963
 30
0.0
  0
VERTEX
  5
1145
  8
0
 10
107.0610325648564
 20
154.5486343337289
 30
0.0
  0
VERTEX
  5
1146
  8
0
 10
107.0606413429102
 20
154.49269130453931
 30
0.0
  0
VERTEX
  5
1147
  8
0
 10
107.0610325648564
 20
154.4367482753496
 30
0.0
  0
VERTEX
  5
1148
  8
0
 10
107.0641953305087
 20
154.3241111456822
 30
0.0
  0
VERTEX
  5
1149
  8
0
 10
107.0705982193378
 20
154.21063479950419
 30
0.0
  0
VERTEX
  5
114A
  8
0
 10
107.0750364413758
 20
154.15364327126881
 30
0.0
  0
VERTEX
  5
114B
  8
0
 10
107.0803090867045
 20
154.0965156740312
 30
0.0
  0
VERTEX
  5
114C
  8
0
 10
107.0933823530346
 20
153.9819505608628
 30
0.0
  0
VERTEX
  5
114D
  8
0
 10
107.10985926742541
 20
153.86713475871181
 30
0.0
  0
VERTEX
  5
114E
  8
0
 10
107.1297684322177
 20
153.75226024091239
 30
0.0
  0
VERTEX
  5
114F
  8
0
 10
107.1531265640804
 20
153.6375139818592
 30
0.0
  0
VERTEX
  5
1150
  8
0
 10
107.1799387038518
 20
153.52307951252911
 30
0.0
  0
VERTEX
  5
1151
  8
0
 10
107.1946382171715
 20
153.4660366246305
 30
0.0
  0
VERTEX
  5
1152
  8
0
 10
107.2101974967657
 20
153.4091405730604
 30
0.0
  0
VERTEX
  5
1153
  8
0
 10
107.2438831438776
 20
153.29588018739599
 30
0.0
  0
VERTEX
  5
1154
  8
0
 10
107.2809637301315
 20
153.18347889111681
 30
0.0
  0
VERTEX
  5
1155
  8
0
 10
107.3213957801984
 20
153.07211303434769
 30
0.0
  0
VERTEX
  5
1156
  8
0
 10
107.3651250444517
 20
152.96195315324499
 30
0.0
  0
VERTEX
  5
1157
  8
0
 10
107.4120988209141
 20
152.8531372599324
 30
0.0
  0
VERTEX
  5
1158
  8
0
 10
107.43678463576261
 20
152.79927388226511
 30
0.0
  0
VERTEX
  5
1159
  8
0
 10
107.46225677692691
 20
152.74580020452959
 30
0.0
  0
VERTEX
  5
115A
  8
0
 10
107.51551667695099
 20
152.6401009281183
 30
0.0
  0
VERTEX
  5
115B
  8
0
 10
107.5717845565778
 20
152.53619486333051
 30
0.0
  0
VERTEX
  5
115C
  8
0
 10
107.63095531834119
 20
152.43423222724959
 30
0.0
  0
VERTEX
  5
115D
  8
0
 10
107.6929135386701
 20
152.33435642863421
 30
0.0
  0
VERTEX
  5
115E
  8
0
 10
107.7575344888828
 20
152.23670258318509
 30
0.0
  0
VERTEX
  5
115F
  8
0
 10
107.79080220169701
 20
152.18874859896039
 30
0.0
  0
VERTEX
  5
1160
  8
0
 10
107.824684823683
 20
152.14139689386431
 30
0.0
  0
VERTEX
  5
1161
  8
0
 10
107.8942205077054
 20
152.04855974212671
 30
0.0
  0
VERTEX
  5
1162
  8
0
 10
107.9659855675167
 20
151.9583066392164
 30
0.0
  0
VERTEX
  5
1163
  8
0
 10
108.0398127366594
 20
151.8707465050332
 30
0.0
  0
VERTEX
  5
1164
  8
0
 10
108.1155243802036
 20
151.78598000187361
 30
0.0
  0
VERTEX
  5
1165
  8
0
 10
108.1929336142006
 20
151.7040980422116
 30
0.0
  0
VERTEX
  5
1166
  8
0
 10
108.2322142178385
 20
151.66426418011861
 30
0.0
  0
VERTEX
  5
1167
  8
0
 10
108.2720480799198
 20
151.62498357647411
 30
0.0
  0
VERTEX
  5
1168
  8
0
 10
108.3539300395627
 20
151.5475743424594
 30
0.0
  0
VERTEX
  5
1169
  8
0
 10
108.438696542709
 20
151.47186269889181
 30
0.0
  0
VERTEX
  5
116A
  8
0
 10
108.5262566768853
 20
151.39803552972069
 30
0.0
  0
VERTEX
  5
116B
  8
0
 10
108.61650977979539
 20
151.32627046987659
 30
0.0
  0
VERTEX
  5
116C
  8
0
 10
108.7093469315393
 20
151.2567347858178
 30
0.0
  0
VERTEX
  5
116D
  8
0
 10
108.7566986366411
 20
151.22285216381241
 30
0.0
  0
VERTEX
  5
116E
  8
0
 10
108.8046526208731
 20
151.18958445097829
 30
0.0
  0
VERTEX
  5
116F
  8
0
 10
108.9023064663419
 20
151.12496350072431
 30
0.0
  0
VERTEX
  5
1170
  8
0
 10
109.0021822649836
 20
151.06300528035251
 30
0.0
  0
VERTEX
  5
1171
  8
0
 10
109.05291151391761
 20
151.03306402204569
 30
0.0
  0
VERTEX
  5
1172
  8
0
 10
109.1041449010975
 20
151.0038345185456
 30
0.0
  0
VERTEX
  5
1173
  8
0
 10
109.2080509659241
 20
150.9475666388754
 30
0.0
  0
VERTEX
  5
1174
  8
0
 10
109.313750242379
 20
150.89430673880909
 30
0.0
  0
VERTEX
  5
1175
  8
0
 10
109.3672239201375
 20
150.8688345976247
 30
0.0
  0
VERTEX
  5
1176
  8
0
 10
109.42108729782819
 20
150.84414878275669
 30
0.0
  0
VERTEX
  5
1177
  8
0
 10
109.5299031911875
 20
150.79717500625819
 30
0.0
  0
VERTEX
  5
1178
  8
0
 10
109.6400630723348
 20
150.75344574197331
 30
0.0
  0
VERTEX
  5
1179
  8
0
 10
109.7514289291471
 20
150.7130136918785
 30
0.0
  0
VERTEX
  5
117A
  8
0
 10
109.8638302254689
 20
150.67593310560011
 30
0.0
  0
VERTEX
  5
117B
  8
0
 10
109.9770906111756
 20
150.64224745846681
 30
0.0
  0
VERTEX
  5
117C
  8
0
 10
110.03398666276659
 20
150.62668817886291
 30
0.0
  0
VERTEX
  5
117D
  8
0
 10
110.0910295506861
 20
150.61198866553431
 30
0.0
  0
VERTEX
  5
117E
  8
0
 10
110.2054640200567
 20
150.58517652574741
 30
0.0
  0
VERTEX
  5
117F
  8
0
 10
110.3202102791484
 20
150.5618183938721
 30
0.0
  0
VERTEX
  5
1180
  8
0
 10
110.43508479698291
 20
150.5419092290702
 30
0.0
  0
VERTEX
  5
1181
  8
0
 10
110.5499005991648
 20
150.52543231467251
 30
0.0
  0
VERTEX
  5
1182
  8
0
 10
110.6644657123592
 20
150.5123590483378
 30
0.0
  0
VERTEX
  5
1183
  8
0
 10
110.7215933096077
 20
150.50708640300749
 30
0.0
  0
VERTEX
  5
1184
  8
0
 10
110.77858483785261
 20
150.50264818096841
 30
0.0
  0
VERTEX
  5
1185
  8
0
 10
110.89206118404471
 20
150.4962452921381
 30
0.0
  0
VERTEX
  5
1186
  8
0
 10
111.0046983137196
 20
150.49308252648541
 30
0.0
  0
VERTEX
  5
1187
  8
0
 10
111.0606413429102
 20
150.49269130453931
 30
0.0
  0
SEQEND
  5
1188
  8
0
  0
POLYLINE
  5
F3F
  8
0
 66
     1
 10
0.0
 20
0.0
 30
0.0
  0
VERTEX
  5
1189
  8
0
 10
111.0606413429102
 20
150.49269130453931
 30
0.0
  0
VERTEX
  5
118A
  8
0
 10
111.1165843721008
 20
150.49308252648541
 30
0.0
  0
VERTEX
  5
118B
  8
0
 10
111.2292215017757
 20
150.4962452921381
 30
0.0
  0
VERTEX
  5
118C
  8
0
 10
111.3426978479678
 20
150.50264818096841
 30
0.0
  0
VERTEX
  5
118D
  8
0
 10
111.39968937621271
 20
150.50708640300749
 30
0.0
  0
VERTEX
  5
118E
  8
0
 10
111.4568169734612
 20
150.5123590483378
 30
0.0
  0
VERTEX
  5
118F
  8
0
 10
111.5713820866556
 20
150.52543231467251
 30
0.0
  0
VERTEX
  5
1190
  8
0
 10
111.6861978888375
 20
150.5419092290702
 30
0.0
  0
VERTEX
  5
1191
  8
0
 10
111.80107240667201
 20
150.5618183938721
 30
0.0
  0
VERTEX
  5
1192
  8
0
 10
111.91581866576369
 20
150.58517652574741
 30
0.0
  0
VERTEX
  5
1193
  8
0
 10
112.0302531351344
 20
150.61198866553431
 30
0.0
  0
VERTEX
  5
1194
  8
0
 10
112.0872960230538
 20
150.62668817886291
 30
0.0
  0
VERTEX
  5
1195
  8
0
 10
112.14419207464481
 20
150.64224745846681
 30
0.0
  0
VERTEX
  5
1196
  8
0
 10
112.2574524603515
 20
150.67593310560011
 30
0.0
  0
VERTEX
  5
1197
  8
0
 10
112.36985375667329
 20
150.7130136918785
 30
0.0
  0
VERTEX
  5
1198
  8
0
 10
112.48121961348561
 20
150.75344574197331
 30
0.0
  0
VERTEX
  5
1199
  8
0
 10
112.5913794946329
 20
150.79717500625819
 30
0.0
  0
VERTEX
  5
119A
  8
0
 10
112.7001953879922
 20
150.84414878275669
 30
0.0
  0
VERTEX
  5
119B
  8
0
 10
112.7540587656829
 20
150.8688345976247
 30
0.0
  0
VERTEX
  5
119C
  8
0
 10
112.8075324434414
 20
150.89430673880909
 30
0.0
  0
VERTEX
  5
119D
  8
0
 10
112.9132317198963
 20
150.9475666388754
 30
0.0
  0
VERTEX
  5
119E
  8
0
 10
113.01713778472291
 20
151.0038345185456
 30
0.0
  0
VERTEX
  5
119F
  8
0
 10
113.0683711719028
 20
151.03306402204569
 30
0.0
  0
VERTEX
  5
11A0
  8
0
 10
113.1191004208368
 20
151.06300528035251
 30
0.0
  0
VERTEX
  5
11A1
  8
0
 10
113.21897621947861
 20
151.12496350072431
 30
0.0
  0
VERTEX
  5
11A2
  8
0
 10
113.3166300649473
 20
151.18958445097829
 30
0.0
  0
VERTEX
  5
11A3
  8
0
 10
113.3645840491793
 20
151.22285216381241
 30
0.0
  0
VERTEX
  5
11A4
  8
0
 10
113.4119357542811
 20
151.2567347858178
 30
0.0
  0
VERTEX
  5
11A5
  8
0
 10
113.504772906025
 20
151.32627046987659
 30
0.0
  0
VERTEX
  5
11A6
  8
0
 10
113.59502600893509
 20
151.39803552972069
 30
0.0
  0
VERTEX
  5
11A7
  8
0
 10
113.68258614311139
 20
151.47186269889181
 30
0.0
  0
VERTEX
  5
11A8
  8
0
 10
113.76735264625771
 20
151.5475743424594
 30
0.0
  0
VERTEX
  5
11A9
  8
0
 10
113.84923460590061
 20
151.62498357647411
 30
0.0
  0
VERTEX
  5
11AA
  8
0
 10
113.8890684679819
 20
151.66426418011861
 30
0.0
  0
VERTEX
  5
11AB
  8
0
 10
113.92834907161981
 20
151.7040980422116
 30
0.0
  0
VERTEX
  5
11AC
  8
0
 10
114.00575830561679
 20
151.78598000187361
 30
0.0
  0
VERTEX
  5
11AD
  8
0
 10
114.081469949161
 20
151.8707465050332
 30
0.0
  0
VERTEX
  5
11AE
  8
0
 10
114.15529711830369
 20
151.9583066392164
 30
0.0
  0
VERTEX
  5
11AF
  8
0
 10
114.22706217811501
 20
152.04855974212671
 30
0.0
  0
VERTEX
  5
11B0
  8
0
 10
114.2965978621374
 20
152.14139689386431
 30
0.0
  0
VERTEX
  5
11B1
  8
0
 10
114.3304804841234
 20
152.18874859896039
 30
0.0
  0
VERTEX
  5
11B2
  8
0
 10
114.36374819693761
 20
152.23670258318509
 30
0.0
  0
VERTEX
  5
11B3
  8
0
 10
114.42836914715031
 20
152.33435642863421
 30
0.0
  0
VERTEX
  5
11B4
  8
0
 10
114.4903273674792
 20
152.43423222724959
 30
0.0
  0
VERTEX
  5
11B5
  8
0
 10
114.54949812924259
 20
152.53619486333051
 30
0.0
  0
VERTEX
  5
11B6
  8
0
 10
114.6057660088694
 20
152.6401009281183
 30
0.0
  0
VERTEX
  5
11B7
  8
0
 10
114.6590259088935
 20
152.74580020452959
 30
0.0
  0
VERTEX
  5
11B8
  8
0
 10
114.6844980500578
 20
152.79927388226511
 30
0.0
  0
VERTEX
  5
11B9
  8
0
 10
114.70918386490629
 20
152.8531372599324
 30
0.0
  0
VERTEX
  5
11BA
  8
0
 10
114.7561576413687
 20
152.96195315324499
 30
0.0
  0
VERTEX
  5
11BB
  8
0
 10
114.799886905622
 20
153.07211303434769
 30
0.0
  0
VERTEX
  5
11BC
  8
0
 10
114.8403189556889
 20
153.18347889111681
 30
0.0
  0
VERTEX
  5
11BD
  8
0
 10
114.87739954194279
 20
153.29588018739599
 30
0.0
  0
VERTEX
  5
11BE
  8
0
 10
114.9110851890547
 20
153.4091405730604
 30
0.0
  0
VERTEX
  5
11BF
  8
0
 10
114.9266444686489
 20
153.4660366246305
 30
0.0
  0
VERTEX
  5
11C0
  8
0
 10
114.9413439819686
 20
153.52307951252911
 30
0.0
  0
VERTEX
  5
11C1
  8
0
 10
114.96815612173999
 20
153.6375139818592
 30
0.0
  0
VERTEX
  5
11C2
  8
0
 10
114.9915142536027
 20
153.75226024091239
 30
0.0
  0
VERTEX
  5
11C3
  8
0
 10
115.011423418395
 20
153.86713475871181
 30
0.0
  0
VERTEX
  5
11C4
  8
0
 10
115.0279003327858
 20
153.98195056086271
 30
0.0
  0
VERTEX
  5
11C5
  8
0
 10
115.0409735991159
 20
154.0965156740312
 30
0.0
  0
VERTEX
  5
11C6
  8
0
 10
115.0462462444447
 20
154.15364327126881
 30
0.0
  0
VERTEX
  5
11C7
  8
0
 10
115.05068446648259
 20
154.21063479950419
 30
0.0
  0
VERTEX
  5
11C8
  8
0
 10
115.05708735531169
 20
154.3241111456822
 30
0.0
  0
VERTEX
  5
11C9
  8
0
 10
115.060250120964
 20
154.4367482753496
 30
0.0
  0
VERTEX
  5
11CA
  8
0
 10
115.0606413429102
 20
154.49269130453931
 30
0.0
  0
VERTEX
  5
11CB
  8
0
 10
115.060250120964
 20
154.5486343337289
 30
0.0
  0
VERTEX
  5
11CC
  8
0
 10
115.05708735531169
 20
154.6612714633963
 30
0.0
  0
VERTEX
  5
11CD
  8
0
 10
115.05068446648259
 20
154.77474780957431
 30
0.0
  0
VERTEX
  5
11CE
  8
0
 10
115.0462462444447
 20
154.83173933780969
 30
0.0
  0
VERTEX
  5
11CF
  8
0
 10
115.0409735991159
 20
154.8888669350473
 30
0.0
  0
VERTEX
  5
11D0
  8
0
 10
115.0279003327858
 20
155.0034320482157
 30
0.0
  0
VERTEX
  5
11D1
  8
0
 10
115.011423418395
 20
155.11824785036671
 30
0.0
  0
VERTEX
  5
11D2
  8
0
 10
114.9915142536027
 20
155.23312236816619
 30
0.0
  0
VERTEX
  5
11D3
  8
0
 10
114.96815612173999
 20
155.3478686272193
 30
0.0
  0
VERTEX
  5
11D4
  8
0
 10
114.9413439819686
 20
155.46230309654939
 30
0.0
  0
VERTEX
  5
11D5
  8
0
 10
114.9266444686489
 20
155.51934598444799
 30
0.0
  0
VERTEX
  5
11D6
  8
0
 10
114.9110851890547
 20
155.5762420360181
 30
0.0
  0
VERTEX
  5
11D7
  8
0
 10
114.87739954194279
 20
155.6895024216825
 30
0.0
  0
VERTEX
  5
11D8
  8
0
 10
114.8403189556889
 20
155.80190371796181
 30
0.0
  0
VERTEX
  5
11D9
  8
0
 10
114.799886905622
 20
155.9132695747308
 30
0.0
  0
VERTEX
  5
11DA
  8
0
 10
114.7561576413687
 20
156.02342945583351
 30
0.0
  0
VERTEX
  5
11DB
  8
0
 10
114.70918386490629
 20
156.1322453491461
 30
0.0
  0
VERTEX
  5
11DC
  8
0
 10
114.6844980500578
 20
156.18610872681339
 30
0.0
  0
VERTEX
  5
11DD
  8
0
 10
114.6590259088935
 20
156.239582404549
 30
0.0
  0
VERTEX
  5
11DE
  8
0
 10
114.6057660088694
 20
156.34528168096031
 30
0.0
  0
VERTEX
  5
11DF
  8
0
 10
114.54949812924259
 20
156.44918774574799
 30
0.0
  0
VERTEX
  5
11E0
  8
0
 10
114.4903273674792
 20
156.5511503818289
 30
0.0
  0
VERTEX
  5
11E1
  8
0
 10
114.42836914715031
 20
156.65102618044429
 30
0.0
  0
VERTEX
  5
11E2
  8
0
 10
114.36374819693761
 20
156.74868002589341
 30
0.0
  0
VERTEX
  5
11E3
  8
0
 10
114.3304804841234
 20
156.79663401011811
 30
0.0
  0
VERTEX
  5
11E4
  8
0
 10
114.2965978621374
 20
156.84398571521419
 30
0.0
  0
VERTEX
  5
11E5
  8
0
 10
114.22706217811501
 20
156.93682286695179
 30
0.0
  0
VERTEX
  5
11E6
  8
0
 10
114.15529711830369
 20
157.0270759698621
 30
0.0
  0
VERTEX
  5
11E7
  8
0
 10
114.081469949161
 20
157.1146361040453
 30
0.0
  0
VERTEX
  5
11E8
  8
0
 10
114.00575830561679
 20
157.19940260720489
 30
0.0
  0
VERTEX
  5
11E9
  8
0
 10
113.92834907161981
 20
157.2812845668669
 30
0.0
  0
VERTEX
  5
11EA
  8
0
 10
113.8890684679819
 20
157.32111842895989
 30
0.0
  0
VERTEX
  5
11EB
  8
0
 10
113.84923460590061
 20
157.36039903260439
 30
0.0
  0
VERTEX
  5
11EC
  8
0
 10
113.76735264625771
 20
157.4378082666191
 30
0.0
  0
VERTEX
  5
11ED
  8
0
 10
113.68258614311139
 20
157.51351991018669
 30
0.0
  0
VERTEX
  5
11EE
  8
0
 10
113.59502600893509
 20
157.58734707935781
 30
0.0
  0
VERTEX
  5
11EF
  8
0
 10
113.504772906025
 20
157.65911213920191
 30
0.0
  0
VERTEX
  5
11F0
  8
0
 10
113.4119357542811
 20
157.72864782326079
 30
0.0
  0
VERTEX
  5
11F1
  8
0
 10
113.3645840491793
 20
157.76253044526609
 30
0.0
  0
VERTEX
  5
11F2
  8
0
 10
113.3166300649472
 20
157.79579815810021
 30
0.0
  0
VERTEX
  5
11F3
  8
0
 10
113.21897621947861
 20
157.86041910835431
 30
0.0
  0
VERTEX
  5
11F4
  8
0
 10
113.1191004208368
 20
157.9223773287259
 30
0.0
  0
VERTEX
  5
11F5
  8
0
 10
113.0683711719028
 20
157.95231858703281
 30
0.0
  0
VERTEX
  5
11F6
  8
0
 10
113.01713778472291
 20
157.9815480905329
 30
0.0
  0
VERTEX
  5
11F7
  8
0
 10
112.9132317198963
 20
158.03781597020321
 30
0.0
  0
VERTEX
  5
11F8
  8
0
 10
112.8075324434414
 20
158.09107587026941
 30
0.0
  0
VERTEX
  5
11F9
  8
0
 10
112.7540587656829
 20
158.1165480114538
 30
0.0
  0
VERTEX
  5
11FA
  8
0
 10
112.7001953879922
 20
158.14123382632181
 30
0.0
  0
VERTEX
  5
11FB
  8
0
 10
112.5913794946329
 20
158.18820760282031
 30
0.0
  0
VERTEX
  5
11FC
  8
0
 10
112.48121961348561
 20
158.23193686710519
 30
0.0
  0
VERTEX
  5
11FD
  8
0
 10
112.36985375667329
 20
158.2723689172
 30
0.0
  0
VERTEX
  5
11FE
  8
0
 10
112.2574524603515
 20
158.30944950347839
 30
0.0
  0
VERTEX
  5
11FF
  8
0
 10
112.14419207464481
 20
158.3431351506118
 30
0.0
  0
VERTEX
  5
1200
  8
0
 10
112.0872960230538
 20
158.35869443021559
 30
0.0
  0
VERTEX
  5
1201
  8
0
 10
112.0302531351344
 20
158.37339394354419
 30
0.0
  0
VERTEX
  5
1202
  8
0
 10
111.91581866576369
 20
158.40020608333111
 30
0.0
  0
VERTEX
  5
1203
  8
0
 10
111.80107240667201
 20
158.4235642152064
 30
0.0
  0
VERTEX
  5
1204
  8
0
 10
111.6861978888375
 20
158.4434733800083
 30
0.0
  0
VERTEX
  5
1205
  8
0
 10
111.5713820866556
 20
158.45995029440601
 30
0.0
  0
VERTEX
  5
1206
  8
0
 10
111.4568169734612
 20
158.4730235607407
 30
0.0
  0
VERTEX
  5
1207
  8
0
 10
111.39968937621271
 20
158.47829620607101
 30
0.0
  0
VERTEX
  5
1208
  8
0
 10
111.3426978479678
 20
158.48273442811009
 30
0.0
  0
VERTEX
  5
1209
  8
0
 10
111.2292215017757
 20
158.4891373169404
 30
0.0
  0
VERTEX
  5
120A
  8
0
 10
111.1165843721008
 20
158.49230008259309
 30
0.0
  0
VERTEX
  5
120B
  8
0
 10
111.0606413429102
 20
158.49269130453931
 30
0.0
  0
SEQEND
  5
120C
  8
0
  0
LINE
  5
F40
  8
0
 10
151.0606413429102
 20
158.9742782678054
 30
0.0
 11
151.0606413429102
 21
150.0111043412731
 31
0.0
  0
POLYLINE
  5
F41
  8
0
 66
     1
 10
0.0
 20
0.0
 30
0.0
  0
VERTEX
  5
120D
  8
0
 10
71.06064134291023
 20
150.01110434127301
 30
0.0
  0
VERTEX
  5
120E
  8
0
 10
71.062116636918972
 20
149.90949291687181
 30
0.0
  0
VERTEX
  5
120F
  8
0
 10
71.074279285496431
 20
149.70243039578139
 30
0.0
  0
VERTEX
  5
1210
  8
0
 10
71.0994071019324
 20
149.49162620979629
 30
0.0
  0
VERTEX
  5
1211
  8
0
 10
71.117037332072229
 20
149.38533168563799
 30
0.0
  0
VERTEX
  5
1212
  8
0
 10
71.13812806921122
 20
149.2787090304237
 30
0.0
  0
VERTEX
  5
1213
  8
0
 10
71.190863690103797
 20
149.065272130653
 30
0.0
  0
VERTEX
  5
1214
  8
0
 10
71.257834258694686
 20
148.85288788289591
 30
0.0
  0
VERTEX
  5
1215
  8
0
 10
71.339083562619862
 20
148.64305263601821
 30
0.0
  0
VERTEX
  5
1216
  8
0
 10
71.434490117706147
 20
148.43719884310769
 30
0.0
  0
VERTEX
  5
1217
  8
0
 10
71.543727949105971
 20
148.23677811019701
 30
0.0
  0
VERTEX
  5
1218
  8
0
 10
71.603382487439191
 20
148.13904129165689
 30
0.0
  0
VERTEX
  5
1219
  8
0
 10
71.666291183149809
 20
148.0431772204947
 30
0.0
  0
VERTEX
  5
121A
  8
0
 10
71.80148553857012
 20
147.85772113167559
 30
0.0
  0
VERTEX
  5
121B
  8
0
 10
71.885833119785389
 20
147.75380485527131
 30
0.0
  0
VERTEX
  5
121C
  8
0
 10
71.910637772537882
 20
147.72473580645331
 30
0.0
  0
VERTEX
  5
121D
  8
0
 10
71.935849788617347
 20
147.69583561032351
 30
0.0
  0
VERTEX
  5
121E
  8
0
 10
71.948675842872547
 20
147.68137555306339
 30
0.0
  0
VERTEX
  5
121F
  8
0
 10
71.961649411288548
 20
147.66691131607959
 30
0.0
  0
VERTEX
  5
1220
  8
0
 10
71.988037767004954
 20
147.63798174830839
 30
0.0
  0
VERTEX
  5
1221
  8
0
 10
72.01501186921017
 20
147.60906966570531
 30
0.0
  0
VERTEX
  5
1222
  8
0
 10
72.042568190841848
 20
147.58019759669551
 30
0.0
  0
VERTEX
  5
1223
  8
0
 10
72.070702670079953
 20
147.55138781176311
 30
0.0
  0
VERTEX
  5
1224
  8
0
 10
72.099410719335523
 20
147.52266229501629
 30
0.0
  0
VERTEX
  5
1225
  8
0
 10
72.113978258355985
 20
147.50833792175251
 30
0.0
  0
VERTEX
  5
1226
  8
0
 10
72.128687237861399
 20
147.49404271490459
 30
0.0
  0
VERTEX
  5
1227
  8
0
 10
72.15852662839562
 20
147.46555039403239
 30
0.0
  0
VERTEX
  5
1228
  8
0
 10
72.188922818276893
 20
147.43720627804069
 30
0.0
  0
VERTEX
  5
1229
  8
0
 10
72.219869285498859
 20
147.40903090356181
 30
0.0
  0
VERTEX
  5
122A
  8
0
 10
72.251359090280573
 20
147.38104436520979
 30
0.0
  0
VERTEX
  5
122B
  8
0
 10
72.283384879470361
 20
147.353266310143
 30
0.0
  0
VERTEX
  5
122C
  8
0
 10
72.299596319258214
 20
147.339461513158
 30
0.0
  0
VERTEX
  5
122D
  8
0
 10
72.315938735182414
 20
147.32571606341449
 30
0.0
  0
VERTEX
  5
122E
  8
0
 10
72.349012092242532
 20
147.29841267844239
 30
0.0
  0
VERTEX
  5
122F
  8
0
 10
72.382595751034643
 20
147.2713749021292
 30
0.0
  0
VERTEX
  5
1230
  8
0
 10
72.416679897530642
 20
147.24462113678291
 30
0.0
  0
VERTEX
  5
1231
  8
0
 10
72.451254127779038
 20
147.21816940170839
 30
0.0
  0
VERTEX
  5
1232
  8
0
 10
72.486307477398697
 20
147.19203729446619
 30
0.0
  0
VERTEX
  5
1233
  8
0
 10
72.504010250867537
 20
147.1790964755983
 30
0.0
  0
VERTEX
  5
1234
  8
0
 10
72.521828456647398
 20
147.16624195184031
 30
0.0
  0
VERTEX
  5
1235
  8
0
 10
72.557805091654075
 20
147.14080001060449
 30
0.0
  0
VERTEX
  5
1236
  8
0
 10
72.594224972414793
 20
147.11572756823509
 30
0.0
  0
VERTEX
  5
1237
  8
0
 10
72.612597146034801
 20
147.1033347824841
 30
0.0
  0
VERTEX
  5
1238
  8
0
 10
72.631075308152788
 20
147.0910401437749
 30
0.0
  0
VERTEX
  5
1239
  8
0
 10
72.668346942516592
 20
147.06675009929751
 30
0.0
  0
VERTEX
  5
123A
  8
0
 10
72.706031221279375
 20
147.04286895695051
 30
0.0
  0
VERTEX
  5
123B
  8
0
 10
72.725023642790305
 20
147.03108627773611
 30
0.0
  0
VERTEX
  5
123C
  8
0
 10
72.74411377790446
 20
147.01941124110809
 30
0.0
  0
VERTEX
  5
123D
  8
0
 10
72.78257949847125
 20
146.99639107508159
 30
0.0
  0
VERTEX
  5
123E
  8
0
 10
72.821412579183317
 20
146.97382211740489
 30
0.0
  0
VERTEX
  5
123F
  8
0
 10
72.860596574728248
 20
146.95171750954071
 30
0.0
  0
VERTEX
  5
1240
  8
0
 10
72.900114453872703
 20
146.93008982478929
 30
0.0
  0
VERTEX
  5
1241
  8
0
 10
72.939948662886934
 20
146.90895101867289
 30
0.0
  0
VERTEX
  5
1242
  8
0
 10
72.959978780178716
 20
146.89856850047221
 30
0.0
  0
VERTEX
  5
1243
  8
0
 10
72.980081197367184
 20
146.8883123811321
 30
0.0
  0
VERTEX
  5
1244
  8
0
 10
73.020493682983755
 20
146.86818449093909
 30
0.0
  0
VERTEX
  5
1245
  8
0
 10
73.061167465619633
 20
146.8485771728011
 30
0.0
  0
VERTEX
  5
1246
  8
0
 10
73.102083817373043
 20
146.82949940905741
 30
0.0
  0
VERTEX
  5
1247
  8
0
 10
73.143224105177524
 20
146.81095928609531
 30
0.0
  0
VERTEX
  5
1248
  8
0
 10
73.184568199198338
 20
146.7929647073922
 30
0.0
  0
VERTEX
  5
1249
  8
0
 10
73.205310177836139
 20
146.78417430903201
 30
0.0
  0
VERTEX
  5
124A
  8
0
 10
73.226095249241695
 20
146.7755229833291
 30
0.0
  0
VERTEX
  5
124B
  8
0
 10
73.267783922535898
 20
146.7586407072591
 30
0.0
  0
VERTEX
  5
124C
  8
0
 10
73.309612503903935
 20
146.742323705627
 30
0.0
  0
VERTEX
  5
124D
  8
0
 10
73.330572396195947
 20
146.7343787826812
 30
0.0
  0
SEQEND
  5
124E
  8
0
  0
POLYLINE
  5
F42
  8
0
 66
     1
 10
0.0
 20
0.0
 30
0.0
  0
VERTEX
  5
124F
  8
0
 10
73.330572396195976
 20
146.73437878268109
 30
0.0
  0
VERTEX
  5
1250
  8
0
 10
73.353458397967216
 20
146.72587842249081
 30
0.0
  0
VERTEX
  5
1251
  8
0
 10
73.399393998245074
 20
146.7093616795097
 30
0.0
  0
VERTEX
  5
1252
  8
0
 10
73.445534790726313
 20
146.6934941505971
 30
0.0
  0
VERTEX
  5
1253
  8
0
 10
73.468677214557829
 20
146.68580520549719
 30
0.0
  0
VERTEX
  5
1254
  8
0
 10
73.49186499946876
 20
146.67828014433431
 30
0.0
  0
VERTEX
  5
1255
  8
0
 10
73.538368589477244
 20
146.66372351179029
 30
0.0
  0
VERTEX
  5
1256
  8
0
 10
73.585029299132771
 20
146.6498276284693
 30
0.0
  0
VERTEX
  5
1257
  8
0
 10
73.631830673187125
 20
146.63659537850401
 30
0.0
  0
VERTEX
  5
1258
  8
0
 10
73.678756096343932
 20
146.62402914106141
 30
0.0
  0
VERTEX
  5
1259
  8
0
 10
73.725788827452902
 20
146.61213077894061
 30
0.0
  0
VERTEX
  5
125A
  8
0
 10
73.749340176027431
 20
146.606432489741
 30
0.0
  0
VERTEX
  5
125B
  8
0
 10
73.77291203435243
 20
146.60090162934529
 30
0.0
  0
VERTEX
  5
125C
  8
0
 10
73.820108829400624
 20
146.59034249682441
 30
0.0
  0
VERTEX
  5
125D
  8
0
 10
73.867362305740812
 20
146.58045364838381
 30
0.0
  0
VERTEX
  5
125E
  8
0
 10
73.914655735742855
 20
146.571234780471
 30
0.0
  0
VERTEX
  5
125F
  8
0
 10
73.961972879437823
 20
146.56268498295191
 30
0.0
  0
VERTEX
  5
1260
  8
0
 10
74.009296556363651
 20
146.55480300511209
 30
0.0
  0
VERTEX
  5
1261
  8
0
 10
74.03295540481858
 20
146.55111192065411
 30
0.0
  0
VERTEX
  5
1262
  8
0
 10
74.056609344774884
 20
146.54758709072331
 30
0.0
  0
VERTEX
  5
1263
  8
0
 10
74.103893722991046
 20
146.5410349454686
 30
0.0
  0
VERTEX
  5
1264
  8
0
 10
74.151132105571975
 20
146.53514372807049
 30
0.0
  0
VERTEX
  5
1265
  8
0
 10
74.174728544601905
 20
146.53244492820861
 30
0.0
  0
SEQEND
  5
1266
  8
0
  0
POLYLINE
  5
F43
  8
0
 66
     1
 10
0.0
 20
0.0
 30
0.0
  0
VERTEX
  5
1267
  8
0
 10
147.94655414121851
 20
146.53244492820861
 30
0.0
  0
VERTEX
  5
1268
  8
0
 10
147.97015083234791
 20
146.5351437577709
 30
0.0
  0
VERTEX
  5
1269
  8
0
 10
148.01738954594481
 20
146.54103502222119
 30
0.0
  0
VERTEX
  5
126A
  8
0
 10
148.06467404408889
 20
146.54758719303439
 30
0.0
  0
VERTEX
  5
126B
  8
0
 10
148.0883279722178
 20
146.55111202607199
 30
0.0
  0
VERTEX
  5
126C
  8
0
 10
148.11198676487069
 20
146.55480310647249
 30
0.0
  0
VERTEX
  5
126D
  8
0
 10
148.15931020977689
 20
146.56268505298391
 30
0.0
  0
VERTEX
  5
126E
  8
0
 10
148.20662697978651
 20
146.5712347860501
 30
0.0
  0
VERTEX
  5
126F
  8
0
 10
148.25391990957331
 20
146.58045355330211
 30
0.0
  0
VERTEX
  5
1270
  8
0
 10
148.30117278002271
 20
146.5903422638043
 30
0.0
  0
VERTEX
  5
1271
  8
0
 10
148.34836889638061
 20
146.60090122393481
 30
0.0
  0
VERTEX
  5
1272
  8
0
 10
148.37194039525539
 20
146.60643198586729
 30
0.0
  0
VERTEX
  5
1273
  8
0
 10
148.3954913747823
 20
146.6121301689258
 30
0.0
  0
VERTEX
  5
1274
  8
0
 10
148.4425233503041
 20
146.62402829768689
 30
0.0
  0
VERTEX
  5
1275
  8
0
 10
148.48944801314849
 20
146.6365942776755
 30
0.0
  0
VERTEX
  5
1276
  8
0
 10
148.5362486440969
 20
146.64982625193389
 30
0.0
  0
VERTEX
  5
1277
  8
0
 10
148.58290864927471
 20
146.6637218482887
 30
0.0
  0
VERTEX
  5
1278
  8
0
 10
148.62941159426879
 20
146.67827819071991
 30
0.0
  0
VERTEX
  5
1279
  8
0
 10
148.65259908530291
 20
146.6858031084779
 30
0.0
  0
VERTEX
  5
127A
  8
0
 10
148.6757412376316
 20
146.6934919129155
 30
0.0
  0
VERTEX
  5
127B
  8
0
 10
148.7218815637994
 20
146.70935917403361
 30
0.0
  0
VERTEX
  5
127C
  8
0
 10
148.76781681544421
 20
146.725875676703
 30
0.0
  0
VERTEX
  5
127D
  8
0
 10
148.7907026926035
 20
146.7343759308016
 30
0.0
  0
SEQEND
  5
127E
  8
0
  0
POLYLINE
  5
F44
  8
0
 66
     1
 10
0.0
 20
0.0
 30
0.0
  0
VERTEX
  5
127F
  8
0
 10
148.7907026926035
 20
146.7343759308016
 30
0.0
  0
VERTEX
  5
1280
  8
0
 10
148.8116626302014
 20
146.74232081544201
 30
0.0
  0
VERTEX
  5
1281
  8
0
 10
148.85349130488109
 20
146.75863774254651
 30
0.0
  0
VERTEX
  5
1282
  8
0
 10
148.89518007493839
 20
146.7755199469608
 30
0.0
  0
VERTEX
  5
1283
  8
0
 10
148.91596519596169
 20
146.78417123794571
 30
0.0
  0
VERTEX
  5
1284
  8
0
 10
148.9367072250094
 20
146.79296160234389
 30
0.0
  0
VERTEX
  5
1285
  8
0
 10
148.978051422128
 20
146.8109561154354
 30
0.0
  0
VERTEX
  5
1286
  8
0
 10
149.01919181590051
 20
146.8294961759359
 30
0.0
  0
VERTEX
  5
1287
  8
0
 10
149.06010827618761
 20
146.8485738803908
 30
0.0
  0
VERTEX
  5
1288
  8
0
 10
149.1007821696893
 20
146.8681811424519
 30
0.0
  0
VERTEX
  5
1289
  8
0
 10
149.14119476845721
 20
146.8883089799034
 30
0.0
  0
VERTEX
  5
128A
  8
0
 10
149.16129724303761
 20
146.8985650741493
 30
0.0
  0
VERTEX
  5
128B
  8
0
 10
149.18132741824181
 20
146.90894756811889
 30
0.0
  0
VERTEX
  5
128C
  8
0
 10
149.2211617445667
 20
146.9300863283944
 30
0.0
  0
VERTEX
  5
128D
  8
0
 10
149.26067974287
 20
146.9517139708459
 30
0.0
  0
VERTEX
  5
128E
  8
0
 10
149.2998638592542
 20
146.97381853999551
 30
0.0
  0
VERTEX
  5
128F
  8
0
 10
149.3386970623109
 20
146.99638746257509
 30
0.0
  0
VERTEX
  5
1290
  8
0
 10
149.37716290654711
 20
147.01940759714239
 30
0.0
  0
VERTEX
  5
1291
  8
0
 10
149.39625310393521
 20
147.0310826194081
 30
0.0
  0
VERTEX
  5
1292
  8
0
 10
149.4152455879817
 20
147.04286528517221
 30
0.0
  0
VERTEX
  5
1293
  8
0
 10
149.45292999250711
 20
147.06674640335061
 30
0.0
  0
VERTEX
  5
1294
  8
0
 10
149.4902017533179
 20
147.09103642723619
 30
0.0
  0
VERTEX
  5
1295
  8
0
 10
149.50867997825321
 20
147.10333105657381
 30
0.0
  0
VERTEX
  5
1296
  8
0
 10
149.52705221483001
 20
147.1157238338447
 30
0.0
  0
VERTEX
  5
1297
  8
0
 10
149.56347222186639
 20
147.1407962619374
 30
0.0
  0
VERTEX
  5
1298
  8
0
 10
149.59944898353379
 20
147.16623819248241
 30
0.0
  0
VERTEX
  5
1299
  8
0
 10
149.6172672527502
 20
147.17909271224059
 30
0.0
  0
VERTEX
  5
129A
  8
0
 10
149.6349700897054
 20
147.19203352800511
 30
0.0
  0
VERTEX
  5
129B
  8
0
 10
149.6700235663825
 20
147.21816563172371
 30
0.0
  0
VERTEX
  5
129C
  8
0
 10
149.70459792369221
 20
147.2446173668375
 30
0.0
  0
VERTEX
  5
129D
  8
0
 10
149.73868219712071
 20
147.27137113576021
 30
0.0
  0
VERTEX
  5
129E
  8
0
 10
149.77226598258309
 20
147.29840891915291
 30
0.0
  0
VERTEX
  5
129F
  8
0
 10
149.805339465918
 20
147.32571231466591
 30
0.0
  0
VERTEX
  5
12A0
  8
0
 10
149.8216819447899
 20
147.3394577709625
 30
0.0
  0
VERTEX
  5
12A1
  8
0
 10
149.83789344737701
 20
147.35326257534689
 30
0.0
  0
VERTEX
  5
12A2
  8
0
 10
149.8699193616556
 20
147.38104064772119
 30
0.0
  0
VERTEX
  5
12A3
  8
0
 10
149.90140929074229
 20
147.4090272066743
 30
0.0
  0
VERTEX
  5
12A4
  8
0
 10
149.9323558813868
 20
147.437202605002
 30
0.0
  0
VERTEX
  5
12A5
  8
0
 10
149.96275219372049
 20
147.46554674804929
 30
0.0
  0
VERTEX
  5
12A6
  8
0
 10
149.99259170564841
 20
147.49403909913539
 30
0.0
  0
VERTEX
  5
12A7
  8
0
 10
150.00730074542571
 20
147.50833432225761
 30
0.0
  0
VERTEX
  5
12A8
  8
0
 10
150.02186834441969
 20
147.52265871256409
 30
0.0
  0
VERTEX
  5
12A9
  8
0
 10
150.0505765126828
 20
147.5513842656691
 30
0.0
  0
VERTEX
  5
12AA
  8
0
 10
150.07871110960241
 20
147.58019408993289
 30
0.0
  0
VERTEX
  5
12AB
  8
0
 10
150.17260385778269
 20
147.68137220626249
 30
0.0
  0
VERTEX
  5
12AC
  8
0
 10
150.3197946606191
 20
147.857717945529
 30
0.0
  0
VERTEX
  5
12AD
  8
0
 10
150.45498944745921
 20
148.04317419777371
 30
0.0
  0
VERTEX
  5
12AE
  8
0
 10
150.51789834822259
 20
148.1390383690032
 30
0.0
  0
VERTEX
  5
12AF
  8
0
 10
150.5775530833115
 20
148.23677529889429
 30
0.0
  0
VERTEX
  5
12B0
  8
0
 10
150.6867912803653
 20
148.4371962853341
 30
0.0
  0
VERTEX
  5
12B1
  8
0
 10
150.78219816002539
 20
148.6430503678867
 30
0.0
  0
VERTEX
  5
12B2
  8
0
 10
150.86344774358909
 20
148.85288593370279
 30
0.0
  0
VERTEX
  5
12B3
  8
0
 10
150.9304185442189
 20
149.06527052207429
 30
0.0
  0
VERTEX
  5
12B4
  8
0
 10
150.98315434853771
 20
149.27870777771579
 30
0.0
  0
VERTEX
  5
12B5
  8
0
 10
151.00424515904439
 20
149.3853306141915
 30
0.0
  0
VERTEX
  5
12B6
  8
0
 10
151.0218754504194
 20
149.49162532050789
 30
0.0
  0
VERTEX
  5
12B7
  8
0
 10
151.04700335373309
 20
149.70242986955429
 30
0.0
  0
VERTEX
  5
12B8
  8
0
 10
151.05916604391811
 20
149.90949274529191
 30
0.0
  0
VERTEX
  5
12B9
  8
0
 10
151.0606413429102
 20
150.0111043412731
 30
0.0
  0
SEQEND
  5
12BA
  8
0
  0
POLYLINE
  5
F45
  8
0
 66
     1
 10
0.0
 20
0.0
 30
0.0
  0
VERTEX
  5
12BB
  8
0
 10
147.9465541412186
 20
162.45293768087001
 30
0.0
  0
VERTEX
  5
12BC
  8
0
 10
145.9725665142083
 20
162.66599840981331
 30
0.0
  0
VERTEX
  5
12BD
  8
0
 10
141.98671009017119
 20
163.06013759045391
 30
0.0
  0
VERTEX
  5
12BE
  8
0
 10
137.95534431297099
 20
163.40984314593669
 30
0.0
  0
VERTEX
  5
12BF
  8
0
 10
135.9244802919213
 20
163.5674223578882
 30
0.0
  0
VERTEX
  5
12C0
  8
0
 10
133.88449989987771
 20
163.71319329251381
 30
0.0
  0
VERTEX
  5
12C1
  8
0
 10
129.78019054589441
 20
163.9685338762223
 30
0.0
  0
VERTEX
  5
12C2
  8
0
 10
125.6485042939907
 20
164.17447636897029
 30
0.0
  0
VERTEX
  5
12C3
  8
0
 10
121.4955713796121
 20
164.32990593594559
 30
0.0
  0
VERTEX
  5
12C4
  8
0
 10
117.32753321954461
 20
164.4339865715196
 30
0.0
  0
VERTEX
  5
12C5
  8
0
 10
113.1505540677804
 20
164.48616313921281
 30
0.0
  0
VERTEX
  5
12C6
  8
0
 10
111.0606413429101
 20
164.49269130453939
 30
0.0
  0
VERTEX
  5
12C7
  8
0
 10
108.9707286180398
 20
164.48616313921281
 30
0.0
  0
VERTEX
  5
12C8
  8
0
 10
104.7937494662756
 20
164.4339865715196
 30
0.0
  0
VERTEX
  5
12C9
  8
0
 10
100.6257113062081
 20
164.3299059359457
 30
0.0
  0
VERTEX
  5
12CA
  8
0
 10
96.472778391829607
 20
164.1744763689704
 30
0.0
  0
VERTEX
  5
12CB
  8
0
 10
92.341092139925877
 20
163.96853387622241
 30
0.0
  0
VERTEX
  5
12CC
  8
0
 10
88.236782785942637
 20
163.71319329251389
 30
0.0
  0
VERTEX
  5
12CD
  8
0
 10
86.196802393899077
 20
163.5674223578884
 30
0.0
  0
VERTEX
  5
12CE
  8
0
 10
84.165938372849297
 20
163.4098431459368
 30
0.0
  0
VERTEX
  5
12CF
  8
0
 10
80.134572595649161
 20
163.06013759045399
 30
0.0
  0
VERTEX
  5
12D0
  8
0
 10
76.148716171612094
 20
162.66599840981351
 30
0.0
  0
VERTEX
  5
12D1
  8
0
 10
74.174728544601891
 20
162.45293768087021
 30
0.0
  0
SEQEND
  5
12D2
  8
0
  0
POLYLINE
  5
F46
  8
0
 66
     1
 10
0.0
 20
0.0
 30
0.0
  0
VERTEX
  5
12D3
  8
0
 10
73.330572396195947
 20
162.25100382639741
 30
0.0
  0
VERTEX
  5
12D4
  8
0
 10
73.309612503903921
 20
162.24305890345161
 30
0.0
  0
VERTEX
  5
12D5
  8
0
 10
73.267783922535898
 20
162.22674190181939
 30
0.0
  0
VERTEX
  5
12D6
  8
0
 10
73.226095249241695
 20
162.2098596257494
 30
0.0
  0
VERTEX
  5
12D7
  8
0
 10
73.205310177836139
 20
162.20120830004649
 30
0.0
  0
VERTEX
  5
12D8
  8
0
 10
73.184568199198324
 20
162.19241790168641
 30
0.0
  0
VERTEX
  5
12D9
  8
0
 10
73.143224105177509
 20
162.17442332298319
 30
0.0
  0
VERTEX
  5
12DA
  8
0
 10
73.102083817373028
 20
162.15588320002109
 30
0.0
  0
VERTEX
  5
12DB
  8
0
 10
73.061167465619633
 20
162.1368054362774
 30
0.0
  0
VERTEX
  5
12DC
  8
0
 10
73.020493682983755
 20
162.11719811813941
 30
0.0
  0
VERTEX
  5
12DD
  8
0
 10
72.980081197367184
 20
162.0970702279464
 30
0.0
  0
VERTEX
  5
12DE
  8
0
 10
72.959978780178702
 20
162.08681410860629
 30
0.0
  0
VERTEX
  5
12DF
  8
0
 10
72.939948662886934
 20
162.0764315904056
 30
0.0
  0
VERTEX
  5
12E0
  8
0
 10
72.900114453872703
 20
162.05529278428921
 30
0.0
  0
VERTEX
  5
12E1
  8
0
 10
72.86059657472822
 20
162.03366509953781
 30
0.0
  0
VERTEX
  5
12E2
  8
0
 10
72.821412579183317
 20
162.01156049167361
 30
0.0
  0
VERTEX
  5
12E3
  8
0
 10
72.782579498471236
 20
161.98899153399691
 30
0.0
  0
VERTEX
  5
12E4
  8
0
 10
72.74411377790446
 20
161.96597136797041
 30
0.0
  0
VERTEX
  5
12E5
  8
0
 10
72.725023642790291
 20
161.95429633134239
 30
0.0
  0
VERTEX
  5
12E6
  8
0
 10
72.706031221279375
 20
161.9425136521281
 30
0.0
  0
VERTEX
  5
12E7
  8
0
 10
72.668346942516592
 20
161.91863250978099
 30
0.0
  0
VERTEX
  5
12E8
  8
0
 10
72.631075308152774
 20
161.89434246530359
 30
0.0
  0
VERTEX
  5
12E9
  8
0
 10
72.612597146034787
 20
161.88204782659449
 30
0.0
  0
VERTEX
  5
12EA
  8
0
 10
72.594224972414793
 20
161.86965504084341
 30
0.0
  0
VERTEX
  5
12EB
  8
0
 10
72.557805091654075
 20
161.84458259847401
 30
0.0
  0
VERTEX
  5
12EC
  8
0
 10
72.521828456647384
 20
161.81914065723819
 30
0.0
  0
VERTEX
  5
12ED
  8
0
 10
72.504010250867537
 20
161.8062861334802
 30
0.0
  0
VERTEX
  5
12EE
  8
0
 10
72.486307477398697
 20
161.79334531461231
 30
0.0
  0
VERTEX
  5
12EF
  8
0
 10
72.451254127779038
 20
161.76721320737019
 30
0.0
  0
VERTEX
  5
12F0
  8
0
 10
72.416679897530642
 20
161.74076147229559
 30
0.0
  0
VERTEX
  5
12F1
  8
0
 10
72.382595751034643
 20
161.7140077069493
 30
0.0
  0
VERTEX
  5
12F2
  8
0
 10
72.349012092242504
 20
161.6869699306362
 30
0.0
  0
VERTEX
  5
12F3
  8
0
 10
72.315938735182414
 20
161.65966654566401
 30
0.0
  0
VERTEX
  5
12F4
  8
0
 10
72.299596319258214
 20
161.6459210959205
 30
0.0
  0
VERTEX
  5
12F5
  8
0
 10
72.283384879470361
 20
161.63211629893561
 30
0.0
  0
VERTEX
  5
12F6
  8
0
 10
72.251359090280573
 20
161.60433824386871
 30
0.0
  0
VERTEX
  5
12F7
  8
0
 10
72.219869285498859
 20
161.57635170551669
 30
0.0
  0
VERTEX
  5
12F8
  8
0
 10
72.188922818276879
 20
161.54817633103781
 30
0.0
  0
VERTEX
  5
12F9
  8
0
 10
72.158526628395606
 20
161.51983221504619
 30
0.0
  0
VERTEX
  5
12FA
  8
0
 10
72.128687237861413
 20
161.49133989417379
 30
0.0
  0
VERTEX
  5
12FB
  8
0
 10
72.113978258355985
 20
161.47704468732601
 30
0.0
  0
VERTEX
  5
12FC
  8
0
 10
72.099410719335523
 20
161.46272031406221
 30
0.0
  0
VERTEX
  5
12FD
  8
0
 10
72.070702670079953
 20
161.43399479731539
 30
0.0
  0
VERTEX
  5
12FE
  8
0
 10
72.042568190841848
 20
161.40518501238299
 30
0.0
  0
VERTEX
  5
12FF
  8
0
 10
71.948675842872547
 20
161.30400705601519
 30
0.0
  0
VERTEX
  5
1300
  8
0
 10
71.80148553857012
 20
161.12766147740291
 30
0.0
  0
VERTEX
  5
1301
  8
0
 10
71.666291183149809
 20
160.9422053885838
 30
0.0
  0
VERTEX
  5
1302
  8
0
 10
71.603382487439191
 20
160.8463413174216
 30
0.0
  0
VERTEX
  5
1303
  8
0
 10
71.543727949105971
 20
160.74860449888149
 30
0.0
  0
VERTEX
  5
1304
  8
0
 10
71.434490117706133
 20
160.5481837659708
 30
0.0
  0
VERTEX
  5
1305
  8
0
 10
71.339083562619862
 20
160.34232997306029
 30
0.0
  0
VERTEX
  5
1306
  8
0
 10
71.257834258694686
 20
160.13249472618261
 30
0.0
  0
VERTEX
  5
1307
  8
0
 10
71.190863690103797
 20
159.9201104784255
 30
0.0
  0
VERTEX
  5
1308
  8
0
 10
71.138128069211206
 20
159.7066735786548
 30
0.0
  0
VERTEX
  5
1309
  8
0
 10
71.117037332072229
 20
159.60005092344051
 30
0.0
  0
VERTEX
  5
130A
  8
0
 10
71.0994071019324
 20
159.49375639928229
 30
0.0
  0
VERTEX
  5
130B
  8
0
 10
71.074279285496431
 20
159.28295221329719
 30
0.0
  0
VERTEX
  5
130C
  8
0
 10
71.062116636918972
 20
159.0758896922068
 30
0.0
  0
VERTEX
  5
130D
  8
0
 10
71.06064134291023
 20
158.97427826780549
 30
0.0
  0
SEQEND
  5
130E
  8
0
  0
POLYLINE
  5
F47
  8
0
 66
     1
 10
0.0
 20
0.0
 30
0.0
  0
VERTEX
  5
130F
  8
0
 10
74.174728544601905
 20
162.45293768087001
 30
0.0
  0
VERTEX
  5
1310
  8
0
 10
74.151132105571904
 20
162.45023888100789
 30
0.0
  0
VERTEX
  5
1311
  8
0
 10
74.103893722990847
 20
162.4443476636099
 30
0.0
  0
VERTEX
  5
1312
  8
0
 10
74.056609344774571
 20
162.43779551835519
 30
0.0
  0
VERTEX
  5
1313
  8
0
 10
74.03295540481821
 20
162.43427068842439
 30
0.0
  0
VERTEX
  5
1314
  8
0
 10
74.009296556363211
 20
162.43057960396641
 30
0.0
  0
VERTEX
  5
1315
  8
0
 10
73.961972879437241
 20
162.42269762612651
 30
0.0
  0
VERTEX
  5
1316
  8
0
 10
73.914655735742144
 20
162.4141478286075
 30
0.0
  0
VERTEX
  5
1317
  8
0
 10
73.867362305740016
 20
162.4049289606946
 30
0.0
  0
VERTEX
  5
1318
  8
0
 10
73.820108829399771
 20
162.39504011225389
 30
0.0
  0
VERTEX
  5
1319
  8
0
 10
73.772912034351606
 20
162.38448097973301
 30
0.0
  0
VERTEX
  5
131A
  8
0
 10
73.749340176026635
 20
162.37895011933739
 30
0.0
  0
VERTEX
  5
131B
  8
0
 10
73.725788827452163
 20
162.37325183013769
 30
0.0
  0
VERTEX
  5
131C
  8
0
 10
73.678756096343321
 20
162.361353468017
 30
0.0
  0
VERTEX
  5
131D
  8
0
 10
73.63183067318667
 20
162.3487872305744
 30
0.0
  0
VERTEX
  5
131E
  8
0
 10
73.585029299132444
 20
162.33555498060909
 30
0.0
  0
VERTEX
  5
131F
  8
0
 10
73.538368589477074
 20
162.3216590972882
 30
0.0
  0
VERTEX
  5
1320
  8
0
 10
73.491864999468731
 20
162.30710246474419
 30
0.0
  0
VERTEX
  5
1321
  8
0
 10
73.468677214557857
 20
162.2995774035814
 30
0.0
  0
VERTEX
  5
1322
  8
0
 10
73.445534790726384
 20
162.2918884584814
 30
0.0
  0
VERTEX
  5
1323
  8
0
 10
73.399393998245188
 20
162.27602092956889
 30
0.0
  0
VERTEX
  5
1324
  8
0
 10
73.353458397967273
 20
162.2595041865878
 30
0.0
  0
VERTEX
  5
1325
  8
0
 10
73.330572396195976
 20
162.25100382639741
 30
0.0
  0
SEQEND
  5
1326
  8
0
  0
POLYLINE
  5
F48
  8
0
 66
     1
 10
0.0
 20
0.0
 30
0.0
  0
VERTEX
  5
1327
  8
0
 10
74.174728544601905
 20
146.53244492820861
 30
0.0
  0
VERTEX
  5
1328
  8
0
 10
76.148716171612094
 20
146.3193841992651
 30
0.0
  0
VERTEX
  5
1329
  8
0
 10
80.134572595649175
 20
145.92524501862459
 30
0.0
  0
VERTEX
  5
132A
  8
0
 10
84.165938372849311
 20
145.57553946314181
 30
0.0
  0
VERTEX
  5
132B
  8
0
 10
86.196802393899105
 20
145.41796025119021
 30
0.0
  0
VERTEX
  5
132C
  8
0
 10
88.236782785942637
 20
145.27218931656469
 30
0.0
  0
VERTEX
  5
132D
  8
0
 10
92.341092139925877
 20
145.01684873285609
 30
0.0
  0
VERTEX
  5
132E
  8
0
 10
96.472778391829621
 20
144.81090624010821
 30
0.0
  0
VERTEX
  5
132F
  8
0
 10
100.6257113062081
 20
144.6554766731328
 30
0.0
  0
VERTEX
  5
1330
  8
0
 10
104.7937494662756
 20
144.5513960375589
 30
0.0
  0
VERTEX
  5
1331
  8
0
 10
108.9707286180398
 20
144.49921946986569
 30
0.0
  0
VERTEX
  5
1332
  8
0
 10
111.0606413429101
 20
144.49269130453911
 30
0.0
  0
VERTEX
  5
1333
  8
0
 10
113.1505540677804
 20
144.49921946986569
 30
0.0
  0
VERTEX
  5
1334
  8
0
 10
117.32753321954461
 20
144.5513960375589
 30
0.0
  0
VERTEX
  5
1335
  8
0
 10
121.4955713796121
 20
144.6554766731328
 30
0.0
  0
VERTEX
  5
1336
  8
0
 10
125.6485042939907
 20
144.8109062401081
 30
0.0
  0
VERTEX
  5
1337
  8
0
 10
129.78019054589441
 20
145.016848732856
 30
0.0
  0
VERTEX
  5
1338
  8
0
 10
133.88449989987771
 20
145.27218931656449
 30
0.0
  0
VERTEX
  5
1339
  8
0
 10
135.9244802919213
 20
145.41796025119001
 30
0.0
  0
VERTEX
  5
133A
  8
0
 10
137.95534431297099
 20
145.57553946314161
 30
0.0
  0
VERTEX
  5
133B
  8
0
 10
141.98671009017119
 20
145.92524501862431
 30
0.0
  0
VERTEX
  5
133C
  8
0
 10
145.9725665142083
 20
146.3193841992649
 30
0.0
  0
VERTEX
  5
133D
  8
0
 10
147.9465541412186
 20
146.53244492820829
 30
0.0
  0
SEQEND
  5
133E
  8
0
  0
POLYLINE
  5
F49
  8
0
 66
     1
 10
0.0
 20
0.0
 30
0.0
  0
VERTEX
  5
133F
  8
0
 10
151.0606413429102
 20
158.9742782678054
 30
0.0
  0
VERTEX
  5
1340
  8
0
 10
151.05916604391811
 20
159.0758898637865
 30
0.0
  0
VERTEX
  5
1341
  8
0
 10
151.04700335373309
 20
159.28295273952421
 30
0.0
  0
VERTEX
  5
1342
  8
0
 10
151.0218754504194
 20
159.49375728857061
 30
0.0
  0
VERTEX
  5
1343
  8
0
 10
151.00424515904439
 20
159.60005199488711
 30
0.0
  0
VERTEX
  5
1344
  8
0
 10
150.98315434853771
 20
159.70667483136279
 30
0.0
  0
VERTEX
  5
1345
  8
0
 10
150.9304185442189
 20
159.9201120870043
 30
0.0
  0
VERTEX
  5
1346
  8
0
 10
150.86344774358909
 20
160.13249667537571
 30
0.0
  0
VERTEX
  5
1347
  8
0
 10
150.78219816002539
 20
160.3423322411918
 30
0.0
  0
VERTEX
  5
1348
  8
0
 10
150.6867912803653
 20
160.5481863237444
 30
0.0
  0
VERTEX
  5
1349
  8
0
 10
150.5775530833115
 20
160.74860731018421
 30
0.0
  0
VERTEX
  5
134A
  8
0
 10
150.51789834822259
 20
160.8463442400753
 30
0.0
  0
VERTEX
  5
134B
  8
0
 10
150.45498944745921
 20
160.9422084113049
 30
0.0
  0
VERTEX
  5
134C
  8
0
 10
150.3197946606191
 20
161.1276646635495
 30
0.0
  0
VERTEX
  5
134D
  8
0
 10
150.23544681714611
 20
161.23158101112489
 30
0.0
  0
VERTEX
  5
134E
  8
0
 10
150.2106420883328
 20
161.26065007686441
 30
0.0
  0
VERTEX
  5
134F
  8
0
 10
150.185429967593
 20
161.2895503200136
 30
0.0
  0
VERTEX
  5
1350
  8
0
 10
150.17260385778269
 20
161.304010402816
 30
0.0
  0
VERTEX
  5
1351
  8
0
 10
150.15963023338759
 20
161.31847466469179
 30
0.0
  0
VERTEX
  5
1352
  8
0
 10
150.13324176447921
 20
161.3474042802504
 30
0.0
  0
VERTEX
  5
1353
  8
0
 10
150.1062675475028
 20
161.3763164079048
 30
0.0
  0
VERTEX
  5
1354
  8
0
 10
150.07871110960241
 20
161.40518851914561
 30
0.0
  0
VERTEX
  5
1355
  8
0
 10
150.0505765126828
 20
161.4339983434094
 30
0.0
  0
VERTEX
  5
1356
  8
0
 10
150.02186834441969
 20
161.4627238965144
 30
0.0
  0
VERTEX
  5
1357
  8
0
 10
150.00730074542571
 20
161.47704828682089
 30
0.0
  0
VERTEX
  5
1358
  8
0
 10
149.99259170564841
 20
161.49134350994311
 30
0.0
  0
VERTEX
  5
1359
  8
0
 10
149.96275219372049
 20
161.51983586102929
 30
0.0
  0
VERTEX
  5
135A
  8
0
 10
149.93235588138671
 20
161.5481800040765
 30
0.0
  0
VERTEX
  5
135B
  8
0
 10
149.90140929074229
 20
161.5763554024042
 30
0.0
  0
VERTEX
  5
135C
  8
0
 10
149.8699193616556
 20
161.60434196135731
 30
0.0
  0
VERTEX
  5
135D
  8
0
 10
149.83789344737701
 20
161.63212003373161
 30
0.0
  0
VERTEX
  5
135E
  8
0
 10
149.82168194478979
 20
161.64592483811589
 30
0.0
  0
VERTEX
  5
135F
  8
0
 10
149.805339465918
 20
161.65967029441259
 30
0.0
  0
VERTEX
  5
1360
  8
0
 10
149.77226598258309
 20
161.68697368992559
 30
0.0
  0
VERTEX
  5
1361
  8
0
 10
149.73868219712071
 20
161.71401147331841
 30
0.0
  0
VERTEX
  5
1362
  8
0
 10
149.70459792369221
 20
161.740765242241
 30
0.0
  0
VERTEX
  5
1363
  8
0
 10
149.6700235663825
 20
161.76721697735479
 30
0.0
  0
VERTEX
  5
1364
  8
0
 10
149.6349700897054
 20
161.79334908107339
 30
0.0
  0
VERTEX
  5
1365
  8
0
 10
149.6172672527502
 20
161.80628989683791
 30
0.0
  0
VERTEX
  5
1366
  8
0
 10
149.59944898353379
 20
161.81914441659609
 30
0.0
  0
VERTEX
  5
1367
  8
0
 10
149.56347222186639
 20
161.8445863471411
 30
0.0
  0
VERTEX
  5
1368
  8
0
 10
149.52705221483001
 20
161.8696587752338
 30
0.0
  0
VERTEX
  5
1369
  8
0
 10
149.50867997825321
 20
161.88205155250481
 30
0.0
  0
VERTEX
  5
136A
  8
0
 10
149.4902017533179
 20
161.89434618184231
 30
0.0
  0
VERTEX
  5
136B
  8
0
 10
149.45292999250711
 20
161.91863620572789
 30
0.0
  0
VERTEX
  5
136C
  8
0
 10
149.4152455879817
 20
161.94251732390629
 30
0.0
  0
VERTEX
  5
136D
  8
0
 10
149.39625310393521
 20
161.9542999896704
 30
0.0
  0
VERTEX
  5
136E
  8
0
 10
149.37716290654711
 20
161.96597501193611
 30
0.0
  0
VERTEX
  5
136F
  8
0
 10
149.3386970623109
 20
161.98899514650341
 30
0.0
  0
VERTEX
  5
1370
  8
0
 10
149.2998638592542
 20
162.01156406908299
 30
0.0
  0
VERTEX
  5
1371
  8
0
 10
149.26067974287
 20
162.0336686382326
 30
0.0
  0
VERTEX
  5
1372
  8
0
 10
149.2211617445667
 20
162.0552962806841
 30
0.0
  0
VERTEX
  5
1373
  8
0
 10
149.18132741824181
 20
162.07643504095961
 30
0.0
  0
VERTEX
  5
1374
  8
0
 10
149.16129724303761
 20
162.0868175349292
 30
0.0
  0
VERTEX
  5
1375
  8
0
 10
149.14119476845721
 20
162.0970736291751
 30
0.0
  0
VERTEX
  5
1376
  8
0
 10
149.1007821696893
 20
162.1172014666266
 30
0.0
  0
VERTEX
  5
1377
  8
0
 10
149.06010827618761
 20
162.13680872868761
 30
0.0
  0
VERTEX
  5
1378
  8
0
 10
149.01919181590051
 20
162.1558864331426
 30
0.0
  0
VERTEX
  5
1379
  8
0
 10
148.978051422128
 20
162.1744264936431
 30
0.0
  0
VERTEX
  5
137A
  8
0
 10
148.9367072250094
 20
162.19242100673469
 30
0.0
  0
VERTEX
  5
137B
  8
0
 10
148.91596519596169
 20
162.20121137113281
 30
0.0
  0
VERTEX
  5
137C
  8
0
 10
148.89518007493839
 20
162.2098626621177
 30
0.0
  0
VERTEX
  5
137D
  8
0
 10
148.85349130488109
 20
162.22674486653199
 30
0.0
  0
VERTEX
  5
137E
  8
0
 10
148.8116626302014
 20
162.24306179363651
 30
0.0
  0
VERTEX
  5
137F
  8
0
 10
148.7907026926035
 20
162.25100667827689
 30
0.0
  0
SEQEND
  5
1380
  8
0
  0
POLYLINE
  5
F4A
  8
0
 66
     1
 10
0.0
 20
0.0
 30
0.0
  0
VERTEX
  5
1381
  8
0
 10
148.7907026926035
 20
162.25100667827689
 30
0.0
  0
VERTEX
  5
1382
  8
0
 10
148.76781681544429
 20
162.2595069323755
 30
0.0
  0
VERTEX
  5
1383
  8
0
 10
148.72188156379951
 20
162.27602343504489
 30
0.0
  0
VERTEX
  5
1384
  8
0
 10
148.67574123763171
 20
162.29189069616299
 30
0.0
  0
VERTEX
  5
1385
  8
0
 10
148.65259908530291
 20
162.2995795006006
 30
0.0
  0
VERTEX
  5
1386
  8
0
 10
148.62941159426879
 20
162.30710441835859
 30
0.0
  0
VERTEX
  5
1387
  8
0
 10
148.5829086492746
 20
162.32166076078991
 30
0.0
  0
VERTEX
  5
1388
  8
0
 10
148.53624864409659
 20
162.3355563571447
 30
0.0
  0
VERTEX
  5
1389
  8
0
 10
148.48944801314801
 20
162.34878833140311
 30
0.0
  0
VERTEX
  5
138A
  8
0
 10
148.4425233503035
 20
162.36135431139181
 30
0.0
  0
VERTEX
  5
138B
  8
0
 10
148.39549137478161
 20
162.37325244015281
 30
0.0
  0
VERTEX
  5
138C
  8
0
 10
148.3719403952546
 20
162.37895062321141
 30
0.0
  0
VERTEX
  5
138D
  8
0
 10
148.34836889637981
 20
162.38448138514391
 30
0.0
  0
VERTEX
  5
138E
  8
0
 10
148.30117278002189
 20
162.3950403452744
 30
0.0
  0
VERTEX
  5
138F
  8
0
 10
148.25391990957249
 20
162.40492905577659
 30
0.0
  0
VERTEX
  5
1390
  8
0
 10
148.20662697978591
 20
162.41414782302849
 30
0.0
  0
VERTEX
  5
1391
  8
0
 10
148.15931020977629
 20
162.4226975560947
 30
0.0
  0
VERTEX
  5
1392
  8
0
 10
148.11198676487021
 20
162.43057950260601
 30
0.0
  0
VERTEX
  5
1393
  8
0
 10
148.0883279722174
 20
162.43427058300659
 30
0.0
  0
VERTEX
  5
1394
  8
0
 10
148.0646740440886
 20
162.43779541604411
 30
0.0
  0
VERTEX
  5
1395
  8
0
 10
148.01738954594461
 20
162.44434758685739
 30
0.0
  0
VERTEX
  5
1396
  8
0
 10
147.9701508323478
 20
162.4502388513076
 30
0.0
  0
VERTEX
  5
1397
  8
0
 10
147.9465541412186
 20
162.45293768086989
 30
0.0
  0
SEQEND
  5
1398
  8
0
  0
LINE
  5
F4B
  8
1
 10
64.411329452129621
 20
154.49269130453931
 30
0.0
 11
159.04044749033281
 21
154.49269130453931
 31
0.0
  0
LINE
  5
F4C
  8
2
 10
203.74392639133089
 20
102.9654508418312
 30
0.0
 11
203.74392639133089
 21
103.4654508418312
 31
0.0
  0
LINE
  5
F4D
  8
2
 10
195.74392639133089
 20
103.4654508418312
 30
0.0
 11
195.74392639133089
 21
102.9654508418312
 31
0.0
  0
LINE
  5
F4E
  8
0
 10
205.74392639133089
 20
61.465450841831228
 30
0.0
 11
205.74392639133089
 21
61.66545084183123
 31
0.0
  0
LINE
  5
F4F
  8
0
 10
193.74392639133089
 20
61.66545084183123
 30
0.0
 11
193.74392639133089
 21
61.465450841831228
 31
0.0
  0
LINE
  5
F51
  8
0
 10
195.74392639133089
 20
103.465450841831
 30
0.0
 11
189.74392639133069
 21
103.465450841831
 31
0.0
  0
LINE
  5
F52
  8
0
 10
209.743926391331
 20
103.465450841831
 30
0.0
 11
195.74392639133089
 21
103.465450841831
 31
0.0
  0
LINE
  5
F53
  8
0
 10
209.743926391331
 20
62.46545084183122
 30
0.0
 11
209.743926391331
 21
103.465450841831
 31
0.0
  0
LINE
  5
F54
  8
0
 10
189.74392639133069
 20
103.465450841831
 30
0.0
 11
189.74392639133069
 21
62.46545084183122
 31
0.0
  0
LINE
  5
F55
  8
2
 10
203.74392639133089
 20
102.9654508418312
 30
0.0
 11
195.74392639133089
 21
102.9654508418312
 31
0.0
  0
LINE
  5
F56
  8
0
 10
193.74392639133089
 20
61.465450841831228
 30
0.0
 11
205.74392639133089
 21
61.465450841831228
 31
0.0
  0
LINE
  5
F59
  8
0
 10
191.98561101759319
 20
101.7257139958007
 30
0.0
 11
207.50224176506859
 21
101.7257139958007
 31
0.0
  0
POLYLINE
  5
F5A
  8
0
 66
     1
 10
0.0
 20
0.0
 30
0.0
  0
VERTEX
  5
1399
  8
0
 10
191.78368001500019
 20
101.8028474111823
 30
0.0
  0
VERTEX
  5
139A
  8
0
 10
191.78637884456251
 20
101.8007151887267
 30
0.0
  0
VERTEX
  5
139B
  8
0
 10
191.7922701090128
 20
101.79644251679269
 30
0.0
  0
VERTEX
  5
139C
  8
0
 10
191.79882227982611
 20
101.79216018601571
 30
0.0
  0
VERTEX
  5
139D
  8
0
 10
191.8023471128636
 20
101.7900158913538
 30
0.0
  0
VERTEX
  5
139E
  8
0
 10
191.8060381932641
 20
101.7878697737612
 30
0.0
  0
VERTEX
  5
139F
  8
0
 10
191.81392013977549
 20
101.78357285983149
 30
0.0
  0
VERTEX
  5
13A0
  8
0
 10
191.82246987284171
 20
101.7792710231532
 30
0.0
  0
VERTEX
  5
13A1
  8
0
 10
191.83168864009369
 20
101.77496582949659
 30
0.0
  0
VERTEX
  5
13A2
  8
0
 10
191.84157735059591
 20
101.7706587663462
 30
0.0
  0
VERTEX
  5
13A3
  8
0
 10
191.85213631072639
 20
101.7663513721853
 30
0.0
  0
VERTEX
  5
13A4
  8
0
 10
191.8576670726589
 20
101.7641980393048
 30
0.0
  0
VERTEX
  5
13A5
  8
0
 10
191.8633652557175
 20
101.76204521055431
 30
0.0
  0
VERTEX
  5
13A6
  8
0
 10
191.8752633844785
 20
101.7577418510851
 30
0.0
  0
VERTEX
  5
13A7
  8
0
 10
191.88782936446711
 20
101.75344286613991
 30
0.0
  0
VERTEX
  5
13A8
  8
0
 10
191.9010613387255
 20
101.7491498274841
 30
0.0
  0
VERTEX
  5
13A9
  8
0
 10
191.91495693508031
 20
101.7448643029923
 30
0.0
  0
VERTEX
  5
13AA
  8
0
 10
191.92951327751149
 20
101.740587853382
 30
0.0
  0
VERTEX
  5
13AB
  8
0
 10
191.93703819526951
 20
101.7384535166274
 30
0.0
  0
VERTEX
  5
13AC
  8
0
 10
191.94472699970709
 20
101.73632202897591
 30
0.0
  0
VERTEX
  5
13AD
  8
0
 10
191.96059426082519
 20
101.73206836648799
 30
0.0
  0
VERTEX
  5
13AE
  8
0
 10
191.97711076349461
 20
101.72782838583601
 30
0.0
  0
VERTEX
  5
13AF
  8
0
 10
191.98561101759319
 20
101.7257139958007
 30
0.0
  0
SEQEND
  5
13B0
  8
0
  0
POLYLINE
  5
F5B
  8
0
 66
     1
 10
0.0
 20
0.0
 30
0.0
  0
VERTEX
  5
13B1
  8
0
 10
191.88003252300709
 20
88.465450841831384
 30
0.0
  0
VERTEX
  5
13B2
  8
0
 10
191.85847185025901
 20
88.476296127159088
 30
0.0
  0
VERTEX
  5
13B3
  8
0
 10
191.8219638040367
 20
88.497951391708213
 30
0.0
  0
VERTEX
  5
13B4
  8
0
 10
191.79425817168689
 20
88.519473874185664
 30
0.0
  0
VERTEX
  5
13B5
  8
0
 10
191.78368001500019
 20
88.530153158879955
 30
0.0
  0
SEQEND
  5
13B6
  8
0
  0
POLYLINE
  5
F5C
  8
0
 66
     1
 10
0.0
 20
0.0
 30
0.0
  0
VERTEX
  5
13B7
  8
0
 10
207.70417276766159
 20
101.8028474111823
 30
0.0
  0
VERTEX
  5
13B8
  8
0
 10
208.31137267724549
 20
102.2974191024353
 30
0.0
  0
VERTEX
  5
13B9
  8
0
 10
209.21976896301399
 20
103.0378845793045
 30
0.0
  0
VERTEX
  5
13BA
  8
0
 10
209.68522165831121
 20
103.417553002811
 30
0.0
  0
VERTEX
  5
13BB
  8
0
 10
209.743926391331
 20
103.465450841831
 30
0.0
  0
SEQEND
  5
13BC
  8
0
  0
POLYLINE
  5
F5D
  8
0
 66
     1
 10
0.0
 20
0.0
 30
0.0
  0
VERTEX
  5
13BD
  8
0
 10
209.67613674465889
 20
63.619296995677381
 30
0.0
  0
VERTEX
  5
13BE
  8
0
 10
209.68391230526109
 20
63.407135762746989
 30
0.0
  0
VERTEX
  5
13BF
  8
0
 10
209.69834373772031
 20
63.00288962001833
 30
0.0
  0
VERTEX
  5
13C0
  8
0
 10
209.71108194701881
 20
62.63375267847092
 30
0.0
  0
VERTEX
  5
13C1
  8
0
 10
209.71675036433669
 20
62.46545084183122
 30
0.0
  0
SEQEND
  5
13C2
  8
0
  0
POLYLINE
  5
F5E
  8
0
 66
     1
 10
0.0
 20
0.0
 30
0.0
  0
VERTEX
  5
13C3
  8
0
 10
209.71675036433669
 20
62.465450841831242
 30
0.0
  0
VERTEX
  5
13C4
  8
0
 10
209.71108194701901
 20
62.633752678464518
 30
0.0
  0
VERTEX
  5
13C5
  8
0
 10
209.69834373772039
 20
63.002889620014059
 30
0.0
  0
VERTEX
  5
13C6
  8
0
 10
209.68391230526109
 20
63.40713576274544
 30
0.0
  0
VERTEX
  5
13C7
  8
0
 10
209.67613674465889
 20
63.619296995677381
 30
0.0
  0
SEQEND
  5
13C8
  8
0
  0
LINE
  5
F5F
  8
0
 10
209.67613674465881
 20
63.619296995677381
 30
0.0
 11
209.67613674465881
 21
79.005450841831205
 31
0.0
  0
POLYLINE
  5
F60
  8
0
 66
     1
 10
0.0
 20
0.0
 30
0.0
  0
VERTEX
  5
13C9
  8
0
 10
209.67613674465889
 20
79.005450841831205
 30
0.0
  0
VERTEX
  5
13CA
  8
0
 10
209.67613224885119
 20
79.054763165788899
 30
0.0
  0
VERTEX
  5
13CB
  8
0
 10
209.67609640137249
 20
79.153163580405703
 30
0.0
  0
VERTEX
  5
13CC
  8
0
 10
209.67602499911729
 20
79.251266183281984
 30
0.0
  0
VERTEX
  5
13CD
  8
0
 10
209.6759760548272
 20
79.300206220463863
 30
0.0
  0
VERTEX
  5
13CE
  8
0
 10
209.6759183270828
 20
79.349072293470144
 30
0.0
  0
VERTEX
  5
13CF
  8
0
 10
209.67577664952611
 20
79.446583162371908
 30
0.0
  0
VERTEX
  5
13D0
  8
0
 10
209.6756002105229
 20
79.543799998306753
 30
0.0
  0
VERTEX
  5
13D1
  8
0
 10
209.6753892344434
 20
79.640723988355504
 30
0.0
  0
VERTEX
  5
13D2
  8
0
 10
209.67514392635661
 20
79.737356317023384
 30
0.0
  0
VERTEX
  5
13D3
  8
0
 10
209.6748644723717
 20
79.833698181379575
 30
0.0
  0
VERTEX
  5
13D4
  8
0
 10
209.67471199371479
 20
79.881760569841646
 30
0.0
  0
VERTEX
  5
13D5
  8
0
 10
209.6745510399293
 20
79.929750802443891
 30
0.0
  0
VERTEX
  5
13D6
  8
0
 10
209.67420377805141
 20
80.025515432705888
 30
0.0
  0
VERTEX
  5
13D7
  8
0
 10
209.67382281756321
 20
80.120993359766075
 30
0.0
  0
VERTEX
  5
13D8
  8
0
 10
209.67340827129371
 20
80.216185906189324
 30
0.0
  0
VERTEX
  5
13D9
  8
0
 10
209.6729602342669
 20
80.311094425745978
 30
0.0
  0
VERTEX
  5
13DA
  8
0
 10
209.6724787838908
 20
80.405720296290269
 30
0.0
  0
VERTEX
  5
13DB
  8
0
 10
209.6722255481175
 20
80.452927672900799
 30
0.0
  0
VERTEX
  5
13DC
  8
0
 10
209.67196398015199
 20
80.500064909585731
 30
0.0
  0
VERTEX
  5
13DD
  8
0
 10
209.6714158658221
 20
80.594129658431356
 30
0.0
  0
VERTEX
  5
13DE
  8
0
 10
209.6708344666811
 20
80.687915921474726
 30
0.0
  0
VERTEX
  5
13DF
  8
0
 10
209.67053128877629
 20
80.734705043603441
 30
0.0
  0
VERTEX
  5
13E0
  8
0
 10
209.67021979176201
 20
80.781425046114578
 30
0.0
  0
VERTEX
  5
13E1
  8
0
 10
209.6695718336197
 20
80.874658329901294
 30
0.0
  0
VERTEX
  5
13E2
  8
0
 10
209.66889056862649
 20
80.967617000838558
 30
0.0
  0
VERTEX
  5
13E3
  8
0
 10
209.6685375485857
 20
81.01397889725024
 30
0.0
  0
VERTEX
  5
13E4
  8
0
 10
209.66817651836749
 20
81.060231189848565
 30
0.0
  0
VERTEX
  5
13E5
  8
0
 10
209.66743054753911
 20
81.152400840067187
 30
0.0
  0
VERTEX
  5
13E6
  8
0
 10
209.66665288052511
 20
81.244116038023904
 30
0.0
  0
VERTEX
  5
13E7
  8
0
 10
209.6658437408185
 20
81.335367378647192
 30
0.0
  0
VERTEX
  5
13E8
  8
0
 10
209.66500335489221
 20
81.426145506319656
 30
0.0
  0
VERTEX
  5
13E9
  8
0
 10
209.6641319526303
 20
81.516441114352276
 30
0.0
  0
VERTEX
  5
13EA
  8
0
 10
209.6636846932584
 20
81.561405077892374
 30
0.0
  0
VERTEX
  5
13EB
  8
0
 10
209.66322976779171
 20
81.606244942189107
 30
0.0
  0
VERTEX
  5
13EC
  8
0
 10
209.66229703850729
 20
81.69554777085915
 30
0.0
  0
VERTEX
  5
13ED
  8
0
 10
209.66133400781041
 20
81.784340417145188
 30
0.0
  0
VERTEX
  5
13EE
  8
0
 10
209.6577284207884
 20
82.090965007403355
 30
0.0
  0
VERTEX
  5
13EF
  8
0
 10
209.6507242994245
 20
82.60067965524685
 30
0.0
  0
VERTEX
  5
13F0
  8
0
 10
209.64268880784849
 20
83.091390335275406
 30
0.0
  0
VERTEX
  5
13F1
  8
0
 10
209.63340396322741
 20
83.574460803172556
 30
0.0
  0
VERTEX
  5
13F2
  8
0
 10
209.6282627885937
 20
83.813146319815814
 30
0.0
  0
VERTEX
  5
13F3
  8
0
 10
209.622777870324
 20
84.049595152295453
 30
0.0
  0
VERTEX
  5
13F4
  8
0
 10
209.6107425178636
 20
84.514764185723635
 30
0.0
  0
VERTEX
  5
13F5
  8
0
 10
209.5972292518361
 20
84.967907873747777
 30
0.0
  0
VERTEX
  5
13F6
  8
0
 10
209.58217067475371
 20
85.406926604099539
 30
0.0
  0
VERTEX
  5
13F7
  8
0
 10
209.56550280305859
 20
85.829688623434151
 30
0.0
  0
VERTEX
  5
13F8
  8
0
 10
209.5471363954847
 20
86.234686505977635
 30
0.0
  0
VERTEX
  5
13F9
  8
0
 10
209.53726391141441
 20
86.430469127711717
 30
0.0
  0
VERTEX
  5
13FA
  8
0
 10
209.52691527530899
 20
86.621423323638325
 30
0.0
  0
VERTEX
  5
13FB
  8
0
 10
209.50474445015129
 20
86.987688497358363
 30
0.0
  0
VERTEX
  5
13FC
  8
0
 10
209.48053543855681
 20
87.331156908614076
 30
0.0
  0
VERTEX
  5
13FD
  8
0
 10
209.4676398943997
 20
87.493612722191244
 30
0.0
  0
SEQEND
  5
13FE
  8
0
  0
POLYLINE
  5
F61
  8
0
 66
     1
 10
0.0
 20
0.0
 30
0.0
  0
VERTEX
  5
13FF
  8
0
 10
209.4676398943997
 20
87.493612722191244
 30
0.0
  0
VERTEX
  5
1400
  8
0
 10
209.46162037588579
 20
87.614097588363478
 30
0.0
  0
VERTEX
  5
1401
  8
0
 10
209.44902341828021
 20
87.847968078657715
 30
0.0
  0
VERTEX
  5
1402
  8
0
 10
209.43567989517101
 20
88.071600955397656
 30
0.0
  0
VERTEX
  5
1403
  8
0
 10
209.42872803473409
 20
88.179308190652577
 30
0.0
  0
VERTEX
  5
1404
  8
0
 10
209.42158967173319
 20
88.284144840607937
 30
0.0
  0
VERTEX
  5
1405
  8
0
 10
209.40675598659601
 20
88.484837399105587
 30
0.0
  0
VERTEX
  5
1406
  8
0
 10
209.3911873201863
 20
88.672982979476444
 30
0.0
  0
VERTEX
  5
1407
  8
0
 10
209.37489739523721
 20
88.847962328627247
 30
0.0
  0
VERTEX
  5
1408
  8
0
 10
209.35790490062959
 20
89.009241402480328
 30
0.0
  0
VERTEX
  5
1409
  8
0
 10
209.3402303094399
 20
89.156398389502044
 30
0.0
  0
VERTEX
  5
140A
  8
0
 10
209.3311427061295
 20
89.224586192598835
 30
0.0
  0
VERTEX
  5
140B
  8
0
 10
209.3218932116944
 20
89.289125715852407
 30
0.0
  0
VERTEX
  5
140C
  8
0
 10
209.3029264620499
 20
89.407122103326316
 30
0.0
  0
VERTEX
  5
140D
  8
0
 10
209.28336980517651
 20
89.510166230064215
 30
0.0
  0
VERTEX
  5
140E
  8
0
 10
209.2632688362271
 20
89.598128026439838
 30
0.0
  0
VERTEX
  5
140F
  8
0
 10
209.2426742704796
 20
89.670972513944363
 30
0.0
  0
VERTEX
  5
1410
  8
0
 10
209.22164200372089
 20
89.728758260799125
 30
0.0
  0
VERTEX
  5
1411
  8
0
 10
209.210981045637
 20
89.752046971491154
 30
0.0
  0
VERTEX
  5
1412
  8
0
 10
209.20023469530781
 20
89.771634192642495
 30
0.0
  0
VERTEX
  5
1413
  8
0
 10
209.17852158671371
 20
89.799845286076163
 30
0.0
  0
VERTEX
  5
1414
  8
0
 10
209.156577506128
 20
89.813737744088812
 30
0.0
  0
VERTEX
  5
1415
  8
0
 10
209.14554347665489
 20
89.81545084183125
 30
0.0
  0
SEQEND
  5
1416
  8
0
  0
POLYLINE
  5
F62
  8
0
 66
     1
 10
0.0
 20
0.0
 30
0.0
  0
VERTEX
  5
1417
  8
0
 10
209.14554347665489
 20
89.815450841831236
 30
0.0
  0
VERTEX
  5
1418
  8
0
 10
208.96162779405009
 20
89.711459535457607
 30
0.0
  0
VERTEX
  5
1419
  8
0
 10
208.52415540294791
 20
89.368141199566836
 30
0.0
  0
VERTEX
  5
141A
  8
0
 10
207.99828471617121
 20
88.850971798883563
 30
0.0
  0
VERTEX
  5
141B
  8
0
 10
207.70417276766159
 20
88.530153158879983
 30
0.0
  0
SEQEND
  5
141C
  8
0
  0
POLYLINE
  5
F63
  8
0
 66
     1
 10
0.0
 20
0.0
 30
0.0
  0
VERTEX
  5
141D
  8
0
 10
190.34230930600671
 20
89.81545084183125
 30
0.0
  0
VERTEX
  5
141E
  8
0
 10
190.33127527653679
 20
89.813737744089821
 30
0.0
  0
VERTEX
  5
141F
  8
0
 10
190.3093311959575
 20
89.7998452860854
 30
0.0
  0
VERTEX
  5
1420
  8
0
 10
190.28761808736959
 20
89.771634192668557
 30
0.0
  0
VERTEX
  5
1421
  8
0
 10
190.27687173704351
 20
89.752046971528955
 30
0.0
  0
VERTEX
  5
1422
  8
0
 10
190.26621077896249
 20
89.728758260850853
 30
0.0
  0
VERTEX
  5
1423
  8
0
 10
190.24517851220941
 20
89.670972514030737
 30
0.0
  0
VERTEX
  5
1424
  8
0
 10
190.22458394646739
 20
89.598128026569825
 30
0.0
  0
VERTEX
  5
1425
  8
0
 10
190.2044829775229
 20
89.510166230246725
 30
0.0
  0
VERTEX
  5
1426
  8
0
 10
190.1849263206542
 20
89.407122103570046
 30
0.0
  0
VERTEX
  5
1427
  8
0
 10
190.16595957101379
 20
89.289125716165756
 30
0.0
  0
VERTEX
  5
1428
  8
0
 10
190.15671007658059
 20
89.224586192950028
 30
0.0
  0
VERTEX
  5
1429
  8
0
 10
190.14762247327209
 20
89.156398389892985
 30
0.0
  0
VERTEX
  5
142A
  8
0
 10
190.12994788208539
 20
89.009241402956505
 30
0.0
  0
VERTEX
  5
142B
  8
0
 10
190.1129553874807
 20
88.847962329195894
 30
0.0
  0
VERTEX
  5
142C
  8
0
 10
190.09666546253391
 20
88.672982980143956
 30
0.0
  0
VERTEX
  5
142D
  8
0
 10
190.08109679612591
 20
88.484837399877577
 30
0.0
  0
VERTEX
  5
142E
  8
0
 10
190.06626311099001
 20
88.284144841489123
 30
0.0
  0
VERTEX
  5
142F
  8
0
 10
190.0591247479897
 20
88.179308191589911
 30
0.0
  0
VERTEX
  5
1430
  8
0
 10
190.05217288755321
 20
88.071600956391919
 30
0.0
  0
VERTEX
  5
1431
  8
0
 10
190.0388293644443
 20
87.847968079767227
 30
0.0
  0
VERTEX
  5
1432
  8
0
 10
190.0262324068386
 20
87.614097589590784
 30
0.0
  0
VERTEX
  5
1433
  8
0
 10
190.02021288832469
 20
87.493612723478194
 30
0.0
  0
SEQEND
  5
1434
  8
0
  0
POLYLINE
  5
F64
  8
0
 66
     1
 10
0.0
 20
0.0
 30
0.0
  0
VERTEX
  5
1435
  8
0
 10
190.02021288833279
 20
87.493612723048656
 30
0.0
  0
VERTEX
  5
1436
  8
0
 10
190.00769543152981
 20
87.336110335238587
 30
0.0
  0
VERTEX
  5
1437
  8
0
 10
189.9839599135081
 20
87.000705956864067
 30
0.0
  0
VERTEX
  5
1438
  8
0
 10
189.96193164981409
 20
86.639052188815683
 30
0.0
  0
VERTEX
  5
1439
  8
0
 10
189.9515527039257
 20
86.448847697756875
 30
0.0
  0
VERTEX
  5
143A
  8
0
 10
189.94163544897191
 20
86.253512764497358
 30
0.0
  0
VERTEX
  5
143B
  8
0
 10
189.9231724263947
 20
85.849086099157475
 30
0.0
  0
VERTEX
  5
143C
  8
0
 10
189.9064678551587
 20
85.428227797013562
 30
0.0
  0
VERTEX
  5
143D
  8
0
 10
189.891435680005
 20
84.993206497053279
 30
0.0
  0
VERTEX
  5
143E
  8
0
 10
189.87798921724979
 20
84.546255405969504
 30
0.0
  0
VERTEX
  5
143F
  8
0
 10
189.86604265171351
 20
84.089571417938174
 30
0.0
  0
VERTEX
  5
1440
  8
0
 10
189.8606055744068
 20
83.858258378456384
 30
0.0
  0
VERTEX
  5
1441
  8
0
 10
189.85551232889199
 20
83.625325057280435
 30
0.0
  0
VERTEX
  5
1442
  8
0
 10
189.84621550884921
 20
83.15004051937467
 30
0.0
  0
VERTEX
  5
1443
  8
0
 10
189.83790980145471
 20
82.652163280036788
 30
0.0
  0
VERTEX
  5
1444
  8
0
 10
189.83065581198491
 20
82.133198991121986
 30
0.0
  0
VERTEX
  5
1445
  8
0
 10
189.8269332457748
 20
81.821570068620545
 30
0.0
  0
VERTEX
  5
1446
  8
0
 10
189.82594035003879
 20
81.731405660319865
 30
0.0
  0
VERTEX
  5
1447
  8
0
 10
189.8249792591069
 20
81.640758120654397
 30
0.0
  0
VERTEX
  5
1448
  8
0
 10
189.8245107033743
 20
81.595256263877701
 30
0.0
  0
VERTEX
  5
1449
  8
0
 10
189.82405017373381
 20
81.549637334557346
 30
0.0
  0
VERTEX
  5
144A
  8
0
 10
189.82315328980991
 20
81.458053232536173
 30
0.0
  0
VERTEX
  5
144B
  8
0
 10
189.82228879885631
 20
81.366015794876034
 30
0.0
  0
VERTEX
  5
144C
  8
0
 10
189.82145688848351
 20
81.273535054122704
 30
0.0
  0
VERTEX
  5
144D
  8
0
 10
189.8206577428154
 20
81.180621095322564
 30
0.0
  0
VERTEX
  5
144E
  8
0
 10
189.81989155329771
 20
81.087285353365203
 30
0.0
  0
VERTEX
  5
144F
  8
0
 10
189.81952103757811
 20
81.040483612286422
 30
0.0
  0
VERTEX
  5
1450
  8
0
 10
189.81915901872611
 20
80.993606460970824
 30
0.0
  0
VERTEX
  5
1451
  8
0
 10
189.8184604585295
 20
80.899625600901942
 30
0.0
  0
VERTEX
  5
1452
  8
0
 10
189.8177958561198
 20
80.805342057728993
 30
0.0
  0
VERTEX
  5
1453
  8
0
 10
189.8174762881676
 20
80.758086532905637
 30
0.0
  0
VERTEX
  5
1454
  8
0
 10
189.81716521054901
 20
80.710755032254909
 30
0.0
  0
VERTEX
  5
1455
  8
0
 10
189.81656853687801
 20
80.615863663146328
 30
0.0
  0
VERTEX
  5
1456
  8
0
 10
189.81600586651541
 20
80.520667047755595
 30
0.0
  0
VERTEX
  5
1457
  8
0
 10
189.81573729693611
 20
80.472953984179355
 30
0.0
  0
VERTEX
  5
1458
  8
0
 10
189.8154772475244
 20
80.425164261690952
 30
0.0
  0
VERTEX
  5
1459
  8
0
 10
189.81498274490289
 20
80.329354376672512
 30
0.0
  0
VERTEX
  5
145A
  8
0
 10
189.81452244083741
 20
80.233236476205377
 30
0.0
  0
VERTEX
  5
145B
  8
0
 10
189.81409643493839
 20
80.136809668604911
 30
0.0
  0
VERTEX
  5
145C
  8
0
 10
189.813704844461
 20
80.040073096929007
 30
0.0
  0
VERTEX
  5
145D
  8
0
 10
189.81334780451891
 20
79.943025945406973
 30
0.0
  0
VERTEX
  5
145E
  8
0
 10
189.81318228815789
 20
79.894385659248911
 30
0.0
  0
VERTEX
  5
145F
  8
0
 10
189.81302546830071
 20
79.845667442006345
 30
0.0
  0
VERTEX
  5
1460
  8
0
 10
189.81273800729761
 20
79.747996856848374
 30
0.0
  0
VERTEX
  5
1461
  8
0
 10
189.812485611553
 20
79.650013496268429
 30
0.0
  0
VERTEX
  5
1462
  8
0
 10
189.81226848994791
 20
79.551716692419689
 30
0.0
  0
VERTEX
  5
1463
  8
0
 10
189.81208687053069
 20
79.453105788434172
 30
0.0
  0
VERTEX
  5
1464
  8
0
 10
189.8119410009073
 20
79.354180119280628
 30
0.0
  0
VERTEX
  5
1465
  8
0
 10
189.81188155510461
 20
79.304599032085463
 30
0.0
  0
VERTEX
  5
1466
  8
0
 10
189.81183114870231
 20
79.25493898859277
 30
0.0
  0
VERTEX
  5
1467
  8
0
 10
189.81175760210499
 20
79.155381641877042
 30
0.0
  0
VERTEX
  5
1468
  8
0
 10
189.8117206705096
 20
79.055507236641674
 30
0.0
  0
VERTEX
  5
1469
  8
0
 10
189.8117160380028
 20
79.005450841831205
 30
0.0
  0
SEQEND
  5
146A
  8
0
  0
LINE
  5
F65
  8
0
 10
189.8117160380028
 20
79.005450841831205
 30
0.0
 11
189.8117160380028
 21
63.619296995677367
 31
0.0
  0
POLYLINE
  5
F66
  8
0
 66
     1
 10
0.0
 20
0.0
 30
0.0
  0
VERTEX
  5
146B
  8
0
 10
189.8117160380028
 20
63.619296995677381
 30
0.0
  0
VERTEX
  5
146C
  8
0
 10
189.8039404774006
 20
63.407135762746982
 30
0.0
  0
VERTEX
  5
146D
  8
0
 10
189.78950904494141
 20
63.002889620018323
 30
0.0
  0
VERTEX
  5
146E
  8
0
 10
189.77677083564291
 20
62.633752678470913
 30
0.0
  0
VERTEX
  5
146F
  8
0
 10
189.771102418325
 20
62.46545084183122
 30
0.0
  0
SEQEND
  5
1470
  8
0
  0
POLYLINE
  5
F67
  8
0
 66
     1
 10
0.0
 20
0.0
 30
0.0
  0
VERTEX
  5
1471
  8
0
 10
189.74392639133069
 20
103.465450841831
 30
0.0
  0
VERTEX
  5
1472
  8
0
 10
189.80263112435051
 20
103.417553002811
 30
0.0
  0
VERTEX
  5
1473
  8
0
 10
190.26808381964759
 20
103.0378845793045
 30
0.0
  0
VERTEX
  5
1474
  8
0
 10
191.17648010541589
 20
102.2974191024353
 30
0.0
  0
VERTEX
  5
1475
  8
0
 10
191.7836800149999
 20
101.8028474111823
 30
0.0
  0
SEQEND
  5
1476
  8
0
  0
LINE
  5
F68
  8
0
 10
191.7836800149999
 20
101.8028474111823
 30
0.0
 11
191.7836800149999
 21
88.530153158879955
 31
0.0
  0
POLYLINE
  5
F69
  8
0
 66
     1
 10
0.0
 20
0.0
 30
0.0
  0
VERTEX
  5
1477
  8
0
 10
191.7836800149999
 20
88.530153158879955
 30
0.0
  0
VERTEX
  5
1478
  8
0
 10
191.48956806649031
 20
88.850971798883563
 30
0.0
  0
VERTEX
  5
1479
  8
0
 10
190.96369737971349
 20
89.368141199566836
 30
0.0
  0
VERTEX
  5
147A
  8
0
 10
190.52622498861149
 20
89.711459535457607
 30
0.0
  0
VERTEX
  5
147B
  8
0
 10
190.34230930600671
 20
89.815450841831236
 30
0.0
  0
SEQEND
  5
147C
  8
0
  0
LINE
  5
F6A
  8
0
 10
207.60782025965469
 20
88.465450841831228
 30
0.0
 11
191.88003252300709
 21
88.465450841831228
 31
0.0
  0
POLYLINE
  5
F6B
  8
0
 66
     1
 10
0.0
 20
0.0
 30
0.0
  0
VERTEX
  5
147D
  8
0
 10
207.50224176506859
 20
101.7257139958007
 30
0.0
  0
VERTEX
  5
147E
  8
0
 10
207.51074201916711
 20
101.72782838583601
 30
0.0
  0
VERTEX
  5
147F
  8
0
 10
207.5272585218365
 20
101.73206836648799
 30
0.0
  0
VERTEX
  5
1480
  8
0
 10
207.5431257829546
 20
101.73632202897591
 30
0.0
  0
VERTEX
  5
1481
  8
0
 10
207.55081458739221
 20
101.7384535166274
 30
0.0
  0
VERTEX
  5
1482
  8
0
 10
207.55833950515029
 20
101.740587853382
 30
0.0
  0
VERTEX
  5
1483
  8
0
 10
207.57289584758149
 20
101.7448643029923
 30
0.0
  0
VERTEX
  5
1484
  8
0
 10
207.58679144393631
 20
101.7491498274841
 30
0.0
  0
VERTEX
  5
1485
  8
0
 10
207.60002341819481
 20
101.75344286613991
 30
0.0
  0
VERTEX
  5
1486
  8
0
 10
207.61258939818339
 20
101.7577418510851
 30
0.0
  0
VERTEX
  5
1487
  8
0
 10
207.62448752694451
 20
101.7620452105544
 30
0.0
  0
VERTEX
  5
1488
  8
0
 10
207.63018571000299
 20
101.7641980393048
 30
0.0
  0
VERTEX
  5
1489
  8
0
 10
207.63571647193561
 20
101.7663513721854
 30
0.0
  0
VERTEX
  5
148A
  8
0
 10
207.64627543206601
 20
101.7706587663463
 30
0.0
  0
VERTEX
  5
148B
  8
0
 10
207.6561641425682
 20
101.77496582949669
 30
0.0
  0
VERTEX
  5
148C
  8
0
 10
207.6653829098201
 20
101.7792710231533
 30
0.0
  0
VERTEX
  5
148D
  8
0
 10
207.6739326428864
 20
101.78357285983149
 30
0.0
  0
VERTEX
  5
148E
  8
0
 10
207.6818145893977
 20
101.7878697737612
 30
0.0
  0
VERTEX
  5
148F
  8
0
 10
207.6855056697982
 20
101.7900158913538
 30
0.0
  0
VERTEX
  5
1490
  8
0
 10
207.68903050283569
 20
101.79216018601571
 30
0.0
  0
VERTEX
  5
1491
  8
0
 10
207.695582673649
 20
101.79644251679269
 30
0.0
  0
VERTEX
  5
1492
  8
0
 10
207.7014739380993
 20
101.8007151887267
 30
0.0
  0
VERTEX
  5
1493
  8
0
 10
207.70417276766159
 20
101.8028474111823
 30
0.0
  0
SEQEND
  5
1494
  8
0
  0
LINE
  5
F6C
  8
0
 10
207.70417276766159
 20
101.8028474111823
 30
0.0
 11
207.70417276766159
 21
88.530153158879983
 31
0.0
  0
POLYLINE
  5
F6D
  8
0
 66
     1
 10
0.0
 20
0.0
 30
0.0
  0
VERTEX
  5
1495
  8
0
 10
207.70417276766159
 20
88.530153158879983
 30
0.0
  0
VERTEX
  5
1496
  8
0
 10
207.6935946109748
 20
88.519473874185664
 30
0.0
  0
VERTEX
  5
1497
  8
0
 10
207.66588897862511
 20
88.497951391708213
 30
0.0
  0
VERTEX
  5
1498
  8
0
 10
207.62938093240271
 20
88.476296127159088
 30
0.0
  0
VERTEX
  5
1499
  8
0
 10
207.60782025965469
 20
88.465450841831384
 30
0.0
  0
SEQEND
  5
149A
  8
0
  0
LINE
  5
F6E
  8
0
 10
209.743926391331
 20
62.46545084183122
 30
0.0
 11
189.74392639133069
 21
62.46545084183122
 31
0.0
  0
LINE
  5
F6F
  8
2
 10
115.0606413429102
 20
102.9654508418312
 30
0.0
 11
115.0606413429102
 21
103.44573434432679
 31
0.0
  0
LINE
  5
F70
  8
2
 10
107.0606413429102
 20
103.44573434432679
 30
0.0
 11
107.0606413429102
 21
102.9654508418312
 31
0.0
  0
LINE
  5
F71
  8
0
 10
117.0606413429102
 20
61.465450841831228
 30
0.0
 11
117.0606413429102
 21
61.66545084183123
 31
0.0
  0
LINE
  5
F72
  8
0
 10
105.0606413429102
 20
61.66545084183123
 30
0.0
 11
105.0606413429102
 21
61.465450841831228
 31
0.0
  0
LINE
  5
F73
  8
2
 10
115.0606413429102
 20
102.9654508418312
 30
0.0
 11
107.0606413429102
 21
102.9654508418312
 31
0.0
  0
LINE
  5
F74
  8
0
 10
105.0606413429102
 20
61.66545084183123
 30
0.0
 11
116.83566325514759
 21
61.66545084183123
 31
0.0
  0
LINE
  5
F75
  8
0
 10
105.0606413429102
 20
61.465450841831228
 30
0.0
 11
117.0606413429102
 21
61.465450841831228
 31
0.0
  0
POLYLINE
  5
F76
  8
0
 66
     1
 10
0.0
 20
0.0
 30
0.0
  0
VERTEX
  5
149B
  8
0
 10
121.0606413429102
 20
63.619296995677381
 30
0.0
  0
VERTEX
  5
149C
  8
0
 10
120.8638951079167
 20
63.422550760683897
 30
0.0
  0
VERTEX
  5
149D
  8
0
 10
120.47572888915271
 20
63.034384541919891
 30
0.0
  0
VERTEX
  5
149E
  8
0
 10
120.094664338686
 20
62.653319991453131
 30
0.0
  0
VERTEX
  5
149F
  8
0
 10
119.906795189064
 20
62.46545084183122
 30
0.0
  0
SEQEND
  5
14A0
  8
0
  0
POLYLINE
  5
F77
  8
0
 66
     1
 10
0.0
 20
0.0
 30
0.0
  0
VERTEX
  5
14A1
  8
0
 10
121.0606413429102
 20
79.005450841831205
 30
0.0
  0
VERTEX
  5
14A2
  8
0
 10
121.0606413429102
 20
79.13749703416272
 30
0.0
  0
VERTEX
  5
14A3
  8
0
 10
121.0606413429102
 20
79.405780706138401
 30
0.0
  0
VERTEX
  5
14A4
  8
0
 10
121.0606413429102
 20
79.678212973503079
 30
0.0
  0
VERTEX
  5
14A5
  8
0
 10
121.0606413429102
 20
79.815450841831222
 30
0.0
  0
SEQEND
  5
14A6
  8
0
  0
POLYLINE
  5
F78
  8
0
 66
     1
 10
0.0
 20
0.0
 30
0.0
  0
VERTEX
  5
14A7
  8
0
 10
101.0606413429102
 20
79.815450841831236
 30
0.0
  0
VERTEX
  5
14A8
  8
0
 10
101.0606413429102
 20
79.678212973503094
 30
0.0
  0
VERTEX
  5
14A9
  8
0
 10
101.0606413429102
 20
79.405780706138415
 30
0.0
  0
VERTEX
  5
14AA
  8
0
 10
101.0606413429102
 20
79.13749703416272
 30
0.0
  0
VERTEX
  5
14AB
  8
0
 10
101.0606413429102
 20
79.005450841831205
 30
0.0
  0
SEQEND
  5
14AC
  8
0
  0
POLYLINE
  5
F79
  8
0
 66
     1
 10
0.0
 20
0.0
 30
0.0
  0
VERTEX
  5
14AD
  8
0
 10
97.467343313424124
 20
87.493612722191273
 30
0.0
  0
VERTEX
  5
14AE
  8
0
 10
97.611936326690113
 20
87.370616891330144
 30
0.0
  0
VERTEX
  5
14AF
  8
0
 10
97.903895892123387
 20
87.107217923593623
 30
0.0
  0
VERTEX
  5
14B0
  8
0
 10
98.197567095540194
 20
86.820041536614696
 30
0.0
  0
VERTEX
  5
14B1
  8
0
 10
98.344312243733
 20
86.667321988350807
 30
0.0
  0
VERTEX
  5
14B2
  8
0
 10
98.490611732362026
 20
86.508397876723208
 30
0.0
  0
VERTEX
  5
14B3
  8
0
 10
98.779586247314214
 20
86.172957394149932
 30
0.0
  0
VERTEX
  5
14B4
  8
0
 10
99.060940769531769
 20
85.815051585580633
 30
0.0
  0
VERTEX
  5
14B5
  8
0
 10
99.332438527325337
 20
85.434825481406477
 30
0.0
  0
VERTEX
  5
14B6
  8
0
 10
99.591936355371843
 20
85.032442830549115
 30
0.0
  0
VERTEX
  5
14B7
  8
0
 10
99.837359302401524
 20
84.608072447961007
 30
0.0
  0
VERTEX
  5
14B8
  8
0
 10
99.954156148267643
 20
84.387692568477732
 30
0.0
  0
VERTEX
  5
14B9
  8
0
 10
100.0666727569931
 20
84.161874448493464
 30
0.0
  0
VERTEX
  5
14BA
  8
0
 10
100.27785034137079
 20
83.693989004425006
 30
0.0
  0
VERTEX
  5
14BB
  8
0
 10
100.46832004789501
 20
83.205964281381995
 30
0.0
  0
VERTEX
  5
14BC
  8
0
 10
100.63372376805761
 20
82.706141569206466
 30
0.0
  0
VERTEX
  5
14BD
  8
0
 10
100.7729702230629
 20
82.196767226470556
 30
0.0
  0
VERTEX
  5
14BE
  8
0
 10
100.8854802147156
 20
81.678926396557316
 30
0.0
  0
VERTEX
  5
14BF
  8
0
 10
100.9315327662089
 20
81.417169453025878
 30
0.0
  0
VERTEX
  5
14C0
  8
0
 10
100.9706909880597
 20
81.153701950805484
 30
0.0
  0
VERTEX
  5
14C1
  8
0
 10
101.0280478638651
 20
80.622177094054535
 30
0.0
  0
VERTEX
  5
14C2
  8
0
 10
101.0569960567617
 20
80.085436831947476
 30
0.0
  0
VERTEX
  5
14C3
  8
0
 10
101.0606413429102
 20
79.81545084183125
 30
0.0
  0
SEQEND
  5
14C4
  8
0
  0
LINE
  5
F7A
  8
0
 10
121.0606413429102
 20
63.619296995677381
 30
0.0
 11
121.0606413429102
 21
79.005450841831205
 31
0.0
  0
LINE
  5
F7B
  8
0
 10
101.0606413429102
 20
79.005450841831205
 30
0.0
 11
101.0606413429102
 21
63.619296995677381
 31
0.0
  0
POLYLINE
  5
F7C
  8
0
 66
     1
 10
0.0
 20
0.0
 30
0.0
  0
VERTEX
  5
14C5
  8
0
 10
101.0606413429102
 20
63.619296995677381
 30
0.0
  0
VERTEX
  5
14C6
  8
0
 10
101.2573875779036
 20
63.422550760683961
 30
0.0
  0
VERTEX
  5
14C7
  8
0
 10
101.6455537966676
 20
63.034384541919998
 30
0.0
  0
VERTEX
  5
14C8
  8
0
 10
102.0266183471344
 20
62.653319991453202
 30
0.0
  0
VERTEX
  5
14C9
  8
0
 10
102.2144874967564
 20
62.46545084183122
 30
0.0
  0
SEQEND
  5
14CA
  8
0
  0
POLYLINE
  5
F7D
  8
0
 66
     1
 10
0.0
 20
0.0
 30
0.0
  0
VERTEX
  5
14CB
  8
0
 10
121.0606413429102
 20
79.815450841831222
 30
0.0
  0
VERTEX
  5
14CC
  8
0
 10
121.0642931017225
 20
80.085676378935631
 30
0.0
  0
VERTEX
  5
14CD
  8
0
 10
121.093299879735
 20
80.622980504734699
 30
0.0
  0
VERTEX
  5
14CE
  8
0
 10
121.1507910667662
 20
81.155177494700624
 30
0.0
  0
VERTEX
  5
14CF
  8
0
 10
121.1900503761543
 20
81.419019975668746
 30
0.0
  0
VERTEX
  5
14D0
  8
0
 10
121.23622960389601
 20
81.681176969192734
 30
0.0
  0
VERTEX
  5
14D1
  8
0
 10
121.34907877038449
 20
82.199890482484449
 30
0.0
  0
VERTEX
  5
14D2
  8
0
 10
121.4887942960126
 20
82.710229608990645
 30
0.0
  0
VERTEX
  5
14D3
  8
0
 10
121.654816110057
 20
83.211102721665469
 30
0.0
  0
VERTEX
  5
14D4
  8
0
 10
121.84498947417509
 20
83.697687392362255
 30
0.0
  0
VERTEX
  5
14D5
  8
0
 10
122.05544865096159
 20
84.163611899206543
 30
0.0
  0
VERTEX
  5
14D6
  8
0
 10
122.1676623168144
 20
84.388734568150795
 30
0.0
  0
VERTEX
  5
14D7
  8
0
 10
122.2842075716776
 20
84.608592844648214
 30
0.0
  0
VERTEX
  5
14D8
  8
0
 10
122.52931707151031
 20
85.032394983397523
 30
0.0
  0
VERTEX
  5
14D9
  8
0
 10
122.7888055312082
 20
85.434768621085595
 30
0.0
  0
VERTEX
  5
14DA
  8
0
 10
123.0606489581472
 20
85.815460995467106
 30
0.0
  0
VERTEX
  5
14DB
  8
0
 10
123.3427441379109
 20
86.174229241261742
 30
0.0
  0
VERTEX
  5
14DC
  8
0
 10
123.6324295220946
 20
86.51034958229738
 30
0.0
  0
VERTEX
  5
14DD
  8
0
 10
123.7786122619172
 20
86.669066855555073
 30
0.0
  0
VERTEX
  5
14DE
  8
0
 10
123.9252032211384
 20
86.821556950816927
 30
0.0
  0
VERTEX
  5
14DF
  8
0
 10
124.2184357999803
 20
87.108202264188876
 30
0.0
  0
VERTEX
  5
14E0
  8
0
 10
124.5097537404082
 20
87.370970123745948
 30
0.0
  0
VERTEX
  5
14E1
  8
0
 10
124.6539393739744
 20
87.493612723508008
 30
0.0
  0
SEQEND
  5
14E2
  8
0
  0
POLYLINE
  5
F7E
  8
0
 66
     1
 10
0.0
 20
0.0
 30
0.0
  0
VERTEX
  5
14E3
  8
0
 10
74.174728544601905
 20
88.530153158879813
 30
0.0
  0
VERTEX
  5
14E4
  8
0
 10
74.089037588446189
 20
88.519474178403954
 30
0.0
  0
VERTEX
  5
14E5
  8
0
 10
73.917359985822713
 20
88.497951847699156
 30
0.0
  0
VERTEX
  5
14E6
  8
0
 10
73.745973942634294
 20
88.476296324883748
 30
0.0
  0
VERTEX
  5
14E7
  8
0
 10
73.660641342910253
 20
88.465450841831228
 30
0.0
  0
SEQEND
  5
14E8
  8
0
  0
LINE
  5
F7F
  8
0
 10
73.660641342910253
 20
88.465450841831228
 30
0.0
 11
73.56064134291023
 21
88.465450841831228
 31
0.0
  0
POLYLINE
  5
F80
  8
0
 66
     1
 10
0.0
 20
0.0
 30
0.0
  0
VERTEX
  5
14E9
  8
0
 10
73.56064134291023
 20
88.465450841831228
 30
0.0
  0
VERTEX
  5
14EA
  8
0
 10
73.538478858481525
 20
88.46554907890453
 30
0.0
  0
VERTEX
  5
14EB
  8
0
 10
73.494151090958866
 20
88.466335188966085
 30
0.0
  0
VERTEX
  5
14EC
  8
0
 10
73.449841971410649
 20
88.467907348861544
 30
0.0
  0
VERTEX
  5
14ED
  8
0
 10
73.427702833994999
 20
88.468987873380186
 30
0.0
  0
VERTEX
  5
14EE
  8
0
 10
73.405578477882273
 20
88.470264374272276
 30
0.0
  0
VERTEX
  5
14EF
  8
0
 10
73.36138756942421
 20
88.473403905324687
 30
0.0
  0
VERTEX
  5
14F0
  8
0
 10
73.317296018648904
 20
88.477322418063636
 30
0.0
  0
VERTEX
  5
14F1
  8
0
 10
73.273330254898951
 20
88.482015250013774
 30
0.0
  0
VERTEX
  5
14F2
  8
0
 10
73.229516218311062
 20
88.487476638604065
 30
0.0
  0
VERTEX
  5
14F3
  8
0
 10
73.185879224918068
 20
88.493699771250263
 30
0.0
  0
VERTEX
  5
14F4
  8
0
 10
73.164134829324482
 20
88.497094590257305
 30
0.0
  0
VERTEX
  5
14F5
  8
0
 10
73.142443842808504
 20
88.500676845922314
 30
0.0
  0
VERTEX
  5
14F6
  8
0
 10
73.099233779258526
 20
88.508399141071735
 30
0.0
  0
VERTEX
  5
14F7
  8
0
 10
73.056271789022858
 20
88.516857091714343
 30
0.0
  0
VERTEX
  5
14F8
  8
0
 10
73.013579905583754
 20
88.526040301600176
 30
0.0
  0
VERTEX
  5
14F9
  8
0
 10
72.971179942642294
 20
88.535937463067043
 30
0.0
  0
VERTEX
  5
14FA
  8
0
 10
72.9290934735684
 20
88.546536356213807
 30
0.0
  0
VERTEX
  5
14FB
  8
0
 10
72.908174444014179
 20
88.552094890910396
 30
0.0
  0
VERTEX
  5
14FC
  8
0
 10
72.887341705817903
 20
88.557823877641937
 30
0.0
  0
VERTEX
  5
14FD
  8
0
 10
72.845945368578555
 20
88.569786077246221
 30
0.0
  0
VERTEX
  5
14FE
  8
0
 10
72.804924612878622
 20
88.582408201853838
 30
0.0
  0
VERTEX
  5
14FF
  8
0
 10
72.784561195298096
 20
88.588961918128376
 30
0.0
  0
VERTEX
  5
1500
  8
0
 10
72.764298923472751
 20
88.595674744600828
 30
0.0
  0
VERTEX
  5
1501
  8
0
 10
72.724087041737647
 20
88.609569499065927
 30
0.0
  0
VERTEX
  5
1502
  8
0
 10
72.684306898758081
 20
88.624075617311973
 30
0.0
  0
VERTEX
  5
1503
  8
0
 10
72.664584096855776
 20
88.631552512470392
 30
0.0
  0
VERTEX
  5
1504
  8
0
 10
72.644975557756183
 20
88.639175671113406
 30
0.0
  0
VERTEX
  5
1505
  8
0
 10
72.606106743038353
 20
88.654852716313187
 30
0.0
  0
VERTEX
  5
1506
  8
0
 10
72.567708813653667
 20
88.671091455783753
 30
0.0
  0
VERTEX
  5
1507
  8
0
 10
72.529796272694142
 20
88.687873523448559
 30
0.0
  0
VERTEX
  5
1508
  8
0
 10
72.492383624573336
 20
88.705179741451076
 30
0.0
  0
VERTEX
  5
1509
  8
0
 10
72.455484856796033
 20
88.722990331320574
 30
0.0
  0
VERTEX
  5
150A
  8
0
 10
72.437232392033678
 20
88.732078430187698
 30
0.0
  0
VERTEX
  5
150B
  8
0
 10
72.419113376720446
 20
88.741284952692865
 30
0.0
  0
VERTEX
  5
150C
  8
0
 10
72.383281957553166
 20
88.76004274406074
 30
0.0
  0
VERTEX
  5
150D
  8
0
 10
72.348002692728727
 20
88.779242365018916
 30
0.0
  0
VERTEX
  5
150E
  8
0
 10
72.313286957840404
 20
88.798862039578466
 30
0.0
  0
VERTEX
  5
150F
  8
0
 10
72.279145379315878
 20
88.818879600224875
 30
0.0
  0
VERTEX
  5
1510
  8
0
 10
72.245587809067487
 20
88.839272532486547
 30
0.0
  0
VERTEX
  5
1511
  8
0
 10
72.229030889279841
 20
88.849602643168978
 30
0.0
  0
VERTEX
  5
1512
  8
0
 10
72.212623314689552
 20
88.860018013267933
 30
0.0
  0
VERTEX
  5
1513
  8
0
 10
72.180260316671635
 20
88.881092853768578
 30
0.0
  0
VERTEX
  5
1514
  8
0
 10
72.148506740215041
 20
88.902473414938015
 30
0.0
  0
VERTEX
  5
1515
  8
0
 10
72.117369990096876
 20
88.924135628017254
 30
0.0
  0
VERTEX
  5
1516
  8
0
 10
72.086856912540924
 20
88.946055028029235
 30
0.0
  0
VERTEX
  5
1517
  8
0
 10
72.056973764201175
 20
88.968206787455458
 30
0.0
  0
VERTEX
  5
1518
  8
0
 10
72.042270201301562
 20
88.979361952498721
 30
0.0
  0
VERTEX
  5
1519
  8
0
 10
72.027726187540992
 20
88.990565749872886
 30
0.0
  0
VERTEX
  5
151A
  8
0
 10
71.99911919196424
 20
89.013106463371074
 30
0.0
  0
VERTEX
  5
151B
  8
0
 10
71.971157140096494
 20
89.035803213634395
 30
0.0
  0
VERTEX
  5
151C
  8
0
 10
71.943843738656781
 20
89.058630056628715
 30
0.0
  0
VERTEX
  5
151D
  8
0
 10
71.917182033404131
 20
89.081560850882241
 30
0.0
  0
VERTEX
  5
151E
  8
0
 10
71.891045404715811
 20
89.104685030890835
 30
0.0
  0
VERTEX
  5
151F
  8
0
 10
71.878105096279455
 20
89.116377620248684
 30
0.0
  0
VERTEX
  5
1520
  8
0
 10
71.865250582931083
 20
89.128156589138598
 30
0.0
  0
VERTEX
  5
1521
  8
0
 10
71.839801842402039
 20
89.151970372267044
 30
0.0
  0
VERTEX
  5
1522
  8
0
 10
71.8147048838416
 20
89.1761197151543
 30
0.0
  0
VERTEX
  5
1523
  8
0
 10
71.729714128843142
 20
89.263186016139144
 30
0.0
  0
VERTEX
  5
1524
  8
0
 10
71.660514631149994
 20
89.340791345427363
 30
0.0
  0
VERTEX
  5
1525
  8
0
 10
71.594813635052731
 20
89.42093751297331
 30
0.0
  0
VERTEX
  5
1526
  8
0
 10
71.474316365843293
 20
89.588044550983568
 30
0.0
  0
VERTEX
  5
1527
  8
0
 10
71.368894033157218
 20
89.762852101523208
 30
0.0
  0
VERTEX
  5
1528
  8
0
 10
71.278999907654878
 20
89.943632677515339
 30
0.0
  0
VERTEX
  5
1529
  8
0
 10
71.204848610933482
 20
90.128647039279215
 30
0.0
  0
VERTEX
  5
152A
  8
0
 10
71.14643230846643
 20
90.316147570616664
 30
0.0
  0
VERTEX
  5
152B
  8
0
 10
71.123068549316031
 20
90.410258194249025
 30
0.0
  0
VERTEX
  5
152C
  8
0
 10
71.103541024046024
 20
90.504302250770365
 30
0.0
  0
VERTEX
  5
152D
  8
0
 10
71.075721722535206
 20
90.691271192193923
 30
0.0
  0
VERTEX
  5
152E
  8
0
 10
71.062270801862908
 20
90.875203184648797
 30
0.0
  0
VERTEX
  5
152F
  8
0
 10
71.06064134291023
 20
90.965450841831228
 30
0.0
  0
SEQEND
  5
1530
  8
0
  0
LINE
  5
F81
  8
0
 10
71.060641342910273
 20
90.965450841831228
 30
0.0
 11
71.060641342910273
 21
99.236322147292086
 31
0.0
  0
POLYLINE
  5
F82
  8
0
 66
     1
 10
0.0
 20
0.0
 30
0.0
  0
VERTEX
  5
1531
  8
0
 10
71.06064134291023
 20
99.236322147292086
 30
0.0
  0
VERTEX
  5
1532
  8
0
 10
71.062116636918972
 20
99.322195854277624
 30
0.0
  0
VERTEX
  5
1533
  8
0
 10
71.074279285496431
 20
99.497097375129457
 30
0.0
  0
VERTEX
  5
1534
  8
0
 10
71.0994071019324
 20
99.674872043016649
 30
0.0
  0
VERTEX
  5
1535
  8
0
 10
71.117037332072229
 20
99.764336766615259
 30
0.0
  0
VERTEX
  5
1536
  8
0
 10
71.13812806921122
 20
99.853921887217226
 30
0.0
  0
VERTEX
  5
1537
  8
0
 10
71.190863690103797
 20
100.0326599375953
 30
0.0
  0
VERTEX
  5
1538
  8
0
 10
71.257834258694686
 20
100.2095022605782
 30
0.0
  0
VERTEX
  5
1539
  8
0
 10
71.339083562619862
 20
100.3829175549419
 30
0.0
  0
VERTEX
  5
153A
  8
0
 10
71.434490117706147
 20
100.5514194697667
 30
0.0
  0
VERTEX
  5
153B
  8
0
 10
71.543727949105971
 20
100.7135020151195
 30
0.0
  0
VERTEX
  5
153C
  8
0
 10
71.603382487439191
 20
100.7916799108643
 30
0.0
  0
VERTEX
  5
153D
  8
0
 10
71.666291183149809
 20
100.867713416192
 30
0.0
  0
VERTEX
  5
153E
  8
0
 10
71.80148553857012
 20
101.01265850510541
 30
0.0
  0
VERTEX
  5
153F
  8
0
 10
71.885833119785389
 20
101.09239795818731
 30
0.0
  0
VERTEX
  5
1540
  8
0
 10
71.910637772537882
 20
101.1144830077608
 30
0.0
  0
VERTEX
  5
1541
  8
0
 10
71.935849788617347
 20
101.1363359380677
 30
0.0
  0
VERTEX
  5
1542
  8
0
 10
71.948675842872547
 20
101.14722958270799
 30
0.0
  0
VERTEX
  5
1543
  8
0
 10
71.961649411288548
 20
101.15809861781329
 30
0.0
  0
VERTEX
  5
1544
  8
0
 10
71.988037767004954
 20
101.1797515885354
 30
0.0
  0
VERTEX
  5
1545
  8
0
 10
72.01501186921017
 20
101.20127240876749
 30
0.0
  0
VERTEX
  5
1546
  8
0
 10
72.042568190841848
 20
101.2226388151507
 30
0.0
  0
VERTEX
  5
1547
  8
0
 10
72.070702670079953
 20
101.2438287478416
 30
0.0
  0
VERTEX
  5
1548
  8
0
 10
72.099410719335523
 20
101.2648203762225
 30
0.0
  0
VERTEX
  5
1549
  8
0
 10
72.113978258355985
 20
101.2752350732983
 30
0.0
  0
VERTEX
  5
154A
  8
0
 10
72.128687237861399
 20
101.2855921248894
 30
0.0
  0
VERTEX
  5
154B
  8
0
 10
72.15852662839562
 20
101.30612269985519
 30
0.0
  0
VERTEX
  5
154C
  8
0
 10
72.188922818276893
 20
101.326391114869
 30
0.0
  0
VERTEX
  5
154D
  8
0
 10
72.219869285498859
 20
101.3463767177041
 30
0.0
  0
VERTEX
  5
154E
  8
0
 10
72.251359090280573
 20
101.3660592162755
 30
0.0
  0
VERTEX
  5
154F
  8
0
 10
72.283384879470361
 20
101.3854186845969
 30
0.0
  0
VERTEX
  5
1550
  8
0
 10
72.299596319258214
 20
101.3949711341304
 30
0.0
  0
VERTEX
  5
1551
  8
0
 10
72.315938735182414
 20
101.40443547882521
 30
0.0
  0
VERTEX
  5
1552
  8
0
 10
72.349012092242532
 20
101.4230902097496
 30
0.0
  0
VERTEX
  5
1553
  8
0
 10
72.382595751034643
 20
101.4413637758156
 30
0.0
  0
VERTEX
  5
1554
  8
0
 10
72.416679897530642
 20
101.45923739793611
 30
0.0
  0
VERTEX
  5
1555
  8
0
 10
72.451254127779038
 20
101.4766926539194
 30
0.0
  0
VERTEX
  5
1556
  8
0
 10
72.486307477398697
 20
101.4937115123505
 30
0.0
  0
VERTEX
  5
1557
  8
0
 10
72.504010250867537
 20
101.5020517726872
 30
0.0
  0
VERTEX
  5
1558
  8
0
 10
72.521828456647398
 20
101.5102763656966
 30
0.0
  0
VERTEX
  5
1559
  8
0
 10
72.557805091654075
 20
101.526370062344
 30
0.0
  0
VERTEX
  5
155A
  8
0
 10
72.594224972414793
 20
101.5419759371979
 30
0.0
  0
VERTEX
  5
155B
  8
0
 10
72.612597146034801
 20
101.5495908737569
 30
0.0
  0
VERTEX
  5
155C
  8
0
 10
72.631075308152788
 20
101.55707784040059
 30
0.0
  0
VERTEX
  5
155D
  8
0
 10
72.668346942516592
 20
101.5716616735919
 30
0.0
  0
VERTEX
  5
155E
  8
0
 10
72.706031221279375
 20
101.5857138856107
 30
0.0
  0
VERTEX
  5
155F
  8
0
 10
72.725023642790305
 20
101.5925358598659
 30
0.0
  0
VERTEX
  5
1560
  8
0
 10
72.74411377790446
 20
101.5992192537402
 30
0.0
  0
VERTEX
  5
1561
  8
0
 10
72.78257949847125
 20
101.612163001875
 30
0.0
  0
VERTEX
  5
1562
  8
0
 10
72.821412579183317
 20
101.6245308557088
 30
0.0
  0
VERTEX
  5
1563
  8
0
 10
72.860596574728248
 20
101.63630908946941
 30
0.0
  0
VERTEX
  5
1564
  8
0
 10
72.900114453872703
 20
101.6474845700543
 30
0.0
  0
VERTEX
  5
1565
  8
0
 10
72.939948662886934
 20
101.6580447980202
 30
0.0
  0
VERTEX
  5
1566
  8
0
 10
72.959978780178716
 20
101.6630904687059
 30
0.0
  0
VERTEX
  5
1567
  8
0
 10
72.980081197367184
 20
101.66797794478749
 30
0.0
  0
VERTEX
  5
1568
  8
0
 10
73.020493682983755
 20
101.6772728853373
 30
0.0
  0
VERTEX
  5
1569
  8
0
 10
73.061167465619633
 20
101.6859192255876
 30
0.0
  0
VERTEX
  5
156A
  8
0
 10
73.102083817373043
 20
101.6939073433462
 30
0.0
  0
VERTEX
  5
156B
  8
0
 10
73.143224105177524
 20
101.7012284030626
 30
0.0
  0
VERTEX
  5
156C
  8
0
 10
73.184568199198338
 20
101.70787408699989
 30
0.0
  0
VERTEX
  5
156D
  8
0
 10
73.205310177836139
 20
101.7109412620698
 30
0.0
  0
VERTEX
  5
156E
  8
0
 10
73.226095249241695
 20
101.71383681148841
 30
0.0
  0
VERTEX
  5
156F
  8
0
 10
73.267783922535898
 20
101.7191098006024
 30
0.0
  0
VERTEX
  5
1570
  8
0
 10
73.309612503903935
 20
101.7236871229415
 30
0.0
  0
VERTEX
  5
1571
  8
0
 10
73.330572396195947
 20
101.72571329370911
 30
0.0
  0
SEQEND
  5
1572
  8
0
  0
POLYLINE
  5
F83
  8
0
 66
     1
 10
0.0
 20
0.0
 30
0.0
  0
VERTEX
  5
1573
  8
0
 10
73.330572396195976
 20
101.72571329370879
 30
0.0
  0
VERTEX
  5
1574
  8
0
 10
73.353458397967216
 20
101.72782769568281
 30
0.0
  0
VERTEX
  5
1575
  8
0
 10
73.399393998245074
 20
101.7320677093431
 30
0.0
  0
VERTEX
  5
1576
  8
0
 10
73.445534790726313
 20
101.7363214156056
 30
0.0
  0
VERTEX
  5
1577
  8
0
 10
73.468677214557829
 20
101.73845292863641
 30
0.0
  0
VERTEX
  5
1578
  8
0
 10
73.49186499946876
 20
101.74058729279881
 30
0.0
  0
VERTEX
  5
1579
  8
0
 10
73.538368589477244
 20
101.7448638023878
 30
0.0
  0
VERTEX
  5
157A
  8
0
 10
73.585029299132771
 20
101.7491493921701
 30
0.0
  0
VERTEX
  5
157B
  8
0
 10
73.631830673187125
 20
101.7534424994965
 30
0.0
  0
VERTEX
  5
157C
  8
0
 10
73.678756096343932
 20
101.7577415545169
 30
0.0
  0
VERTEX
  5
157D
  8
0
 10
73.725788827452902
 20
101.76204498345371
 30
0.0
  0
VERTEX
  5
157E
  8
0
 10
73.749340176027431
 20
101.7641978460731
 30
0.0
  0
VERTEX
  5
157F
  8
0
 10
73.77291203435243
 20
101.7663512119032
 30
0.0
  0
VERTEX
  5
1580
  8
0
 10
73.820108829400624
 20
101.7706586681703
 30
0.0
  0
VERTEX
  5
1581
  8
0
 10
73.867362305740812
 20
101.77496578663749
 30
0.0
  0
VERTEX
  5
1582
  8
0
 10
73.914655735742855
 20
101.77927102585571
 30
0.0
  0
VERTEX
  5
1583
  8
0
 10
73.961972879437823
 20
101.7835728964825
 30
0.0
  0
VERTEX
  5
1584
  8
0
 10
74.009296556363651
 20
101.7878698314186
 30
0.0
  0
VERTEX
  5
1585
  8
0
 10
74.03295540481858
 20
101.7900159540343
 30
0.0
  0
VERTEX
  5
1586
  8
0
 10
74.056609344774884
 20
101.7921602497276
 30
0.0
  0
VERTEX
  5
1587
  8
0
 10
74.103893722991046
 20
101.7964425695684
 30
0.0
  0
VERTEX
  5
1588
  8
0
 10
74.151132105571975
 20
101.8007152115138
 30
0.0
  0
VERTEX
  5
1589
  8
0
 10
74.174728544601905
 20
101.8028474111821
 30
0.0
  0
SEQEND
  5
158A
  8
0
  0
POLYLINE
  5
F84
  8
0
 66
     1
 10
0.0
 20
0.0
 30
0.0
  0
VERTEX
  5
158B
  8
0
 10
147.94655414121851
 20
101.8028474111823
 30
0.0
  0
VERTEX
  5
158C
  8
0
 10
147.97015083234791
 20
101.8007151887267
 30
0.0
  0
VERTEX
  5
158D
  8
0
 10
148.01738954594481
 20
101.79644251679269
 30
0.0
  0
VERTEX
  5
158E
  8
0
 10
148.06467404408889
 20
101.79216018601571
 30
0.0
  0
VERTEX
  5
158F
  8
0
 10
148.0883279722178
 20
101.7900158913538
 30
0.0
  0
VERTEX
  5
1590
  8
0
 10
148.11198676487069
 20
101.7878697737612
 30
0.0
  0
VERTEX
  5
1591
  8
0
 10
148.15931020977689
 20
101.78357285983149
 30
0.0
  0
VERTEX
  5
1592
  8
0
 10
148.20662697978651
 20
101.7792710231532
 30
0.0
  0
VERTEX
  5
1593
  8
0
 10
148.25391990957331
 20
101.77496582949659
 30
0.0
  0
VERTEX
  5
1594
  8
0
 10
148.30117278002271
 20
101.7706587663462
 30
0.0
  0
VERTEX
  5
1595
  8
0
 10
148.34836889638061
 20
101.7663513721853
 30
0.0
  0
VERTEX
  5
1596
  8
0
 10
148.37194039525539
 20
101.7641980393048
 30
0.0
  0
VERTEX
  5
1597
  8
0
 10
148.3954913747823
 20
101.76204521055431
 30
0.0
  0
VERTEX
  5
1598
  8
0
 10
148.4425233503041
 20
101.7577418510851
 30
0.0
  0
VERTEX
  5
1599
  8
0
 10
148.48944801314849
 20
101.75344286613991
 30
0.0
  0
VERTEX
  5
159A
  8
0
 10
148.5362486440969
 20
101.7491498274841
 30
0.0
  0
VERTEX
  5
159B
  8
0
 10
148.58290864927471
 20
101.7448643029923
 30
0.0
  0
VERTEX
  5
159C
  8
0
 10
148.62941159426879
 20
101.740587853382
 30
0.0
  0
VERTEX
  5
159D
  8
0
 10
148.65259908530291
 20
101.7384535166274
 30
0.0
  0
VERTEX
  5
159E
  8
0
 10
148.6757412376316
 20
101.73632202897591
 30
0.0
  0
VERTEX
  5
159F
  8
0
 10
148.7218815637994
 20
101.73206836648799
 30
0.0
  0
VERTEX
  5
15A0
  8
0
 10
148.76781681544421
 20
101.72782838583601
 30
0.0
  0
VERTEX
  5
15A1
  8
0
 10
148.7907026926035
 20
101.7257139958007
 30
0.0
  0
SEQEND
  5
15A2
  8
0
  0
POLYLINE
  5
F85
  8
0
 66
     1
 10
0.0
 20
0.0
 30
0.0
  0
VERTEX
  5
15A3
  8
0
 10
148.7907026926035
 20
101.7257139958007
 30
0.0
  0
VERTEX
  5
15A4
  8
0
 10
148.8116626302014
 20
101.7236878850497
 30
0.0
  0
VERTEX
  5
15A5
  8
0
 10
148.85349130488109
 20
101.7191106803366
 30
0.0
  0
VERTEX
  5
15A6
  8
0
 10
148.89518007493839
 20
101.7138378055305
 30
0.0
  0
VERTEX
  5
15A7
  8
0
 10
148.91596519596169
 20
101.7109423119832
 30
0.0
  0
VERTEX
  5
15A8
  8
0
 10
148.9367072250094
 20
101.7078751919108
 30
0.0
  0
VERTEX
  5
15A9
  8
0
 10
148.978051422128
 20
101.7012296152938
 30
0.0
  0
VERTEX
  5
15AA
  8
0
 10
149.01919181590051
 20
101.69390865925121
 30
0.0
  0
VERTEX
  5
15AB
  8
0
 10
149.06010827618761
 20
101.685920641455
 30
0.0
  0
VERTEX
  5
15AC
  8
0
 10
149.1007821696893
 20
101.6772743973964
 30
0.0
  0
VERTEX
  5
15AD
  8
0
 10
149.14119476845721
 20
101.66797954917421
 30
0.0
  0
VERTEX
  5
15AE
  8
0
 10
149.16129724303761
 20
101.6630921177847
 30
0.0
  0
VERTEX
  5
15AF
  8
0
 10
149.18132741824181
 20
101.6580464907985
 30
0.0
  0
VERTEX
  5
15B0
  8
0
 10
149.2211617445667
 20
101.6474863472249
 30
0.0
  0
VERTEX
  5
15B1
  8
0
 10
149.26067974287
 20
101.63631094697919
 30
0.0
  0
VERTEX
  5
15B2
  8
0
 10
149.2998638592542
 20
101.6245327894616
 30
0.0
  0
VERTEX
  5
15B3
  8
0
 10
149.3386970623109
 20
101.61216500774169
 30
0.0
  0
VERTEX
  5
15B4
  8
0
 10
149.37716290654711
 20
101.59922132756979
 30
0.0
  0
VERTEX
  5
15B5
  8
0
 10
149.39625310393521
 20
101.5925379661164
 30
0.0
  0
VERTEX
  5
15B6
  8
0
 10
149.4152455879817
 20
101.5857160232411
 30
0.0
  0
VERTEX
  5
15B7
  8
0
 10
149.45292999250711
 20
101.5716638708609
 30
0.0
  0
VERTEX
  5
15B8
  8
0
 10
149.4902017533179
 20
101.5570800931889
 30
0.0
  0
VERTEX
  5
15B9
  8
0
 10
149.50867997825321
 20
101.5495931530191
 30
0.0
  0
VERTEX
  5
15BA
  8
0
 10
149.52705221483001
 20
101.5419782419158
 30
0.0
  0
VERTEX
  5
15BB
  8
0
 10
149.56347222186639
 20
101.5263724149176
 30
0.0
  0
VERTEX
  5
15BC
  8
0
 10
149.59944898353379
 20
101.5102787620545
 30
0.0
  0
VERTEX
  5
15BD
  8
0
 10
149.6172672527502
 20
101.5020541894132
 30
0.0
  0
VERTEX
  5
15BE
  8
0
 10
149.6349700897054
 20
101.49371394843089
 30
0.0
  0
VERTEX
  5
15BF
  8
0
 10
149.6700235663825
 20
101.47669512567821
 30
0.0
  0
VERTEX
  5
15C0
  8
0
 10
149.70459792369221
 20
101.4592399013542
 30
0.0
  0
VERTEX
  5
15C1
  8
0
 10
149.73868219712071
 20
101.4413663069064
 30
0.0
  0
VERTEX
  5
15C2
  8
0
 10
149.77226598258309
 20
101.4230927645667
 30
0.0
  0
VERTEX
  5
15C3
  8
0
 10
149.805339465918
 20
101.40443805346931
 30
0.0
  0
VERTEX
  5
15C4
  8
0
 10
149.8216819447899
 20
101.39497371724229
 30
0.0
  0
VERTEX
  5
15C5
  8
0
 10
149.83789344737701
 20
101.3854212752228
 30
0.0
  0
VERTEX
  5
15C6
  8
0
 10
149.8699193616556
 20
101.3660618190988
 30
0.0
  0
VERTEX
  5
15C7
  8
0
 10
149.90140929074229
 20
101.346379329006
 30
0.0
  0
VERTEX
  5
15C8
  8
0
 10
149.9323558813868
 20
101.32639373098689
 30
0.0
  0
VERTEX
  5
15C9
  8
0
 10
149.96275219372049
 20
101.30612531717949
 30
0.0
  0
VERTEX
  5
15CA
  8
0
 10
149.99259170564841
 20
101.28559473986959
 30
0.0
  0
VERTEX
  5
15CB
  8
0
 10
150.00730074542571
 20
101.2752376857951
 30
0.0
  0
VERTEX
  5
15CC
  8
0
 10
150.02186834441969
 20
101.264822985373
 30
0.0
  0
VERTEX
  5
15CD
  8
0
 10
150.0505765126828
 20
101.24383134774661
 30
0.0
  0
VERTEX
  5
15CE
  8
0
 10
150.07871110960241
 20
101.2226414024697
 30
0.0
  0
VERTEX
  5
15CF
  8
0
 10
150.17260385778269
 20
101.14723210086891
 30
0.0
  0
VERTEX
  5
15D0
  8
0
 10
150.3197946606191
 20
101.01266096768209
 30
0.0
  0
VERTEX
  5
15D1
  8
0
 10
150.45498944745921
 20
100.8677158026738
 30
0.0
  0
VERTEX
  5
15D2
  8
0
 10
150.51789834822259
 20
100.79168223909799
 30
0.0
  0
VERTEX
  5
15D3
  8
0
 10
150.5775530833115
 20
100.71350427264321
 30
0.0
  0
VERTEX
  5
15D4
  8
0
 10
150.6867912803653
 20
100.5514215517032
 30
0.0
  0
VERTEX
  5
15D5
  8
0
 10
150.78219816002539
 20
100.3829194211195
 30
0.0
  0
VERTEX
  5
15D6
  8
0
 10
150.86344774358909
 20
100.20950387801309
 30
0.0
  0
VERTEX
  5
15D7
  8
0
 10
150.9304185442189
 20
100.03266128118629
 30
0.0
  0
VERTEX
  5
15D8
  8
0
 10
150.98315434853771
 20
99.853922938723116
 30
0.0
  0
VERTEX
  5
15D9
  8
0
 10
151.00424515904439
 20
99.764337667692047
 30
0.0
  0
VERTEX
  5
15DA
  8
0
 10
151.0218754504194
 20
99.674872792076783
 30
0.0
  0
VERTEX
  5
15DB
  8
0
 10
151.04700335373309
 20
99.497097819357506
 30
0.0
  0
VERTEX
  5
15DC
  8
0
 10
151.05916604391811
 20
99.322195999278648
 30
0.0
  0
VERTEX
  5
15DD
  8
0
 10
151.0606413429102
 20
99.236322147300683
 30
0.0
  0
SEQEND
  5
15DE
  8
0
  0
LINE
  5
F86
  8
0
 10
151.0606413429102
 20
90.965450841831228
 30
0.0
 11
151.0606413429102
 21
99.236322147300683
 31
0.0
  0
POLYLINE
  5
F87
  8
0
 66
     1
 10
0.0
 20
0.0
 30
0.0
  0
VERTEX
  5
15DF
  8
0
 10
151.0606413429102
 20
90.965450841831228
 30
0.0
  0
VERTEX
  5
15E0
  8
0
 10
151.05901188395751
 20
90.87520318464891
 30
0.0
  0
VERTEX
  5
15E1
  8
0
 10
151.0455609632852
 20
90.691271192193994
 30
0.0
  0
VERTEX
  5
15E2
  8
0
 10
151.01774166177441
 20
90.504302250770365
 30
0.0
  0
VERTEX
  5
15E3
  8
0
 10
150.9982141365044
 20
90.410258194249067
 30
0.0
  0
VERTEX
  5
15E4
  8
0
 10
150.97485037735399
 20
90.316147570616664
 30
0.0
  0
VERTEX
  5
15E5
  8
0
 10
150.91643407488701
 20
90.128647039279215
 30
0.0
  0
VERTEX
  5
15E6
  8
0
 10
150.84228277816561
 20
89.943632677515339
 30
0.0
  0
VERTEX
  5
15E7
  8
0
 10
150.7523886526632
 20
89.762852101523208
 30
0.0
  0
VERTEX
  5
15E8
  8
0
 10
150.64696631997711
 20
89.588044550983568
 30
0.0
  0
VERTEX
  5
15E9
  8
0
 10
150.5264690507677
 20
89.42093751297331
 30
0.0
  0
VERTEX
  5
15EA
  8
0
 10
150.4607680546705
 20
89.340791345427363
 30
0.0
  0
VERTEX
  5
15EB
  8
0
 10
150.39156855697729
 20
89.263186016139144
 30
0.0
  0
VERTEX
  5
15EC
  8
0
 10
150.30657780197879
 20
89.176119715154314
 30
0.0
  0
VERTEX
  5
15ED
  8
0
 10
150.28148084341839
 20
89.151970372267044
 30
0.0
  0
VERTEX
  5
15EE
  8
0
 10
150.25603210288941
 20
89.128156589138626
 30
0.0
  0
VERTEX
  5
15EF
  8
0
 10
150.24317758954101
 20
89.116377620248684
 30
0.0
  0
VERTEX
  5
15F0
  8
0
 10
150.23023728110459
 20
89.104685030890835
 30
0.0
  0
VERTEX
  5
15F1
  8
0
 10
150.20410065241629
 20
89.081560850882255
 30
0.0
  0
VERTEX
  5
15F2
  8
0
 10
150.17743894716361
 20
89.058630056628715
 30
0.0
  0
VERTEX
  5
15F3
  8
0
 10
150.15012554572399
 20
89.035803213634424
 30
0.0
  0
VERTEX
  5
15F4
  8
0
 10
150.12216349385619
 20
89.013106463371074
 30
0.0
  0
VERTEX
  5
15F5
  8
0
 10
150.09355649827941
 20
88.990565749872886
 30
0.0
  0
VERTEX
  5
15F6
  8
0
 10
150.0790124845189
 20
88.979361952498721
 30
0.0
  0
VERTEX
  5
15F7
  8
0
 10
150.0643089216193
 20
88.968206787455458
 30
0.0
  0
VERTEX
  5
15F8
  8
0
 10
150.03442577327951
 20
88.946055028029235
 30
0.0
  0
VERTEX
  5
15F9
  8
0
 10
150.00391269572361
 20
88.924135628017282
 30
0.0
  0
VERTEX
  5
15FA
  8
0
 10
149.97277594560541
 20
88.902473414938015
 30
0.0
  0
VERTEX
  5
15FB
  8
0
 10
149.94102236914881
 20
88.881092853768592
 30
0.0
  0
VERTEX
  5
15FC
  8
0
 10
149.90865937113091
 20
88.860018013267933
 30
0.0
  0
VERTEX
  5
15FD
  8
0
 10
149.89225179654059
 20
88.849602643169007
 30
0.0
  0
VERTEX
  5
15FE
  8
0
 10
149.87569487675299
 20
88.839272532486575
 30
0.0
  0
VERTEX
  5
15FF
  8
0
 10
149.84213730650461
 20
88.818879600224903
 30
0.0
  0
VERTEX
  5
1600
  8
0
 10
149.80799572798
 20
88.798862039578466
 30
0.0
  0
VERTEX
  5
1601
  8
0
 10
149.77327999309171
 20
88.779242365018916
 30
0.0
  0
VERTEX
  5
1602
  8
0
 10
149.73800072826731
 20
88.76004274406074
 30
0.0
  0
VERTEX
  5
1603
  8
0
 10
149.70216930909999
 20
88.741284952692865
 30
0.0
  0
VERTEX
  5
1604
  8
0
 10
149.68405029378681
 20
88.732078430187698
 30
0.0
  0
VERTEX
  5
1605
  8
0
 10
149.6657978290244
 20
88.722990331320574
 30
0.0
  0
VERTEX
  5
1606
  8
0
 10
149.6288990612471
 20
88.70517974145109
 30
0.0
  0
VERTEX
  5
1607
  8
0
 10
149.59148641312629
 20
88.687873523448573
 30
0.0
  0
VERTEX
  5
1608
  8
0
 10
149.55357387216679
 20
88.671091455783753
 30
0.0
  0
VERTEX
  5
1609
  8
0
 10
149.51517594278209
 20
88.654852716313187
 30
0.0
  0
VERTEX
  5
160A
  8
0
 10
149.47630712806421
 20
88.639175671113406
 30
0.0
  0
VERTEX
  5
160B
  8
0
 10
149.45669858896471
 20
88.631552512470392
 30
0.0
  0
VERTEX
  5
160C
  8
0
 10
149.43697578706241
 20
88.624075617311988
 30
0.0
  0
VERTEX
  5
160D
  8
0
 10
149.39719564408281
 20
88.609569499065927
 30
0.0
  0
VERTEX
  5
160E
  8
0
 10
149.35698376234771
 20
88.595674744600828
 30
0.0
  0
VERTEX
  5
160F
  8
0
 10
149.33672149052231
 20
88.588961918128376
 30
0.0
  0
VERTEX
  5
1610
  8
0
 10
149.3163580729418
 20
88.582408201853838
 30
0.0
  0
VERTEX
  5
1611
  8
0
 10
149.27533731724191
 20
88.569786077246235
 30
0.0
  0
VERTEX
  5
1612
  8
0
 10
149.2339409800025
 20
88.557823877641937
 30
0.0
  0
VERTEX
  5
1613
  8
0
 10
149.21310824180631
 20
88.552094890910396
 30
0.0
  0
VERTEX
  5
1614
  8
0
 10
149.192189212252
 20
88.546536356213807
 30
0.0
  0
VERTEX
  5
1615
  8
0
 10
149.15010274317811
 20
88.535937463067043
 30
0.0
  0
VERTEX
  5
1616
  8
0
 10
149.10770278023671
 20
88.52604030160019
 30
0.0
  0
VERTEX
  5
1617
  8
0
 10
149.06501089679759
 20
88.516857091714343
 30
0.0
  0
VERTEX
  5
1618
  8
0
 10
149.02204890656191
 20
88.508399141071763
 30
0.0
  0
VERTEX
  5
1619
  8
0
 10
148.97883884301191
 20
88.500676845922342
 30
0.0
  0
VERTEX
  5
161A
  8
0
 10
148.95714785649591
 20
88.497094590257305
 30
0.0
  0
VERTEX
  5
161B
  8
0
 10
148.93540346090239
 20
88.493699771250292
 30
0.0
  0
VERTEX
  5
161C
  8
0
 10
148.8917664675094
 20
88.487476638604065
 30
0.0
  0
VERTEX
  5
161D
  8
0
 10
148.84795243092151
 20
88.482015250013774
 30
0.0
  0
VERTEX
  5
161E
  8
0
 10
148.8039866671715
 20
88.477322418063636
 30
0.0
  0
VERTEX
  5
161F
  8
0
 10
148.75989511639619
 20
88.473403905324716
 30
0.0
  0
VERTEX
  5
1620
  8
0
 10
148.71570420793819
 20
88.470264374272276
 30
0.0
  0
VERTEX
  5
1621
  8
0
 10
148.6935798518254
 20
88.468987873380186
 30
0.0
  0
VERTEX
  5
1622
  8
0
 10
148.67144071440981
 20
88.467907348861544
 30
0.0
  0
VERTEX
  5
1623
  8
0
 10
148.62713159486159
 20
88.466335188966113
 30
0.0
  0
VERTEX
  5
1624
  8
0
 10
148.58280382733889
 20
88.465549078904544
 30
0.0
  0
VERTEX
  5
1625
  8
0
 10
148.5606413429102
 20
88.465450841831228
 30
0.0
  0
SEQEND
  5
1626
  8
0
  0
LINE
  5
F88
  8
0
 10
148.5606413429102
 20
88.465450841831228
 30
0.0
 11
148.46064134291021
 21
88.465450841831228
 31
0.0
  0
POLYLINE
  5
F89
  8
0
 66
     1
 10
0.0
 20
0.0
 30
0.0
  0
VERTEX
  5
1627
  8
0
 10
148.46064134291021
 20
88.465450841831384
 30
0.0
  0
VERTEX
  5
1628
  8
0
 10
148.3753103019136
 20
88.476296127159088
 30
0.0
  0
VERTEX
  5
1629
  8
0
 10
148.20392632298871
 20
88.497951391708213
 30
0.0
  0
VERTEX
  5
162A
  8
0
 10
148.03224753366871
 20
88.519473874185664
 30
0.0
  0
VERTEX
  5
162B
  8
0
 10
147.94655414121851
 20
88.530153158879955
 30
0.0
  0
SEQEND
  5
162C
  8
0
  0
POLYLINE
  5
F8A
  8
0
 66
     1
 10
0.0
 20
0.0
 30
0.0
  0
VERTEX
  5
162D
  8
0
 10
131.0606413429102
 20
89.81545084183125
 30
0.0
  0
VERTEX
  5
162E
  8
0
 10
130.8755494194655
 20
89.813737744089821
 30
0.0
  0
VERTEX
  5
162F
  8
0
 10
130.50219028726909
 20
89.7998452860854
 30
0.0
  0
VERTEX
  5
1630
  8
0
 10
130.1255407683677
 20
89.771634192668557
 30
0.0
  0
VERTEX
  5
1631
  8
0
 10
129.93633828978079
 20
89.752046971528955
 30
0.0
  0
VERTEX
  5
1632
  8
0
 10
129.7467402750932
 20
89.728758260850853
 30
0.0
  0
VERTEX
  5
1633
  8
0
 10
129.366919828373
 20
89.670972514030737
 30
0.0
  0
VERTEX
  5
1634
  8
0
 10
128.98718357888529
 20
89.598128026569825
 30
0.0
  0
VERTEX
  5
1635
  8
0
 10
128.60860269361851
 20
89.510166230246725
 30
0.0
  0
VERTEX
  5
1636
  8
0
 10
128.232242077118
 20
89.407122103570046
 30
0.0
  0
VERTEX
  5
1637
  8
0
 10
127.85915975223961
 20
89.289125716165756
 30
0.0
  0
VERTEX
  5
1638
  8
0
 10
127.6741723936466
 20
89.224586192950028
 30
0.0
  0
VERTEX
  5
1639
  8
0
 10
127.49038940441081
 20
89.156398389892985
 30
0.0
  0
VERTEX
  5
163A
  8
0
 10
127.12691345219839
 20
89.009241402956505
 30
0.0
  0
VERTEX
  5
163B
  8
0
 10
126.7695183860811
 20
88.847962329195894
 30
0.0
  0
VERTEX
  5
163C
  8
0
 10
126.41907647545899
 20
88.672982980143956
 30
0.0
  0
VERTEX
  5
163D
  8
0
 10
126.07649279905991
 20
88.484837399877577
 30
0.0
  0
VERTEX
  5
163E
  8
0
 10
125.7426321345543
 20
88.284144841489123
 30
0.0
  0
VERTEX
  5
163F
  8
0
 10
125.5792281827034
 20
88.179308191589911
 30
0.0
  0
VERTEX
  5
1640
  8
0
 10
125.418302706685
 20
88.071600956391919
 30
0.0
  0
VERTEX
  5
1641
  8
0
 10
125.10424420854611
 20
87.847968079767227
 30
0.0
  0
VERTEX
  5
1642
  8
0
 10
124.8011598225557
 20
87.614097589590784
 30
0.0
  0
VERTEX
  5
1643
  8
0
 10
124.6539393739387
 20
87.493612723478194
 30
0.0
  0
SEQEND
  5
1644
  8
0
  0
POLYLINE
  5
F8B
  8
0
 66
     1
 10
0.0
 20
0.0
 30
0.0
  0
VERTEX
  5
1645
  8
0
 10
97.467343313424124
 20
87.493612722191273
 30
0.0
  0
VERTEX
  5
1646
  8
0
 10
97.320117485721809
 20
87.614101905802073
 30
0.0
  0
VERTEX
  5
1647
  8
0
 10
97.017024051176463
 20
87.847978777211736
 30
0.0
  0
VERTEX
  5
1648
  8
0
 10
96.702958717748658
 20
88.071615486604117
 30
0.0
  0
VERTEX
  5
1649
  8
0
 10
96.542030598877432
 20
88.179323857639687
 30
0.0
  0
VERTEX
  5
164A
  8
0
 10
96.378624487519772
 20
88.284161208448467
 30
0.0
  0
VERTEX
  5
164B
  8
0
 10
96.044760942135284
 20
88.484854040473138
 30
0.0
  0
VERTEX
  5
164C
  8
0
 10
95.702176202700926
 20
88.67299870483204
 30
0.0
  0
VERTEX
  5
164D
  8
0
 10
95.351734870552363
 20
88.847976310216595
 30
0.0
  0
VERTEX
  5
164E
  8
0
 10
94.994341787893617
 20
89.009253146054476
 30
0.0
  0
VERTEX
  5
164F
  8
0
 10
94.630868561285965
 20
89.156407838262183
 30
0.0
  0
VERTEX
  5
1650
  8
0
 10
94.447087182803685
 20
89.22459451027801
 30
0.0
  0
VERTEX
  5
1651
  8
0
 10
94.262101614951973
 20
89.289132920439442
 30
0.0
  0
VERTEX
  5
1652
  8
0
 10
93.889023284229111
 20
89.407127212207044
 30
0.0
  0
VERTEX
  5
1653
  8
0
 10
93.512666973528766
 20
89.510169522989258
 30
0.0
  0
VERTEX
  5
1654
  8
0
 10
93.13409038801305
 20
89.598129874558794
 30
0.0
  0
VERTEX
  5
1655
  8
0
 10
92.754358088684597
 20
89.670973333565954
 30
0.0
  0
VERTEX
  5
1656
  8
0
 10
92.374540919905684
 20
89.728758458443224
 30
0.0
  0
VERTEX
  5
1657
  8
0
 10
92.184944195043698
 20
89.752046994271524
 30
0.0
  0
VERTEX
  5
1658
  8
0
 10
91.995742718915196
 20
89.771634117394228
 30
0.0
  0
VERTEX
  5
1659
  8
0
 10
91.619094172696762
 20
89.799845186853389
 30
0.0
  0
VERTEX
  5
165A
  8
0
 10
91.245734347231945
 20
89.813737724080568
 30
0.0
  0
VERTEX
  5
165B
  8
0
 10
91.060641342924882
 20
89.815450841831634
 30
0.0
  0
SEQEND
  5
165C
  8
0
  0
POLYLINE
  5
F8C
  8
0
 66
     1
 10
0.0
 20
0.0
 30
0.0
  0
VERTEX
  5
165D
  8
0
 10
91.060641342924882
 20
89.815450841831876
 30
0.0
  0
VERTEX
  5
165E
  8
0
 10
88.195866606979195
 20
89.711459535458317
 30
0.0
  0
VERTEX
  5
165F
  8
0
 10
82.519087985925935
 20
89.368141199567447
 30
0.0
  0
VERTEX
  5
1660
  8
0
 10
76.929960248983676
 20
88.850971798883734
 30
0.0
  0
VERTEX
  5
1661
  8
0
 10
74.174728544601905
 20
88.530153158879813
 30
0.0
  0
SEQEND
  5
1662
  8
0
  0
POLYLINE
  5
F8D
  8
0
 66
     1
 10
0.0
 20
0.0
 30
0.0
  0
VERTEX
  5
1663
  8
0
 10
74.174728544601905
 20
101.8028474111821
 30
0.0
  0
VERTEX
  5
1664
  8
0
 10
76.148716171612094
 20
101.9763533656603
 30
0.0
  0
VERTEX
  5
1665
  8
0
 10
80.134572595649175
 20
102.2974191024351
 30
0.0
  0
VERTEX
  5
1666
  8
0
 10
84.165938372849311
 20
102.5823961669448
 30
0.0
  0
VERTEX
  5
1667
  8
0
 10
86.196802393899105
 20
102.71084117960569
 30
0.0
  0
VERTEX
  5
1668
  8
0
 10
88.236782785942637
 20
102.8296792260066
 30
0.0
  0
VERTEX
  5
1669
  8
0
 10
92.341092139925877
 20
103.0378845793044
 30
0.0
  0
VERTEX
  5
166A
  8
0
 10
96.472778391829621
 20
103.20584945358669
 30
0.0
  0
VERTEX
  5
166B
  8
0
 10
100.6257113062081
 20
103.33263937383479
 30
0.0
  0
VERTEX
  5
166C
  8
0
 10
104.7937494662756
 20
103.417553002811
 30
0.0
  0
VERTEX
  5
166D
  8
0
 10
108.9707286180398
 20
103.4601243008924
 30
0.0
  0
VERTEX
  5
166E
  8
0
 10
111.0606413429101
 20
103.465450841831
 30
0.0
  0
VERTEX
  5
166F
  8
0
 10
113.1505540677804
 20
103.4601243008925
 30
0.0
  0
VERTEX
  5
1670
  8
0
 10
117.32753321954461
 20
103.417553002811
 30
0.0
  0
VERTEX
  5
1671
  8
0
 10
121.4955713796121
 20
103.33263937383489
 30
0.0
  0
VERTEX
  5
1672
  8
0
 10
125.6485042939907
 20
103.20584945358679
 30
0.0
  0
VERTEX
  5
1673
  8
0
 10
129.78019054589441
 20
103.0378845793045
 30
0.0
  0
VERTEX
  5
1674
  8
0
 10
133.88449989987771
 20
102.8296792260068
 30
0.0
  0
VERTEX
  5
1675
  8
0
 10
135.9244802919213
 20
102.71084117960589
 30
0.0
  0
VERTEX
  5
1676
  8
0
 10
137.95534431297099
 20
102.582396166945
 30
0.0
  0
VERTEX
  5
1677
  8
0
 10
141.98671009017119
 20
102.2974191024353
 30
0.0
  0
VERTEX
  5
1678
  8
0
 10
145.9725665142083
 20
101.9763533656606
 30
0.0
  0
VERTEX
  5
1679
  8
0
 10
147.9465541412186
 20
101.8028474111823
 30
0.0
  0
SEQEND
  5
167A
  8
0
  0
POLYLINE
  5
F8E
  8
0
 66
     1
 10
0.0
 20
0.0
 30
0.0
  0
VERTEX
  5
167B
  8
0
 10
147.9465541412186
 20
88.530153158879955
 30
0.0
  0
VERTEX
  5
167C
  8
0
 10
145.1913224368391
 20
88.850971798883563
 30
0.0
  0
VERTEX
  5
167D
  8
0
 10
139.6021946999017
 20
89.368141199566836
 30
0.0
  0
VERTEX
  5
167E
  8
0
 10
133.92541607885329
 20
89.711459535457607
 30
0.0
  0
VERTEX
  5
167F
  8
0
 10
131.0606413429102
 20
89.815450841831236
 30
0.0
  0
SEQEND
  5
1680
  8
0
  0
LINE
  5
F8F
  8
0
 10
102.2144874967564
 20
62.46545084183122
 30
0.0
 11
119.9067951890641
 21
62.46545084183122
 31
0.0
  0
POLYLINE
  5
F90
  8
0
 66
     1
 10
0.0
 20
0.0
 30
0.0
  0
VERTEX
  5
1681
  8
0
 10
103.75206378623329
 20
61.66545084183123
 30
0.0
  0
VERTEX
  5
1682
  8
0
 10
103.7286245431285
 20
61.690200843692793
 30
0.0
  0
VERTEX
  5
1683
  8
0
 10
103.68150967550019
 20
61.739999330978392
 30
0.0
  0
VERTEX
  5
1684
  8
0
 10
103.6340764544603
 20
61.790199154464702
 30
0.0
  0
VERTEX
  5
1685
  8
0
 10
103.6102392574911
 20
61.815450841831229
 30
0.0
  0
SEQEND
  5
1686
  8
0
  0
POLYLINE
  5
F91
  8
5
 66
     1
 10
0.0
 20
0.0
 30
0.0
  0
VERTEX
  5
1687
  8
5
 10
114.0401000881821
 20
61.815450841831229
 30
0.0
  0
VERTEX
  5
1688
  8
5
 10
114.0401000881821
 20
61.790199154463167
 30
0.0
  0
VERTEX
  5
1689
  8
5
 10
114.0401000881821
 20
61.739999330975841
 30
0.0
  0
VERTEX
  5
168A
  8
5
 10
114.0401000881821
 20
61.690200843691478
 30
0.0
  0
VERTEX
  5
168B
  8
5
 10
114.0401000881821
 20
61.66545084183123
 30
0.0
  0
SEQEND
  5
168C
  8
5
  0
LINE
  5
F92
  8
5
 10
117.4501112415186
 20
61.66545084183123
 30
0.0
 11
117.4501112415186
 21
62.46545084183122
 31
0.0
  0
LINE
  5
F93
  8
0
 10
117.4501112415186
 20
61.66545084183123
 30
0.0
 11
117.87041841824809
 21
61.66545084183123
 31
0.0
  0
POLYLINE
  5
F94
  8
0
 66
     1
 10
0.0
 20
0.0
 30
0.0
  0
VERTEX
  5
168D
  8
0
 10
118.5110434283293
 20
61.815450841831229
 30
0.0
  0
VERTEX
  5
168E
  8
0
 10
118.487206231361
 20
61.790199154465647
 30
0.0
  0
VERTEX
  5
168F
  8
0
 10
118.43977301032059
 20
61.739999330978719
 30
0.0
  0
VERTEX
  5
1690
  8
0
 10
118.3926581426913
 20
61.69020084369221
 30
0.0
  0
VERTEX
  5
1691
  8
0
 10
118.3692188995872
 20
61.66545084183123
 30
0.0
  0
SEQEND
  5
1692
  8
0
  0
POLYLINE
  5
F96
  8
0
 66
     1
 10
0.0
 20
0.0
 30
0.0
  0
VERTEX
  5
1693
  8
0
 10
108.0811825976383
 20
61.815450841831229
 30
0.0
  0
VERTEX
  5
1694
  8
0
 10
108.0811825976383
 20
61.79019915446397
 30
0.0
  0
VERTEX
  5
1695
  8
0
 10
108.0811825976383
 20
61.739999330977213
 30
0.0
  0
VERTEX
  5
1696
  8
0
 10
108.0811825976383
 20
61.69020084369221
 30
0.0
  0
VERTEX
  5
1697
  8
0
 10
108.0811825976383
 20
61.66545084183123
 30
0.0
  0
SEQEND
  5
1698
  8
0
  0
LINE
  5
F97
  8
0
 10
104.0374687213634
 20
61.66545084183123
 30
0.0
 11
104.0106413429102
 21
61.66545084183123
 31
0.0
  0
LINE
  5
F98
  8
5
 10
104.0374687213634
 20
61.66545084183123
 30
0.0
 11
104.0374687213634
 21
62.46545084183122
 31
0.0
  0
LINE
  5
F99
  8
0
 10
103.6102392574911
 20
62.46545084183122
 30
0.0
 11
103.6102392574911
 21
61.815450841831243
 31
0.0
  0
LINE
  5
F9A
  8
5
 10
104.67117144430181
 20
61.66545084183123
 30
0.0
 11
104.67117144430181
 21
62.46545084183122
 31
0.0
  0
LINE
  5
F9B
  8
5
 10
105.2856194306728
 20
61.66545084183123
 30
0.0
 11
105.2856194306728
 21
62.46545084183122
 31
0.0
  0
LINE
  5
F9C
  8
5
 10
106.07553853554499
 20
61.66545084183123
 30
0.0
 11
106.07553853554499
 21
62.46545084183122
 31
0.0
  0
POLYLINE
  5
F9D
  8
0
 66
     1
 10
0.0
 20
0.0
 30
0.0
  0
VERTEX
  5
1699
  8
0
 10
108.0811825976383
 20
61.66545084183123
 30
0.0
  0
VERTEX
  5
169A
  8
0
 10
108.0811825976383
 20
61.690200843691933
 30
0.0
  0
VERTEX
  5
169B
  8
0
 10
108.0811825976383
 20
61.739999330977369
 30
0.0
  0
VERTEX
  5
169C
  8
0
 10
108.0811825976383
 20
61.790199154464439
 30
0.0
  0
VERTEX
  5
169D
  8
0
 10
108.0811825976383
 20
61.815450841831229
 30
0.0
  0
SEQEND
  5
169E
  8
0
  0
LINE
  5
F9E
  8
5
 10
107.01692746663529
 20
61.66545084183123
 30
0.0
 11
107.01692746663529
 21
62.46545084183122
 31
0.0
  0
LINE
  5
F9F
  8
5
 10
108.0811825976383
 20
61.66545084183123
 30
0.0
 11
108.0811825976383
 21
62.46545084183122
 31
0.0
  0
LINE
  5
FA0
  8
5
 10
109.23596707493741
 20
61.66545084183123
 30
0.0
 11
109.23596707493741
 21
62.46545084183122
 31
0.0
  0
LINE
  5
FA1
  8
5
 10
110.4461933565392
 20
61.66545084183123
 30
0.0
 11
110.4461933565392
 21
62.46545084183122
 31
0.0
  0
LINE
  5
FA2
  8
5
 10
111.67508932928121
 20
61.66545084183123
 30
0.0
 11
111.67508932928121
 21
62.46545084183122
 31
0.0
  0
LINE
  5
FA3
  8
5
 10
112.885315610883
 20
61.66545084183123
 30
0.0
 11
112.885315610883
 21
62.46545084183122
 31
0.0
  0
LINE
  5
FA4
  8
0
 10
118.3692188995872
 20
61.66545084183123
 30
0.0
 11
103.75206378623329
 21
61.66545084183123
 31
0.0
  0
LINE
  5
FA5
  8
5
 10
114.0401000881821
 20
61.815450841831243
 30
0.0
 11
114.0401000881821
 21
62.46545084183122
 31
0.0
  0
LINE
  5
FA6
  8
5
 10
115.10435521918509
 20
61.66545084183123
 30
0.0
 11
115.10435521918509
 21
62.46545084183122
 31
0.0
  0
LINE
  5
FA7
  8
5
 10
116.0457441502754
 20
61.66545084183123
 30
0.0
 11
116.0457441502754
 21
62.46545084183122
 31
0.0
  0
LINE
  5
FA8
  8
5
 10
116.83566325514759
 20
61.66545084183123
 30
0.0
 11
116.83566325514759
 21
62.46545084183122
 31
0.0
  0
LINE
  5
FAA
  8
0
 10
118.5110434283293
 20
61.815450841831229
 30
0.0
 11
118.5110434283293
 21
62.46545084183122
 31
0.0
  0
LINE
  5
FAB
  8
5
 10
118.08381396445699
 20
61.66545084183123
 30
0.0
 11
118.08381396445699
 21
62.46545084183122
 31
0.0
  0
LINE
  5
FAC
  8
1
 10
111.0606413429102
 20
139.20867684540559
 30
0.0
 11
111.0606413429102
 21
169.98760609152399
 31
0.0
  0
LINE
  5
FAD
  8
5
 10
206.76709901287771
 20
61.66545084183123
 30
0.0
 11
206.76709901287771
 21
62.46545084183122
 31
0.0
  0
LINE
  5
FAE
  8
0
 10
207.19432847674989
 20
61.815450841831229
 30
0.0
 11
207.19432847674989
 21
62.46545084183122
 31
0.0
  0
POLYLINE
  5
FAF
  8
0
 66
     1
 10
0.0
 20
0.0
 30
0.0
  0
VERTEX
  5
169F
  8
0
 10
207.0525039480078
 20
61.66545084183123
 30
0.0
  0
VERTEX
  5
16A0
  8
0
 10
207.0759431911126
 20
61.690200843692821
 30
0.0
  0
VERTEX
  5
16A1
  8
0
 10
207.1230580587407
 20
61.739999330978229
 30
0.0
  0
VERTEX
  5
16A2
  8
0
 10
207.17049127978049
 20
61.790199154464467
 30
0.0
  0
VERTEX
  5
16A3
  8
0
 10
207.19432847674989
 20
61.815450841831229
 30
0.0
  0
SEQEND
  5
16A4
  8
0
  0
LINE
  5
FB0
  8
5
 10
205.51894830356821
 20
61.66545084183123
 30
0.0
 11
205.51894830356821
 21
62.46545084183122
 31
0.0
  0
LINE
  5
FB1
  8
5
 10
204.72902919869611
 20
61.66545084183123
 30
0.0
 11
204.72902919869611
 21
62.46545084183122
 31
0.0
  0
LINE
  5
FB2
  8
5
 10
203.78764026760581
 20
61.66545084183123
 30
0.0
 11
203.78764026760581
 21
62.46545084183122
 31
0.0
  0
LINE
  5
FB3
  8
5
 10
202.72338513660279
 20
61.66545084183123
 30
0.0
 11
202.72338513660279
 21
62.46545084183122
 31
0.0
  0
LINE
  5
FB4
  8
0
 10
207.0525039480078
 20
61.66545084183123
 30
0.0
 11
192.43534883465389
 21
61.66545084183123
 31
0.0
  0
LINE
  5
FB5
  8
5
 10
201.5686006593036
 20
61.66545084183123
 30
0.0
 11
201.5686006593036
 21
62.46545084183122
 31
0.0
  0
LINE
  5
FB6
  8
5
 10
200.35837437770181
 20
61.66545084183123
 30
0.0
 11
200.35837437770181
 21
62.46545084183122
 31
0.0
  0
LINE
  5
FB7
  8
5
 10
199.12947840495991
 20
61.66545084183123
 30
0.0
 11
199.12947840495991
 21
62.46545084183122
 31
0.0
  0
LINE
  5
FB8
  8
5
 10
197.91925212335809
 20
61.66545084183123
 30
0.0
 11
197.91925212335809
 21
62.46545084183122
 31
0.0
  0
LINE
  5
FB9
  8
5
 10
196.7644676460589
 20
61.66545084183123
 30
0.0
 11
196.7644676460589
 21
62.46545084183122
 31
0.0
  0
LINE
  5
FBA
  8
5
 10
195.70021251505599
 20
61.66545084183123
 30
0.0
 11
195.70021251505599
 21
62.46545084183122
 31
0.0
  0
LINE
  5
FBB
  8
5
 10
194.75882358396569
 20
61.66545084183123
 30
0.0
 11
194.75882358396569
 21
62.46545084183122
 31
0.0
  0
LINE
  5
FBC
  8
5
 10
193.96890447909351
 20
61.66545084183123
 30
0.0
 11
193.96890447909351
 21
62.46545084183122
 31
0.0
  0
LINE
  5
FBD
  8
5
 10
193.35445649272251
 20
61.66545084183123
 30
0.0
 11
193.35445649272251
 21
62.46545084183122
 31
0.0
  0
POLYLINE
  5
FBE
  8
0
 66
     1
 10
0.0
 20
0.0
 30
0.0
  0
VERTEX
  5
16A5
  8
0
 10
192.2935243059118
 20
61.815450841831229
 30
0.0
  0
VERTEX
  5
16A6
  8
0
 10
192.31736150287989
 20
61.79019915446581
 30
0.0
  0
VERTEX
  5
16A7
  8
0
 10
192.36479472391909
 20
61.739999330980282
 30
0.0
  0
VERTEX
  5
16A8
  8
0
 10
192.41190959154829
 20
61.690200843693773
 30
0.0
  0
VERTEX
  5
16A9
  8
0
 10
192.43534883465389
 20
61.66545084183123
 30
0.0
  0
SEQEND
  5
16AA
  8
0
  0
LINE
  5
FBF
  8
0
 10
192.2935243059118
 20
62.46545084183122
 30
0.0
 11
192.2935243059118
 21
61.815450841831243
 31
0.0
  0
LINE
  5
FC0
  8
5
 10
192.7207537697841
 20
61.66545084183123
 30
0.0
 11
192.7207537697841
 21
62.46545084183122
 31
0.0
  0
LINE
  5
FC1
  8
5
 10
206.13339628993921
 20
61.66545084183123
 30
0.0
 11
206.13339628993921
 21
62.46545084183122
 31
0.0
  0
LINE
  5
FC2
  8
1
 10
111.0606413429102
 20
32.782569095637427
 30
0.0
 11
111.0606413429102
 21
110.39398427050131
 31
0.0
  0
LINE
  5
FC3
  8
1
 10
199.74392639133089
 20
32.462459219500722
 30
0.0
 11
199.74392639133089
 21
109.7926034718202
 31
0.0
  0
LINE
  5
FC4
  8
0
 10
115.0606413429102
 20
37.232450841831231
 30
0.0
 11
115.0606413429102
 21
61.465450841831228
 31
0.0
  0
LINE
  5
FC5
  8
0
 10
107.0606413429102
 20
61.465450841831228
 30
0.0
 11
107.0606413429102
 21
37.232450841831231
 31
0.0
  0
LINE
  5
FC6
  8
0
 10
114.29364134291021
 20
36.465450841831228
 30
0.0
 11
115.0606413429102
 21
37.232450841831231
 31
0.0
  0
LINE
  5
FC7
  8
0
 10
107.0606413429102
 20
37.232450841831231
 30
0.0
 11
107.8276413429102
 21
36.465450841831228
 31
0.0
  0
LINE
  5
FC8
  8
0
 10
107.0606413429102
 20
37.232450841831231
 30
0.0
 11
115.0606413429102
 21
37.232450841831231
 31
0.0
  0
LINE
  5
FC9
  8
0
 10
107.8276413429102
 20
36.465450841831228
 30
0.0
 11
114.29364134291021
 21
36.465450841831228
 31
0.0
  0
LINE
  5
FCA
  8
5
 10
114.29364134291021
 20
36.465450841831228
 30
0.0
 11
114.29364134291021
 21
60.46545084183122
 31
0.0
  0
LINE
  5
FCB
  8
5
 10
115.0606413429102
 20
61.465450841831228
 30
0.0
 11
114.29364134291021
 21
60.46545084183122
 31
0.0
  0
LINE
  5
FCC
  8
0
 10
115.0606413429102
 20
60.46545084183122
 30
0.0
 11
107.0606413429102
 21
60.46545084183122
 31
0.0
  0
LINE
  5
FCD
  8
5
 10
107.8276413429102
 20
36.465450841831228
 30
0.0
 11
107.8276413429102
 21
60.46545084183122
 31
0.0
  0
LINE
  5
FCE
  8
5
 10
107.0606413429102
 20
61.465450841831228
 30
0.0
 11
107.8276413429102
 21
60.46545084183122
 31
0.0
  0
LINE
  5
FCF
  8
5
 10
195.74392639133089
 20
61.465450841831228
 30
0.0
 11
196.51092639133091
 21
60.46545084183122
 31
0.0
  0
LINE
  5
FD0
  8
5
 10
196.51092639133091
 20
36.465450841831228
 30
0.0
 11
196.51092639133091
 21
60.46545084183122
 31
0.0
  0
LINE
  5
FD1
  8
0
 10
203.74392639133089
 20
60.46545084183122
 30
0.0
 11
195.74392639133089
 21
60.46545084183122
 31
0.0
  0
LINE
  5
FD2
  8
5
 10
203.74392639133089
 20
61.465450841831228
 30
0.0
 11
202.97692639133089
 21
60.46545084183122
 31
0.0
  0
LINE
  5
FD3
  8
5
 10
202.97692639133089
 20
36.465450841831228
 30
0.0
 11
202.97692639133089
 21
60.46545084183122
 31
0.0
  0
LINE
  5
FD4
  8
0
 10
196.51092639133091
 20
36.465450841831228
 30
0.0
 11
202.97692639133089
 21
36.465450841831228
 31
0.0
  0
LINE
  5
FD5
  8
0
 10
195.74392639133089
 20
37.232450841831231
 30
0.0
 11
203.74392639133089
 21
37.232450841831231
 31
0.0
  0
LINE
  5
FD6
  8
0
 10
195.74392639133089
 20
37.232450841831231
 30
0.0
 11
196.51092639133091
 21
36.465450841831228
 31
0.0
  0
LINE
  5
FD7
  8
0
 10
202.97692639133089
 20
36.465450841831228
 30
0.0
 11
203.74392639133089
 21
37.232450841831231
 31
0.0
  0
LINE
  5
FD8
  8
0
 10
195.74392639133089
 20
61.465450841831228
 30
0.0
 11
195.74392639133089
 21
37.232450841831231
 31
0.0
  0
LINE
  5
FD9
  8
0
 10
203.74392639133089
 20
37.232450841831231
 30
0.0
 11
203.74392639133089
 21
61.465450841831228
 31
0.0
  0
TEXT
  5
10AA
  8
0
 62
     3
 10
0.0
 20
0.0
 30
0.0
 40
10.0
  1
ATH80N-M8X25
  7
STANDARD1
  0
ENDSEC
  0
EOF
