  0
SECTION
  2
HEADER
  9
$ACADVER
  1
AC1009
  9
$INSBASE
 10
0.0
 20
0.0
 30
0.0
  9
$EXTMIN
 10
-0.0204638472032742
 20
-2.960436562073669
 30
0.0
  9
$EXTMAX
 10
214.05972134215
 20
181.72242384056921
 30
0.0
  9
$LIMMIN
 10
0.0
 20
0.0
  9
$LIMMAX
 10
420.0
 20
297.0
  9
$ORTHOMODE
 70
     0
  9
$REGENMODE
 70
     1
  9
$FILLMODE
 70
     1
  9
$QTEXTMODE
 70
     0
  9
$MIRRTEXT
 70
     0
  9
$DRAGMODE
 70
     2
  9
$LTSCALE
 40
1.0
  9
$OSMODE
 70
  3071
  9
$ATTMODE
 70
     1
  9
$TEXTSIZE
 40
2.5
  9
$TRACEWID
 40
1.0
  9
$TEXTSTYLE
  7
STANDARD
  9
$CLAYER
  8
0
  9
$CELTYPE
  6
BYLAYER
  9
$CECOLOR
 62
   256
  9
$DIMSCALE
 40
1.0
  9
$DIMASZ
 40
2.5
  9
$DIMEXO
 40
0.625
  9
$DIMDLI
 40
3.75
  9
$DIMRND
 40
0.0
  9
$DIMDLE
 40
0.0
  9
$DIMEXE
 40
1.25
  9
$DIMTP
 40
0.0
  9
$DIMTM
 40
0.0
  9
$DIMTXT
 40
2.5
  9
$DIMCEN
 40
2.5
  9
$DIMTSZ
 40
0.0
  9
$DIMTOL
 70
     0
  9
$DIMLIM
 70
     0
  9
$DIMTIH
 70
     0
  9
$DIMTOH
 70
     0
  9
$DIMSE1
 70
     0
  9
$DIMSE2
 70
     0
  9
$DIMTAD
 70
     1
  9
$DIMZIN
 70
     8
  9
$DIMBLK
  1

  9
$DIMASO
 70
     1
  9
$DIMSHO
 70
     1
  9
$DIMPOST
  1

  9
$DIMAPOST
  1

  9
$DIMALT
 70
     0
  9
$DIMALTD
 70
     3
  9
$DIMALTF
 40
0.03937007874016
  9
$DIMLFAC
 40
1.0
  9
$DIMTOFL
 70
     1
  9
$DIMTVP
 40
0.0
  9
$DIMTIX
 70
     0
  9
$DIMSOXD
 70
     0
  9
$DIMSAH
 70
     0
  9
$DIMBLK1
  1

  9
$DIMBLK2
  1

  9
$DIMSTYLE
  2
ISO-25
  9
$DIMCLRD
 70
     0
  9
$DIMCLRE
 70
     0
  9
$DIMCLRT
 70
     0
  9
$DIMTFAC
 40
1.0
  9
$DIMGAP
 40
0.625
  9
$LUNITS
 70
     2
  9
$LUPREC
 70
     4
  9
$SKETCHINC
 40
1.0
  9
$FILLETRAD
 40
0.0
  9
$AUNITS
 70
     0
  9
$AUPREC
 70
     0
  9
$MENU
  1
.
  9
$ELEVATION
 40
0.0
  9
$PELEVATION
 40
0.0
  9
$THICKNESS
 40
0.0
  9
$LIMCHECK
 70
     0
  9
$BLIPMODE
 70
     0
  9
$CHAMFERA
 40
0.0
  9
$CHAMFERB
 40
0.0
  9
$SKPOLY
 70
     0
  9
$TDCREATE
 40
2454979.4917406249
  9
$TDUPDATE
 40
2456597.5647231131
  9
$TDINDWG
 40
0.0906267708
  9
$TDUSRTIMER
 40
0.0906265972
  9
$USRTIMER
 70
     1
  9
$ANGBASE
 50
0.0
  9
$ANGDIR
 70
     0
  9
$PDMODE
 70
     0
  9
$PDSIZE
 40
0.0
  9
$PLINEWID
 40
0.0
  9
$COORDS
 70
     1
  9
$SPLFRAME
 70
     0
  9
$SPLINETYPE
 70
     6
  9
$SPLINESEGS
 70
     8
  9
$ATTDIA
 70
     0
  9
$ATTREQ
 70
     1
  9
$HANDLING
 70
     1
  9
$HANDSEED
  5
12D4
  9
$SURFTAB1
 70
     6
  9
$SURFTAB2
 70
     6
  9
$SURFTYPE
 70
     6
  9
$SURFU
 70
     6
  9
$SURFV
 70
     6
  9
$UCSNAME
  2

  9
$UCSORG
 10
0.0
 20
0.0
 30
0.0
  9
$UCSXDIR
 10
1.0
 20
0.0
 30
0.0
  9
$UCSYDIR
 10
0.0
 20
1.0
 30
0.0
  9
$PUCSNAME
  2

  9
$PUCSORG
 10
0.0
 20
0.0
 30
0.0
  9
$PUCSXDIR
 10
1.0
 20
0.0
 30
0.0
  9
$PUCSYDIR
 10
0.0
 20
1.0
 30
0.0
  9
$USERI1
 70
     0
  9
$USERI2
 70
     0
  9
$USERI3
 70
     0
  9
$USERI4
 70
     0
  9
$USERI5
 70
     0
  9
$USERR1
 40
0.0
  9
$USERR2
 40
0.0
  9
$USERR3
 40
0.0
  9
$USERR4
 40
0.0
  9
$USERR5
 40
0.0
  9
$WORLDVIEW
 70
     1
  9
$SHADEDGE
 70
     3
  9
$SHADEDIF
 70
    70
  9
$TILEMODE
 70
     1
  9
$MAXACTVP
 70
    64
  9
$PLIMCHECK
 70
     0
  9
$PEXTMIN
 10
0.0
 20
0.0
 30
0.0
  9
$PEXTMAX
 10
0.0
 20
0.0
 30
0.0
  9
$PLIMMIN
 10
0.0
 20
0.0
  9
$PLIMMAX
 10
12.0
 20
9.0
  9
$UNITMODE
 70
     0
  9
$VISRETAIN
 70
     1
  9
$PLINEGEN
 70
     0
  9
$PSLTSCALE
 70
     1
  0
ENDSEC
  0
SECTION
  2
TABLES
  0
TABLE
  2
VPORT
 70
     1
  0
VPORT
  2
*ACTIVE
 70
     0
 10
0.0
 20
0.0
 11
1.0
 21
1.0
 12
218.28962076239009
 22
147.0112842185321
 13
0.0
 23
0.0
 14
10.0
 24
10.0
 15
10.0
 25
10.0
 16
0.0
 26
0.0
 36
1.0
 17
0.0
 27
0.0
 37
0.0
 40
302.66781211506969
 41
1.831871345029239
 42
50.0
 43
0.0
 44
0.0
 50
0.0
 51
0.0
 71
     0
 72
  1000
 73
     1
 74
     3
 75
     0
 76
     0
 77
     0
 78
     0
  0
ENDTAB
  0
TABLE
  2
LTYPE
 70
     4
  0
LTYPE
  2
CONTINUOUS
 70
     0
  3
Solid line
 72
    65
 73
     0
 40
0.0
  0
LTYPE
  2
CENTER
 70
     0
  3
____ _ ____ _ ____ _ ____ _ ____ _ ____ _ ____
 72
    65
 73
     4
 40
2.0
 49
1.25
 49
-0.25
 49
0.25
 49
-0.25
  0
LTYPE
  2
PHANTOM
 70
     0
  3
_____ _ _ _____ _ _ _____ _ _ _____ _ _ ____
 72
    65
 73
     6
 40
2.5
 49
1.25
 49
-0.25
 49
0.25
 49
-0.25
 49
0.25
 49
-0.25
  0
LTYPE
  2
HIDDEN
 70
     0
  3
_ _ _ _ _ _ _ _ _ _ _ _ _ _ _ _ _ _ _ _ _ _ _
 72
    65
 73
     2
 40
0.375
 49
0.25
 49
-0.125
  0
ENDTAB
  0
TABLE
  2
LAYER
 70
     5
  0
LAYER
  2
0
 70
     0
 62
     7
  6
CONTINUOUS
  0
LAYER
  2
1
 70
     0
 62
     1
  6
CENTER
  0
LAYER
  2
5
 70
     0
 62
     3
  6
PHANTOM
  0
LAYER
  2
2
 70
     0
 62
     2
  6
HIDDEN
  0
LAYER
  2
DEFPOINTS
 70
     0
 62
     7
  6
CONTINUOUS
  0
ENDTAB
  0
TABLE
  2
STYLE
 70
     2
  0
STYLE
  2
STANDARD
 70
     0
 40
0.0
 41
1.0
 50
0.0
 71
     0
 42
2.5
  3
txt
  4

  0
STYLE
  2
STANDARD1
 70
     0
 40
0.0
 41
1.0
 50
0.0
 71
     0
 42
3.0
  3
txt
  4

  0
ENDTAB
  0
TABLE
  2
VIEW
 70
     0
  0
ENDTAB
  0
TABLE
  2
UCS
 70
     0
  0
ENDTAB
  0
TABLE
  2
APPID
 70
     3
  0
APPID
  2
ACAD
 70
     0
  0
APPID
  2
ACAD_MLEADERVER
 70
     0
  0
APPID
  2
ACAD_NAV_VCDISPLAY
 70
     0
  0
ENDTAB
  0
TABLE
  2
DIMSTYLE
 70
     2
  0
DIMSTYLE
  2
ISO-25
 70
     0
  3

  4

  5

  6

  7

 40
1.0
 41
2.5
 42
0.625
 43
3.75
 44
1.25
 45
0.0
 46
0.0
 47
0.0
 48
0.0
140
2.5
141
2.5
142
0.0
143
0.03937007874016
144
1.0
145
0.0
146
1.0
147
0.625
 71
     0
 72
     0
 73
     0
 74
     0
 75
     0
 76
     0
 77
     1
 78
     8
170
     0
171
     3
172
     1
173
     0
174
     0
175
     0
176
     0
177
     0
178
     0
  0
DIMSTYLE
  2
STANDARD
 70
     0
  3

  4

  5

  6

  7

 40
1.0
 41
0.18
 42
0.0625
 43
0.38
 44
0.18
 45
0.0
 46
0.0
 47
0.0
 48
0.0
140
0.18
141
0.09
142
0.0
143
25.399999999999999
144
1.0
145
0.0
146
1.0
147
0.09
 71
     0
 72
     0
 73
     1
 74
     1
 75
     0
 76
     0
 77
     0
 78
     0
170
     0
171
     2
172
     0
173
     0
174
     0
175
     0
176
     0
177
     0
178
     0
  0
ENDTAB
  0
ENDSEC
  0
SECTION
  2
BLOCKS
  0
BLOCK
  8
0
  2
$MODEL_SPACE
 70
     0
 10
0.0
 20
0.0
 30
0.0
  3
$MODEL_SPACE
  1

  0
ENDBLK
  5
21
  8
0
  0
BLOCK
 67
     1
  8
0
  2
$PAPER_SPACE
 70
     0
 10
0.0
 20
0.0
 30
0.0
  3
$PAPER_SPACE
  1

  0
ENDBLK
  5
53
 67
     1
  8
0
  0
ENDSEC
  0
SECTION
  2
ENTITIES
  0
LINE
  5
A07
  8
1
 10
204.05972134214991
 20
66.111947234492931
 30
0.0
 11
204.05972134214991
 21
121.52742122086541
 31
0.0
  0
LINE
  5
A08
  8
1
 10
115.3764362937292
 20
66.713328033174093
 30
0.0
 11
115.3764362937292
 21
122.1288020195466
 31
0.0
  0
LINE
  5
A0A
  8
5
 10
210.4491912407583
 20
73.400268590876465
 30
0.0
 11
210.4491912407583
 21
74.200268590876476
 31
0.0
  0
LINE
  5
A0D
  8
5
 10
197.03654872060309
 20
73.400268590876465
 30
0.0
 11
197.03654872060309
 21
74.200268590876476
 31
0.0
  0
LINE
  5
A0E
  8
0
 10
196.6093192567308
 20
74.200268590876476
 30
0.0
 11
196.6093192567308
 21
73.550268590876499
 31
0.0
  0
POLYLINE
  5
A0F
  8
0
 66
     1
 10
0.0
 20
0.0
 30
0.0
  0
VERTEX
  5
BEE
  8
0
 10
196.6093192567308
 20
73.55026859087647
 30
0.0
  0
VERTEX
  5
BEF
  8
0
 10
196.63315645369889
 20
73.525016903511073
 30
0.0
  0
VERTEX
  5
BF0
  8
0
 10
196.68058967473809
 20
73.474817080025531
 30
0.0
  0
VERTEX
  5
BF1
  8
0
 10
196.72770454236729
 20
73.425018592739036
 30
0.0
  0
VERTEX
  5
BF2
  8
0
 10
196.75114378547289
 20
73.400268590876465
 30
0.0
  0
SEQEND
  5
BF3
  8
0
  0
LINE
  5
A10
  8
5
 10
197.6702514435415
 20
73.400268590876465
 30
0.0
 11
197.6702514435415
 21
74.200268590876476
 31
0.0
  0
LINE
  5
A11
  8
5
 10
198.28469942991251
 20
73.400268590876465
 30
0.0
 11
198.28469942991251
 21
74.200268590876476
 31
0.0
  0
LINE
  5
A12
  8
5
 10
199.07461853478469
 20
73.400268590876465
 30
0.0
 11
199.07461853478469
 21
74.200268590876476
 31
0.0
  0
LINE
  5
A14
  8
5
 10
200.01600746587499
 20
73.400268590876465
 30
0.0
 11
200.01600746587499
 21
74.200268590876476
 31
0.0
  0
LINE
  5
A15
  8
5
 10
201.0802625968779
 20
73.400268590876465
 30
0.0
 11
201.0802625968779
 21
74.200268590876476
 31
0.0
  0
LINE
  5
A16
  8
5
 10
202.23504707417709
 20
73.400268590876465
 30
0.0
 11
202.23504707417709
 21
74.200268590876476
 31
0.0
  0
LINE
  5
A17
  8
5
 10
203.44527335577891
 20
73.400268590876465
 30
0.0
 11
203.44527335577891
 21
74.200268590876476
 31
0.0
  0
LINE
  5
A18
  8
5
 10
204.67416932852089
 20
73.400268590876465
 30
0.0
 11
204.67416932852089
 21
74.200268590876476
 31
0.0
  0
LINE
  5
A19
  8
5
 10
205.88439561012271
 20
73.400268590876465
 30
0.0
 11
205.88439561012271
 21
74.200268590876476
 31
0.0
  0
LINE
  5
A1A
  8
0
 10
211.36829889882679
 20
73.400268590876465
 30
0.0
 11
196.75114378547289
 21
73.400268590876465
 31
0.0
  0
LINE
  5
A1D
  8
5
 10
207.03918008742181
 20
73.400268590876465
 30
0.0
 11
207.03918008742181
 21
74.200268590876476
 31
0.0
  0
LINE
  5
A1E
  8
5
 10
208.10343521842469
 20
73.400268590876465
 30
0.0
 11
208.10343521842469
 21
74.200268590876476
 31
0.0
  0
LINE
  5
A1F
  8
5
 10
209.04482414951499
 20
73.400268590876465
 30
0.0
 11
209.04482414951499
 21
74.200268590876476
 31
0.0
  0
LINE
  5
A20
  8
5
 10
209.83474325438729
 20
73.400268590876465
 30
0.0
 11
209.83474325438729
 21
74.200268590876476
 31
0.0
  0
POLYLINE
  5
A21
  8
0
 66
     1
 10
0.0
 20
0.0
 30
0.0
  0
VERTEX
  5
BF4
  8
0
 10
211.36829889882679
 20
73.400268590876465
 30
0.0
  0
VERTEX
  5
BF5
  8
0
 10
211.39173814193151
 20
73.42501859273807
 30
0.0
  0
VERTEX
  5
BF6
  8
0
 10
211.43885300955981
 20
73.474817080023485
 30
0.0
  0
VERTEX
  5
BF7
  8
0
 10
211.48628623059949
 20
73.525016903509709
 30
0.0
  0
VERTEX
  5
BF8
  8
0
 10
211.510123427569
 20
73.55026859087647
 30
0.0
  0
SEQEND
  5
BF9
  8
0
  0
LINE
  5
A22
  8
0
 10
211.510123427569
 20
73.55026859087647
 30
0.0
 11
211.510123427569
 21
74.200268590876476
 31
0.0
  0
LINE
  5
A23
  8
5
 10
211.0828939636967
 20
73.400268590876465
 30
0.0
 11
211.0828939636967
 21
74.200268590876476
 31
0.0
  0
LINE
  5
A24
  8
2
 10
206.5182213421499
 20
73.741768590876461
 30
0.0
 11
201.6012213421499
 21
73.741768590876461
 31
0.0
  0
LINE
  5
A25
  8
1
 10
115.3764362937292
 20
150.94349459445081
 30
0.0
 11
115.3764362937292
 21
181.72242384056921
 31
0.0
  0
LINE
  5
A26
  8
2
 10
112.3764362937292
 20
73.200268590876476
 30
0.0
 11
112.3764362937292
 21
89.200268590876476
 31
0.0
  0
LINE
  5
A27
  8
2
 10
118.3764362937292
 20
89.200268590876476
 30
0.0
 11
112.3764362937292
 21
89.200268590876476
 31
0.0
  0
LINE
  5
A28
  8
2
 10
118.3764362937292
 20
73.200268590876476
 30
0.0
 11
118.3764362937292
 21
89.200268590876476
 31
0.0
  0
LINE
  5
A29
  8
2
 10
117.8349362937292
 20
73.741768590876461
 30
0.0
 11
112.9179362937292
 21
73.741768590876461
 31
0.0
  0
LINE
  5
A2A
  8
2
 10
117.8349362937292
 20
92.400268590876465
 30
0.0
 11
112.9179362937292
 21
92.400268590876465
 31
0.0
  0
LINE
  5
A2B
  8
5
 10
122.399608915276
 20
73.400268590876465
 30
0.0
 11
122.399608915276
 21
74.200268590876476
 31
0.0
  0
LINE
  5
A2C
  8
0
 10
122.8268383791483
 20
73.55026859087647
 30
0.0
 11
122.8268383791483
 21
74.200268590876476
 31
0.0
  0
POLYLINE
  5
A2D
  8
0
 66
     1
 10
0.0
 20
0.0
 30
0.0
  0
VERTEX
  5
BFA
  8
0
 10
122.68501385040609
 20
73.400268590876465
 30
0.0
  0
VERTEX
  5
BFB
  8
0
 10
122.7084530935109
 20
73.42501859273807
 30
0.0
  0
VERTEX
  5
BFC
  8
0
 10
122.75556796113911
 20
73.474817080023485
 30
0.0
  0
VERTEX
  5
BFD
  8
0
 10
122.8030011821789
 20
73.525016903509709
 30
0.0
  0
VERTEX
  5
BFE
  8
0
 10
122.8268383791483
 20
73.55026859087647
 30
0.0
  0
SEQEND
  5
BFF
  8
0
  0
LINE
  5
A2E
  8
5
 10
121.15145820596661
 20
73.400268590876465
 30
0.0
 11
121.15145820596661
 21
74.200268590876476
 31
0.0
  0
LINE
  5
A2F
  8
5
 10
120.36153910109439
 20
73.400268590876465
 30
0.0
 11
120.36153910109439
 21
74.200268590876476
 31
0.0
  0
LINE
  5
A30
  8
5
 10
119.42015017000411
 20
73.400268590876465
 30
0.0
 11
119.42015017000411
 21
74.200268590876476
 31
0.0
  0
LINE
  5
A31
  8
5
 10
118.3558950390011
 20
73.400268590876465
 30
0.0
 11
118.3558950390011
 21
74.200268590876476
 31
0.0
  0
LINE
  5
A32
  8
5
 10
118.3558950390011
 20
73.550268590876499
 30
0.0
 11
118.3558950390011
 21
74.200268590876476
 31
0.0
  0
LINE
  5
A34
  8
0
 10
122.68501385040609
 20
73.400268590876465
 30
0.0
 11
108.0678587370523
 21
73.400268590876465
 31
0.0
  0
LINE
  5
A35
  8
5
 10
117.201110561702
 20
73.400268590876465
 30
0.0
 11
117.201110561702
 21
74.200268590876476
 31
0.0
  0
LINE
  5
A36
  8
5
 10
115.9908842801002
 20
73.400268590876465
 30
0.0
 11
115.9908842801002
 21
74.200268590876476
 31
0.0
  0
LINE
  5
A37
  8
5
 10
114.76198830735819
 20
73.400268590876465
 30
0.0
 11
114.76198830735819
 21
74.200268590876476
 31
0.0
  0
LINE
  5
A38
  8
5
 10
113.5517620257564
 20
73.400268590876465
 30
0.0
 11
113.5517620257564
 21
74.200268590876476
 31
0.0
  0
LINE
  5
A39
  8
5
 10
112.3969775484573
 20
73.400268590876465
 30
0.0
 11
112.3969775484573
 21
74.200268590876476
 31
0.0
  0
LINE
  5
A3A
  8
5
 10
111.33272241745431
 20
73.400268590876465
 30
0.0
 11
111.33272241745431
 21
74.200268590876476
 31
0.0
  0
LINE
  5
A3C
  8
5
 10
110.391333486364
 20
73.400268590876465
 30
0.0
 11
110.391333486364
 21
74.200268590876476
 31
0.0
  0
LINE
  5
A3D
  8
5
 10
109.60141438149179
 20
73.400268590876465
 30
0.0
 11
109.60141438149179
 21
74.200268590876476
 31
0.0
  0
LINE
  5
A3E
  8
5
 10
108.9869663951208
 20
73.400268590876465
 30
0.0
 11
108.9869663951208
 21
74.200268590876476
 31
0.0
  0
POLYLINE
  5
A3F
  8
0
 66
     1
 10
0.0
 20
0.0
 30
0.0
  0
VERTEX
  5
C00
  8
0
 10
107.9260342083101
 20
73.55026859087647
 30
0.0
  0
VERTEX
  5
C01
  8
0
 10
107.9498714052783
 20
73.525016903511073
 30
0.0
  0
VERTEX
  5
C02
  8
0
 10
107.9973046263174
 20
73.474817080025531
 30
0.0
  0
VERTEX
  5
C03
  8
0
 10
108.04441949394661
 20
73.425018592739036
 30
0.0
  0
VERTEX
  5
C04
  8
0
 10
108.0678587370523
 20
73.400268590876465
 30
0.0
  0
SEQEND
  5
C05
  8
0
  0
LINE
  5
A40
  8
0
 10
107.9260342083101
 20
74.200268590876476
 30
0.0
 11
107.9260342083101
 21
73.550268590876499
 31
0.0
  0
LINE
  5
A41
  8
5
 10
108.35326367218239
 20
73.400268590876465
 30
0.0
 11
108.35326367218239
 21
74.200268590876476
 31
0.0
  0
LINE
  5
A42
  8
0
 10
108.35326367218239
 20
73.400268590876465
 30
0.0
 11
108.3264362937292
 21
73.400268590876465
 31
0.0
  0
LINE
  5
A44
  8
5
 10
112.3969775484573
 20
74.200268590876476
 30
0.0
 11
112.3969775484573
 21
73.550268590876499
 31
0.0
  0
POLYLINE
  5
A45
  8
0
 66
     1
 10
0.0
 20
0.0
 30
0.0
  0
VERTEX
  5
C06
  8
0
 10
122.8268383791483
 20
73.55026859087647
 30
0.0
  0
VERTEX
  5
C07
  8
0
 10
122.80300118218
 20
73.525016903510902
 30
0.0
  0
VERTEX
  5
C08
  8
0
 10
122.7555679611396
 20
73.474817080023968
 30
0.0
  0
VERTEX
  5
C09
  8
0
 10
122.7084530935103
 20
73.425018592737445
 30
0.0
  0
VERTEX
  5
C0A
  8
0
 10
122.68501385040609
 20
73.400268590876465
 30
0.0
  0
SEQEND
  5
C0B
  8
0
  0
LINE
  5
A46
  8
0
 10
121.7659061923376
 20
73.400268590876465
 30
0.0
 11
122.1862133690671
 21
73.400268590876465
 31
0.0
  0
LINE
  5
A47
  8
5
 10
121.7659061923376
 20
73.400268590876465
 30
0.0
 11
121.7659061923376
 21
74.200268590876476
 31
0.0
  0
POLYLINE
  5
A49
  8
0
 66
     1
 10
0.0
 20
0.0
 30
0.0
  0
VERTEX
  5
C0C
  8
0
 10
108.0678587370523
 20
73.400268590876465
 30
0.0
  0
VERTEX
  5
C0D
  8
0
 10
108.0444194939476
 20
73.425018592738041
 30
0.0
  0
VERTEX
  5
C0E
  8
0
 10
107.99730462631921
 20
73.474817080023627
 30
0.0
  0
VERTEX
  5
C0F
  8
0
 10
107.9498714052793
 20
73.525016903509936
 30
0.0
  0
VERTEX
  5
C10
  8
0
 10
107.9260342083101
 20
73.55026859087647
 30
0.0
  0
SEQEND
  5
C11
  8
0
  0
LINE
  5
A4A
  8
0
 10
106.5302824475754
 20
74.200268590876476
 30
0.0
 11
124.2225901398831
 21
74.200268590876476
 31
0.0
  0
POLYLINE
  5
A4B
  8
0
 66
     1
 10
0.0
 20
0.0
 30
0.0
  0
VERTEX
  5
C12
  8
0
 10
152.2623490920376
 20
100.2649709079252
 30
0.0
  0
VERTEX
  5
C13
  8
0
 10
149.5071173876581
 20
100.5857895479288
 30
0.0
  0
VERTEX
  5
C14
  8
0
 10
143.9179896507207
 20
101.1029589486121
 30
0.0
  0
VERTEX
  5
C15
  8
0
 10
138.24121102967229
 20
101.4462772845028
 30
0.0
  0
VERTEX
  5
C16
  8
0
 10
135.37643629372911
 20
101.5502685908765
 30
0.0
  0
SEQEND
  5
C17
  8
0
  0
POLYLINE
  5
A4C
  8
0
 66
     1
 10
0.0
 20
0.0
 30
0.0
  0
VERTEX
  5
C18
  8
0
 10
78.490523495420902
 20
113.53766516022741
 30
0.0
  0
VERTEX
  5
C19
  8
0
 10
80.464511122431105
 20
113.71117111470561
 30
0.0
  0
VERTEX
  5
C1A
  8
0
 10
84.450367546468172
 20
114.03223685148041
 30
0.0
  0
VERTEX
  5
C1B
  8
0
 10
88.481733323668308
 20
114.3172139159901
 30
0.0
  0
VERTEX
  5
C1C
  8
0
 10
90.512597344718117
 20
114.4456589286509
 30
0.0
  0
VERTEX
  5
C1D
  8
0
 10
92.552577736761634
 20
114.5644969750519
 30
0.0
  0
VERTEX
  5
C1E
  8
0
 10
96.656887090744874
 20
114.77270232834969
 30
0.0
  0
VERTEX
  5
C1F
  8
0
 10
100.7885733426486
 20
114.9406672026319
 30
0.0
  0
VERTEX
  5
C20
  8
0
 10
104.9415062570272
 20
115.06745712288
 30
0.0
  0
VERTEX
  5
C21
  8
0
 10
109.1095444170946
 20
115.1523707518562
 30
0.0
  0
VERTEX
  5
C22
  8
0
 10
113.2865235688588
 20
115.19494204993769
 30
0.0
  0
VERTEX
  5
C23
  8
0
 10
115.3764362937291
 20
115.20026859087631
 30
0.0
  0
VERTEX
  5
C24
  8
0
 10
117.4663490185994
 20
115.19494204993769
 30
0.0
  0
VERTEX
  5
C25
  8
0
 10
121.6433281703636
 20
115.1523707518562
 30
0.0
  0
VERTEX
  5
C26
  8
0
 10
125.8113663304311
 20
115.0674571228801
 30
0.0
  0
VERTEX
  5
C27
  8
0
 10
129.96429924480969
 20
114.9406672026321
 30
0.0
  0
VERTEX
  5
C28
  8
0
 10
134.09598549671341
 20
114.77270232834979
 30
0.0
  0
VERTEX
  5
C29
  8
0
 10
138.20029485069671
 20
114.56449697505199
 30
0.0
  0
VERTEX
  5
C2A
  8
0
 10
140.24027524274021
 20
114.4456589286512
 30
0.0
  0
VERTEX
  5
C2B
  8
0
 10
142.27113926378999
 20
114.31721391599019
 30
0.0
  0
VERTEX
  5
C2C
  8
0
 10
146.30250504099021
 20
114.0322368514806
 30
0.0
  0
VERTEX
  5
C2D
  8
0
 10
150.28836146502729
 20
113.71117111470581
 30
0.0
  0
VERTEX
  5
C2E
  8
0
 10
152.2623490920376
 20
113.5376651602276
 30
0.0
  0
SEQEND
  5
C2F
  8
0
  0
POLYLINE
  5
A4D
  8
0
 66
     1
 10
0.0
 20
0.0
 30
0.0
  0
VERTEX
  5
C30
  8
0
 10
95.376436293743879
 20
101.5502685908771
 30
0.0
  0
VERTEX
  5
C31
  8
0
 10
92.511661557798178
 20
101.44627728450349
 30
0.0
  0
VERTEX
  5
C32
  8
0
 10
86.834882936744933
 20
101.1029589486127
 30
0.0
  0
VERTEX
  5
C33
  8
0
 10
81.245755199802659
 20
100.585789547929
 30
0.0
  0
VERTEX
  5
C34
  8
0
 10
78.490523495420902
 20
100.264970907925
 30
0.0
  0
SEQEND
  5
C35
  8
0
  0
POLYLINE
  5
A4E
  8
0
 66
     1
 10
0.0
 20
0.0
 30
0.0
  0
VERTEX
  5
C36
  8
0
 10
101.78313826424311
 20
99.228430471236521
 30
0.0
  0
VERTEX
  5
C37
  8
0
 10
101.63591243654081
 20
99.348919654847322
 30
0.0
  0
VERTEX
  5
C38
  8
0
 10
101.3328190019954
 20
99.582796526256985
 30
0.0
  0
VERTEX
  5
C39
  8
0
 10
101.0187536685676
 20
99.806433235649365
 30
0.0
  0
VERTEX
  5
C3A
  8
0
 10
100.8578255496964
 20
99.914141606684936
 30
0.0
  0
VERTEX
  5
C3B
  8
0
 10
100.6944194383387
 20
100.0189789574937
 30
0.0
  0
VERTEX
  5
C3C
  8
0
 10
100.3605558929542
 20
100.2196717895184
 30
0.0
  0
VERTEX
  5
C3D
  8
0
 10
100.01797115351989
 20
100.4078164538773
 30
0.0
  0
VERTEX
  5
C3E
  8
0
 10
99.667529821371375
 20
100.5827940592618
 30
0.0
  0
VERTEX
  5
C3F
  8
0
 10
99.310136738712615
 20
100.7440708950997
 30
0.0
  0
VERTEX
  5
C40
  8
0
 10
98.946663512104976
 20
100.8912255873074
 30
0.0
  0
VERTEX
  5
C41
  8
0
 10
98.762882133622682
 20
100.9594122593232
 30
0.0
  0
VERTEX
  5
C42
  8
0
 10
98.577896565770985
 20
101.02395066948471
 30
0.0
  0
VERTEX
  5
C43
  8
0
 10
98.204818235048108
 20
101.14194496125231
 30
0.0
  0
VERTEX
  5
C44
  8
0
 10
97.828461924347764
 20
101.24498727203451
 30
0.0
  0
VERTEX
  5
C45
  8
0
 10
97.449885338832047
 20
101.332947623604
 30
0.0
  0
VERTEX
  5
C46
  8
0
 10
97.070153039503595
 20
101.4057910826112
 30
0.0
  0
VERTEX
  5
C47
  8
0
 10
96.690335870724695
 20
101.4635762074884
 30
0.0
  0
VERTEX
  5
C48
  8
0
 10
96.500739145862696
 20
101.4868647433168
 30
0.0
  0
VERTEX
  5
C49
  8
0
 10
96.311537669734207
 20
101.50645186643941
 30
0.0
  0
VERTEX
  5
C4A
  8
0
 10
95.934889123515759
 20
101.5346629358986
 30
0.0
  0
VERTEX
  5
C4B
  8
0
 10
95.561529298050914
 20
101.5485554731258
 30
0.0
  0
VERTEX
  5
C4C
  8
0
 10
95.376436293743879
 20
101.5502685908769
 30
0.0
  0
SEQEND
  5
C4D
  8
0
  0
POLYLINE
  5
A4F
  8
0
 66
     1
 10
0.0
 20
0.0
 30
0.0
  0
VERTEX
  5
C4E
  8
0
 10
135.37643629372911
 20
101.5502685908765
 30
0.0
  0
VERTEX
  5
C4F
  8
0
 10
135.1913443702845
 20
101.548555493135
 30
0.0
  0
VERTEX
  5
C50
  8
0
 10
134.81798523808811
 20
101.53466303513061
 30
0.0
  0
VERTEX
  5
C51
  8
0
 10
134.4413357191867
 20
101.50645194171381
 30
0.0
  0
VERTEX
  5
C52
  8
0
 10
134.25213324059979
 20
101.4868647205742
 30
0.0
  0
VERTEX
  5
C53
  8
0
 10
134.0625352259122
 20
101.4635760098961
 30
0.0
  0
VERTEX
  5
C54
  8
0
 10
133.682714779192
 20
101.405790263076
 30
0.0
  0
VERTEX
  5
C55
  8
0
 10
133.30297852970429
 20
101.3329457756151
 30
0.0
  0
VERTEX
  5
C56
  8
0
 10
132.92439764443751
 20
101.244983979292
 30
0.0
  0
VERTEX
  5
C57
  8
0
 10
132.548037027937
 20
101.14193985261529
 30
0.0
  0
VERTEX
  5
C58
  8
0
 10
132.1749547030586
 20
101.023943465211
 30
0.0
  0
VERTEX
  5
C59
  8
0
 10
131.9899673444655
 20
100.95940394199521
 30
0.0
  0
VERTEX
  5
C5A
  8
0
 10
131.80618435522979
 20
100.8912161389382
 30
0.0
  0
VERTEX
  5
C5B
  8
0
 10
131.44270840301741
 20
100.7440591520017
 30
0.0
  0
VERTEX
  5
C5C
  8
0
 10
131.0853133369001
 20
100.5827800782411
 30
0.0
  0
VERTEX
  5
C5D
  8
0
 10
130.73487142627789
 20
100.4078007291892
 30
0.0
  0
VERTEX
  5
C5E
  8
0
 10
130.39228774987879
 20
100.2196551489228
 30
0.0
  0
VERTEX
  5
C5F
  8
0
 10
130.0584270853733
 20
100.0189625905343
 30
0.0
  0
VERTEX
  5
C60
  8
0
 10
129.89502313352239
 20
99.914125940635174
 30
0.0
  0
VERTEX
  5
C61
  8
0
 10
129.73409765750401
 20
99.806418705437167
 30
0.0
  0
VERTEX
  5
C62
  8
0
 10
129.4200391593651
 20
99.58278582881249
 30
0.0
  0
VERTEX
  5
C63
  8
0
 10
129.11695477337469
 20
99.348915338636047
 30
0.0
  0
VERTEX
  5
C64
  8
0
 10
128.9697343247577
 20
99.228430472523442
 30
0.0
  0
SEQEND
  5
C65
  8
0
  0
POLYLINE
  5
A50
  8
0
 66
     1
 10
0.0
 20
0.0
 30
0.0
  0
VERTEX
  5
C66
  8
0
 10
152.7764362937292
 20
100.2002685908766
 30
0.0
  0
VERTEX
  5
C67
  8
0
 10
152.6911052527326
 20
100.21111387620429
 30
0.0
  0
VERTEX
  5
C68
  8
0
 10
152.5197212738077
 20
100.2327691407534
 30
0.0
  0
VERTEX
  5
C69
  8
0
 10
152.34804248448759
 20
100.2542916232309
 30
0.0
  0
VERTEX
  5
C6A
  8
0
 10
152.26234909203751
 20
100.2649709079252
 30
0.0
  0
SEQEND
  5
C6B
  8
0
  0
LINE
  5
A51
  8
0
 10
152.8764362937292
 20
100.20026859087641
 30
0.0
 11
152.7764362937292
 21
100.20026859087641
 31
0.0
  0
POLYLINE
  5
A52
  8
0
 66
     1
 10
0.0
 20
0.0
 30
0.0
  0
VERTEX
  5
C6C
  8
0
 10
155.3764362937292
 20
102.7002685908765
 30
0.0
  0
VERTEX
  5
C6D
  8
0
 10
155.37480683477651
 20
102.6100209336941
 30
0.0
  0
VERTEX
  5
C6E
  8
0
 10
155.36135591410419
 20
102.4260889412392
 30
0.0
  0
VERTEX
  5
C6F
  8
0
 10
155.33353661259341
 20
102.2391199998156
 30
0.0
  0
VERTEX
  5
C70
  8
0
 10
155.3140090873234
 20
102.1450759432943
 30
0.0
  0
VERTEX
  5
C71
  8
0
 10
155.29064532817301
 20
102.0509653196619
 30
0.0
  0
VERTEX
  5
C72
  8
0
 10
155.23222902570589
 20
101.86346478832451
 30
0.0
  0
VERTEX
  5
C73
  8
0
 10
155.15807772898461
 20
101.6784504265606
 30
0.0
  0
VERTEX
  5
C74
  8
0
 10
155.0681836034822
 20
101.4976698505684
 30
0.0
  0
VERTEX
  5
C75
  8
0
 10
154.96276127079611
 20
101.3228623000288
 30
0.0
  0
VERTEX
  5
C76
  8
0
 10
154.8422640015867
 20
101.1557552620185
 30
0.0
  0
VERTEX
  5
C77
  8
0
 10
154.77656300548941
 20
101.0756090944726
 30
0.0
  0
VERTEX
  5
C78
  8
0
 10
154.70736350779629
 20
100.99800376518439
 30
0.0
  0
VERTEX
  5
C79
  8
0
 10
154.62237275279779
 20
100.91093746419951
 30
0.0
  0
VERTEX
  5
C7A
  8
0
 10
154.59727579423739
 20
100.88678812131231
 30
0.0
  0
VERTEX
  5
C7B
  8
0
 10
154.5718270537084
 20
100.8629743381838
 30
0.0
  0
VERTEX
  5
C7C
  8
0
 10
154.55897254036
 20
100.8511953692939
 30
0.0
  0
VERTEX
  5
C7D
  8
0
 10
154.54603223192359
 20
100.839502779936
 30
0.0
  0
VERTEX
  5
C7E
  8
0
 10
154.51989560323531
 20
100.8163785999275
 30
0.0
  0
VERTEX
  5
C7F
  8
0
 10
154.49323389798261
 20
100.79344780567391
 30
0.0
  0
VERTEX
  5
C80
  8
0
 10
154.46592049654291
 20
100.7706209626797
 30
0.0
  0
VERTEX
  5
C81
  8
0
 10
154.43795844467519
 20
100.74792421241629
 30
0.0
  0
VERTEX
  5
C82
  8
0
 10
154.40935144909841
 20
100.72538349891811
 30
0.0
  0
VERTEX
  5
C83
  8
0
 10
154.3948074353379
 20
100.7141797015439
 30
0.0
  0
VERTEX
  5
C84
  8
0
 10
154.3801038724383
 20
100.70302453650071
 30
0.0
  0
VERTEX
  5
C85
  8
0
 10
154.35022072409851
 20
100.6808727770744
 30
0.0
  0
VERTEX
  5
C86
  8
0
 10
154.31970764654261
 20
100.6589533770625
 30
0.0
  0
VERTEX
  5
C87
  8
0
 10
154.2885708964244
 20
100.63729116398331
 30
0.0
  0
VERTEX
  5
C88
  8
0
 10
154.25681731996781
 20
100.6159106028138
 30
0.0
  0
VERTEX
  5
C89
  8
0
 10
154.22445432194991
 20
100.5948357623132
 30
0.0
  0
VERTEX
  5
C8A
  8
0
 10
154.20804674735959
 20
100.5844203922142
 30
0.0
  0
VERTEX
  5
C8B
  8
0
 10
154.1914898275719
 20
100.5740902815318
 30
0.0
  0
VERTEX
  5
C8C
  8
0
 10
154.15793225732361
 20
100.5536973492701
 30
0.0
  0
VERTEX
  5
C8D
  8
0
 10
154.123790678799
 20
100.5336797886237
 30
0.0
  0
VERTEX
  5
C8E
  8
0
 10
154.0890749439107
 20
100.51406011406409
 30
0.0
  0
VERTEX
  5
C8F
  8
0
 10
154.05379567908631
 20
100.494860493106
 30
0.0
  0
VERTEX
  5
C90
  8
0
 10
154.01796425991901
 20
100.4761027017381
 30
0.0
  0
VERTEX
  5
C91
  8
0
 10
153.99984524460581
 20
100.4668961792329
 30
0.0
  0
VERTEX
  5
C92
  8
0
 10
153.9815927798434
 20
100.45780808036579
 30
0.0
  0
VERTEX
  5
C93
  8
0
 10
153.94469401206609
 20
100.4399974904963
 30
0.0
  0
VERTEX
  5
C94
  8
0
 10
153.90728136394529
 20
100.42269127249379
 30
0.0
  0
VERTEX
  5
C95
  8
0
 10
153.86936882298579
 20
100.405909204829
 30
0.0
  0
VERTEX
  5
C96
  8
0
 10
153.83097089360109
 20
100.38967046535841
 30
0.0
  0
VERTEX
  5
C97
  8
0
 10
153.7921020788832
 20
100.3739934201586
 30
0.0
  0
VERTEX
  5
C98
  8
0
 10
153.77249353978371
 20
100.3663702615156
 30
0.0
  0
VERTEX
  5
C99
  8
0
 10
153.75277073788141
 20
100.35889336635719
 30
0.0
  0
VERTEX
  5
C9A
  8
0
 10
153.71299059490181
 20
100.3443872481111
 30
0.0
  0
VERTEX
  5
C9B
  8
0
 10
153.67277871316671
 20
100.3304924936461
 30
0.0
  0
VERTEX
  5
C9C
  8
0
 10
153.65251644134131
 20
100.3237796671736
 30
0.0
  0
VERTEX
  5
C9D
  8
0
 10
153.63215302376079
 20
100.3172259508991
 30
0.0
  0
VERTEX
  5
C9E
  8
0
 10
153.5911322680609
 20
100.3046038262915
 30
0.0
  0
VERTEX
  5
C9F
  8
0
 10
153.5497359308215
 20
100.2926416266872
 30
0.0
  0
VERTEX
  5
CA0
  8
0
 10
153.52890319262531
 20
100.2869126399556
 30
0.0
  0
VERTEX
  5
CA1
  8
0
 10
153.507984163071
 20
100.281354105259
 30
0.0
  0
VERTEX
  5
CA2
  8
0
 10
153.46589769399711
 20
100.27075521211231
 30
0.0
  0
VERTEX
  5
CA3
  8
0
 10
153.4234977310557
 20
100.2608580506454
 30
0.0
  0
VERTEX
  5
CA4
  8
0
 10
153.38080584761661
 20
100.25167484075961
 30
0.0
  0
VERTEX
  5
CA5
  8
0
 10
153.3378438573809
 20
100.243216890117
 30
0.0
  0
VERTEX
  5
CA6
  8
0
 10
153.29463379383091
 20
100.23549459496761
 30
0.0
  0
VERTEX
  5
CA7
  8
0
 10
153.27294280731491
 20
100.2319123393025
 30
0.0
  0
VERTEX
  5
CA8
  8
0
 10
153.25119841172139
 20
100.2285175202955
 30
0.0
  0
VERTEX
  5
CA9
  8
0
 10
153.2075614183284
 20
100.2222943876493
 30
0.0
  0
VERTEX
  5
CAA
  8
0
 10
153.16374738174051
 20
100.21683299905899
 30
0.0
  0
VERTEX
  5
CAB
  8
0
 10
153.1197816179905
 20
100.2121401671089
 30
0.0
  0
VERTEX
  5
CAC
  8
0
 10
153.07569006721519
 20
100.20822165436989
 30
0.0
  0
VERTEX
  5
CAD
  8
0
 10
153.0314991587571
 20
100.2050821233175
 30
0.0
  0
VERTEX
  5
CAE
  8
0
 10
153.0093748026444
 20
100.20380562242541
 30
0.0
  0
VERTEX
  5
CAF
  8
0
 10
152.98723566522881
 20
100.20272509790669
 30
0.0
  0
VERTEX
  5
CB0
  8
0
 10
152.94292654568059
 20
100.2011529380113
 30
0.0
  0
VERTEX
  5
CB1
  8
0
 10
152.89859877815789
 20
100.20036682794979
 30
0.0
  0
VERTEX
  5
CB2
  8
0
 10
152.8764362937292
 20
100.20026859087641
 30
0.0
  0
SEQEND
  5
CB3
  8
0
  0
LINE
  5
A53
  8
0
 10
155.3764362937292
 20
102.7002685908765
 30
0.0
 11
155.3764362937292
 21
110.9711398963459
 31
0.0
  0
POLYLINE
  5
A54
  8
0
 66
     1
 10
0.0
 20
0.0
 30
0.0
  0
VERTEX
  5
CB4
  8
0
 10
153.10649764342239
 20
113.46053174484589
 30
0.0
  0
VERTEX
  5
CB5
  8
0
 10
153.12745758102039
 20
113.45850563409491
 30
0.0
  0
VERTEX
  5
CB6
  8
0
 10
153.16928625570009
 20
113.4539284293818
 30
0.0
  0
VERTEX
  5
CB7
  8
0
 10
153.21097502575739
 20
113.44865555457569
 30
0.0
  0
VERTEX
  5
CB8
  8
0
 10
153.23176014678069
 20
113.44576006102849
 30
0.0
  0
VERTEX
  5
CB9
  8
0
 10
153.2525021758284
 20
113.44269294095611
 30
0.0
  0
VERTEX
  5
CBA
  8
0
 10
153.293846372947
 20
113.436047364339
 30
0.0
  0
VERTEX
  5
CBB
  8
0
 10
153.33498676671951
 20
113.4287264082965
 30
0.0
  0
VERTEX
  5
CBC
  8
0
 10
153.3759032270066
 20
113.4207383905003
 30
0.0
  0
VERTEX
  5
CBD
  8
0
 10
153.41657712050829
 20
113.41209214644159
 30
0.0
  0
VERTEX
  5
CBE
  8
0
 10
153.45698971927621
 20
113.4027972982195
 30
0.0
  0
VERTEX
  5
CBF
  8
0
 10
153.47709219385661
 20
113.39790986682991
 30
0.0
  0
VERTEX
  5
CC0
  8
0
 10
153.4971223690608
 20
113.3928642398438
 30
0.0
  0
VERTEX
  5
CC1
  8
0
 10
153.5369566953857
 20
113.3823040962702
 30
0.0
  0
VERTEX
  5
CC2
  8
0
 10
153.57647469368899
 20
113.3711286960245
 30
0.0
  0
VERTEX
  5
CC3
  8
0
 10
153.6156588100732
 20
113.3593505385069
 30
0.0
  0
VERTEX
  5
CC4
  8
0
 10
153.6544920131299
 20
113.3469827567869
 30
0.0
  0
VERTEX
  5
CC5
  8
0
 10
153.69295785736611
 20
113.3340390766151
 30
0.0
  0
VERTEX
  5
CC6
  8
0
 10
153.71204805475421
 20
113.3273557151617
 30
0.0
  0
VERTEX
  5
CC7
  8
0
 10
153.7310405388007
 20
113.3205337722864
 30
0.0
  0
VERTEX
  5
CC8
  8
0
 10
153.76872494332611
 20
113.30648161990609
 30
0.0
  0
VERTEX
  5
CC9
  8
0
 10
153.8059967041369
 20
113.29189784223411
 30
0.0
  0
VERTEX
  5
CCA
  8
0
 10
153.82447492907221
 20
113.28441090206439
 30
0.0
  0
VERTEX
  5
CCB
  8
0
 10
153.842847165649
 20
113.27679599096101
 30
0.0
  0
VERTEX
  5
CCC
  8
0
 10
153.87926717268539
 20
113.26119016396289
 30
0.0
  0
VERTEX
  5
CCD
  8
0
 10
153.91524393435279
 20
113.2450965110997
 30
0.0
  0
VERTEX
  5
CCE
  8
0
 10
153.93306220356919
 20
113.23687193845841
 30
0.0
  0
VERTEX
  5
CCF
  8
0
 10
153.9507650405244
 20
113.2285316974762
 30
0.0
  0
VERTEX
  5
CD0
  8
0
 10
153.98581851720149
 20
113.2115128747235
 30
0.0
  0
VERTEX
  5
CD1
  8
0
 10
154.0203928745112
 20
113.1940576503994
 30
0.0
  0
VERTEX
  5
CD2
  8
0
 10
154.05447714793971
 20
113.17618405595169
 30
0.0
  0
VERTEX
  5
CD3
  8
0
 10
154.08806093340209
 20
113.1579105136119
 30
0.0
  0
VERTEX
  5
CD4
  8
0
 10
154.12113441673699
 20
113.1392558025146
 30
0.0
  0
VERTEX
  5
CD5
  8
0
 10
154.1374768956089
 20
113.1297914662876
 30
0.0
  0
VERTEX
  5
CD6
  8
0
 10
154.15368839819601
 20
113.120239024268
 30
0.0
  0
VERTEX
  5
CD7
  8
0
 10
154.1857143124746
 20
113.10087956814399
 30
0.0
  0
VERTEX
  5
CD8
  8
0
 10
154.21720424156129
 20
113.0811970780513
 30
0.0
  0
VERTEX
  5
CD9
  8
0
 10
154.24815083220571
 20
113.0612114800321
 30
0.0
  0
VERTEX
  5
CDA
  8
0
 10
154.27854714453949
 20
113.0409430662247
 30
0.0
  0
VERTEX
  5
CDB
  8
0
 10
154.30838665646741
 20
113.0204124889149
 30
0.0
  0
VERTEX
  5
CDC
  8
0
 10
154.32309569624471
 20
113.0100554348403
 30
0.0
  0
VERTEX
  5
CDD
  8
0
 10
154.3376632952386
 20
112.99964073441819
 30
0.0
  0
VERTEX
  5
CDE
  8
0
 10
154.36637146350179
 20
112.9786490967918
 30
0.0
  0
VERTEX
  5
CDF
  8
0
 10
154.39450606042141
 20
112.957459151515
 30
0.0
  0
VERTEX
  5
CE0
  8
0
 10
154.48839880860169
 20
112.8820498499142
 30
0.0
  0
VERTEX
  5
CE1
  8
0
 10
154.63558961143809
 20
112.7474787167273
 30
0.0
  0
VERTEX
  5
CE2
  8
0
 10
154.77078439827821
 20
112.60253355171911
 30
0.0
  0
VERTEX
  5
CE3
  8
0
 10
154.83369329904161
 20
112.5264999881432
 30
0.0
  0
VERTEX
  5
CE4
  8
0
 10
154.8933480341305
 20
112.4483220216885
 30
0.0
  0
VERTEX
  5
CE5
  8
0
 10
155.0025862311843
 20
112.28623930074841
 30
0.0
  0
VERTEX
  5
CE6
  8
0
 10
155.09799311084441
 20
112.1177371701648
 30
0.0
  0
VERTEX
  5
CE7
  8
0
 10
155.17924269440809
 20
111.9443216270584
 30
0.0
  0
VERTEX
  5
CE8
  8
0
 10
155.24621349503789
 20
111.7674790302315
 30
0.0
  0
VERTEX
  5
CE9
  8
0
 10
155.29894929935671
 20
111.58874068776829
 30
0.0
  0
VERTEX
  5
CEA
  8
0
 10
155.32004010986341
 20
111.4991554167373
 30
0.0
  0
VERTEX
  5
CEB
  8
0
 10
155.3376704012384
 20
111.409690541122
 30
0.0
  0
VERTEX
  5
CEC
  8
0
 10
155.36279830455209
 20
111.2319155684027
 30
0.0
  0
VERTEX
  5
CED
  8
0
 10
155.37496099473711
 20
111.0570137483239
 30
0.0
  0
VERTEX
  5
CEE
  8
0
 10
155.3764362937292
 20
110.9711398963459
 30
0.0
  0
SEQEND
  5
CEF
  8
0
  0
POLYLINE
  5
A55
  8
0
 66
     1
 10
0.0
 20
0.0
 30
0.0
  0
VERTEX
  5
CF0
  8
0
 10
152.26234909203751
 20
113.5376651602276
 30
0.0
  0
VERTEX
  5
CF1
  8
0
 10
152.28594578316691
 20
113.535532937772
 30
0.0
  0
VERTEX
  5
CF2
  8
0
 10
152.33318449676381
 20
113.5312602658379
 30
0.0
  0
VERTEX
  5
CF3
  8
0
 10
152.38046899490789
 20
113.5269779350609
 30
0.0
  0
VERTEX
  5
CF4
  8
0
 10
152.40412292303671
 20
113.524833640399
 30
0.0
  0
VERTEX
  5
CF5
  8
0
 10
152.42778171568969
 20
113.52268752280639
 30
0.0
  0
VERTEX
  5
CF6
  8
0
 10
152.47510516059589
 20
113.5183906088767
 30
0.0
  0
VERTEX
  5
CF7
  8
0
 10
152.5224219306055
 20
113.51408877219851
 30
0.0
  0
VERTEX
  5
CF8
  8
0
 10
152.56971486039231
 20
113.5097835785419
 30
0.0
  0
VERTEX
  5
CF9
  8
0
 10
152.61696773084171
 20
113.50547651539151
 30
0.0
  0
VERTEX
  5
CFA
  8
0
 10
152.6641638471996
 20
113.5011691212306
 30
0.0
  0
VERTEX
  5
CFB
  8
0
 10
152.68773534607439
 20
113.49901578834999
 30
0.0
  0
VERTEX
  5
CFC
  8
0
 10
152.71128632560129
 20
113.4968629595995
 30
0.0
  0
VERTEX
  5
CFD
  8
0
 10
152.7583183011231
 20
113.49255960013031
 30
0.0
  0
VERTEX
  5
CFE
  8
0
 10
152.80524296396749
 20
113.4882606151851
 30
0.0
  0
VERTEX
  5
CFF
  8
0
 10
152.8520435949159
 20
113.4839675765293
 30
0.0
  0
VERTEX
  5
D00
  8
0
 10
152.89870360009371
 20
113.4796820520375
 30
0.0
  0
VERTEX
  5
D01
  8
0
 10
152.94520654508781
 20
113.4754056024273
 30
0.0
  0
VERTEX
  5
D02
  8
0
 10
152.96839403612191
 20
113.47327126567269
 30
0.0
  0
VERTEX
  5
D03
  8
0
 10
152.99153618845071
 20
113.4711397780211
 30
0.0
  0
VERTEX
  5
D04
  8
0
 10
153.0376765146184
 20
113.4668861155333
 30
0.0
  0
VERTEX
  5
D05
  8
0
 10
153.0836117662632
 20
113.4626461348812
 30
0.0
  0
VERTEX
  5
D06
  8
0
 10
153.10649764342239
 20
113.46053174484589
 30
0.0
  0
SEQEND
  5
D07
  8
0
  0
POLYLINE
  5
A56
  8
0
 66
     1
 10
0.0
 20
0.0
 30
0.0
  0
VERTEX
  5
D08
  8
0
 10
77.646367347014973
 20
113.460531042754
 30
0.0
  0
VERTEX
  5
D09
  8
0
 10
77.669253348786214
 20
113.4626454447281
 30
0.0
  0
VERTEX
  5
D0A
  8
0
 10
77.715188949064085
 20
113.4668854583883
 30
0.0
  0
VERTEX
  5
D0B
  8
0
 10
77.76132974154531
 20
113.47113916465079
 30
0.0
  0
VERTEX
  5
D0C
  8
0
 10
77.784472165376826
 20
113.4732706776817
 30
0.0
  0
VERTEX
  5
D0D
  8
0
 10
77.807659950287757
 20
113.4754050418441
 30
0.0
  0
VERTEX
  5
D0E
  8
0
 10
77.854163540296241
 20
113.4796815514331
 30
0.0
  0
VERTEX
  5
D0F
  8
0
 10
77.900824249951754
 20
113.4839671412154
 30
0.0
  0
VERTEX
  5
D10
  8
0
 10
77.947625624006122
 20
113.48826024854171
 30
0.0
  0
VERTEX
  5
D11
  8
0
 10
77.994551047162929
 20
113.4925593035622
 30
0.0
  0
VERTEX
  5
D12
  8
0
 10
78.0415837782719
 20
113.496862732499
 30
0.0
  0
VERTEX
  5
D13
  8
0
 10
78.065135126846414
 20
113.49901559511829
 30
0.0
  0
VERTEX
  5
D14
  8
0
 10
78.088706985171427
 20
113.50116896094841
 30
0.0
  0
VERTEX
  5
D15
  8
0
 10
78.135903780219621
 20
113.5054764172156
 30
0.0
  0
VERTEX
  5
D16
  8
0
 10
78.183157256559809
 20
113.5097835356828
 30
0.0
  0
VERTEX
  5
D17
  8
0
 10
78.230450686561852
 20
113.5140887749009
 30
0.0
  0
VERTEX
  5
D18
  8
0
 10
78.277767830256821
 20
113.5183906455277
 30
0.0
  0
VERTEX
  5
D19
  8
0
 10
78.325091507182648
 20
113.5226875804639
 30
0.0
  0
VERTEX
  5
D1A
  8
0
 10
78.348750355637577
 20
113.52483370307959
 30
0.0
  0
VERTEX
  5
D1B
  8
0
 10
78.372404295593881
 20
113.52697799877291
 30
0.0
  0
VERTEX
  5
D1C
  8
0
 10
78.419688673810043
 20
113.5312603186136
 30
0.0
  0
VERTEX
  5
D1D
  8
0
 10
78.466927056390972
 20
113.535532960559
 30
0.0
  0
VERTEX
  5
D1E
  8
0
 10
78.490523495420902
 20
113.53766516022741
 30
0.0
  0
SEQEND
  5
D1F
  8
0
  0
POLYLINE
  5
A57
  8
0
 66
     1
 10
0.0
 20
0.0
 30
0.0
  0
VERTEX
  5
D20
  8
0
 10
75.376436293729213
 20
110.97113989633731
 30
0.0
  0
VERTEX
  5
D21
  8
0
 10
75.37791158773797
 20
111.0570136033228
 30
0.0
  0
VERTEX
  5
D22
  8
0
 10
75.390074236315414
 20
111.23191512417471
 30
0.0
  0
VERTEX
  5
D23
  8
0
 10
75.415202052751397
 20
111.4096897920619
 30
0.0
  0
VERTEX
  5
D24
  8
0
 10
75.432832282891226
 20
111.49915451566051
 30
0.0
  0
VERTEX
  5
D25
  8
0
 10
75.453923020030217
 20
111.5887396362625
 30
0.0
  0
VERTEX
  5
D26
  8
0
 10
75.506658640922794
 20
111.7674776866406
 30
0.0
  0
VERTEX
  5
D27
  8
0
 10
75.573629209513683
 20
111.9443200096234
 30
0.0
  0
VERTEX
  5
D28
  8
0
 10
75.654878513438859
 20
112.1177353039872
 30
0.0
  0
VERTEX
  5
D29
  8
0
 10
75.750285068525145
 20
112.28623721881191
 30
0.0
  0
VERTEX
  5
D2A
  8
0
 10
75.859522899924968
 20
112.44831976416469
 30
0.0
  0
VERTEX
  5
D2B
  8
0
 10
75.919177438258188
 20
112.52649765990959
 30
0.0
  0
VERTEX
  5
D2C
  8
0
 10
75.982086133968807
 20
112.6025311652372
 30
0.0
  0
VERTEX
  5
D2D
  8
0
 10
76.117280489389117
 20
112.7474762541507
 30
0.0
  0
VERTEX
  5
D2E
  8
0
 10
76.201628070604386
 20
112.8272157072325
 30
0.0
  0
VERTEX
  5
D2F
  8
0
 10
76.226432723356879
 20
112.849300756806
 30
0.0
  0
VERTEX
  5
D30
  8
0
 10
76.251644739436344
 20
112.87115368711299
 30
0.0
  0
VERTEX
  5
D31
  8
0
 10
76.264470793691544
 20
112.8820473317533
 30
0.0
  0
VERTEX
  5
D32
  8
0
 10
76.277444362107545
 20
112.8929163668586
 30
0.0
  0
VERTEX
  5
D33
  8
0
 10
76.303832717823951
 20
112.9145693375807
 30
0.0
  0
VERTEX
  5
D34
  8
0
 10
76.330806820029153
 20
112.9360901578128
 30
0.0
  0
VERTEX
  5
D35
  8
0
 10
76.358363141660845
 20
112.95745656419599
 30
0.0
  0
VERTEX
  5
D36
  8
0
 10
76.386497620898965
 20
112.9786464968869
 30
0.0
  0
VERTEX
  5
D37
  8
0
 10
76.415205670154535
 20
112.99963812526779
 30
0.0
  0
VERTEX
  5
D38
  8
0
 10
76.429773209174982
 20
113.0100528223435
 30
0.0
  0
VERTEX
  5
D39
  8
0
 10
76.444482188680396
 20
113.0204098739346
 30
0.0
  0
VERTEX
  5
D3A
  8
0
 10
76.474321579214603
 20
113.0409404489005
 30
0.0
  0
VERTEX
  5
D3B
  8
0
 10
76.50471776909589
 20
113.0612088639143
 30
0.0
  0
VERTEX
  5
D3C
  8
0
 10
76.535664236317857
 20
113.08119446674939
 30
0.0
  0
VERTEX
  5
D3D
  8
0
 10
76.56715404109957
 20
113.10087696532079
 30
0.0
  0
VERTEX
  5
D3E
  8
0
 10
76.599179830289359
 20
113.12023643364221
 30
0.0
  0
VERTEX
  5
D3F
  8
0
 10
76.615391270077225
 20
113.12978888317561
 30
0.0
  0
VERTEX
  5
D40
  8
0
 10
76.631733686001425
 20
113.1392532278705
 30
0.0
  0
VERTEX
  5
D41
  8
0
 10
76.664807043061515
 20
113.15790795879479
 30
0.0
  0
VERTEX
  5
D42
  8
0
 10
76.69839070185364
 20
113.17618152486089
 30
0.0
  0
VERTEX
  5
D43
  8
0
 10
76.732474848349639
 20
113.1940551469813
 30
0.0
  0
VERTEX
  5
D44
  8
0
 10
76.767049078598035
 20
113.21151040296471
 30
0.0
  0
VERTEX
  5
D45
  8
0
 10
76.802102428217694
 20
113.22852926139571
 30
0.0
  0
VERTEX
  5
D46
  8
0
 10
76.819805201686535
 20
113.2368695217325
 30
0.0
  0
VERTEX
  5
D47
  8
0
 10
76.837623407466396
 20
113.2450941147418
 30
0.0
  0
VERTEX
  5
D48
  8
0
 10
76.873600042473072
 20
113.26118781138921
 30
0.0
  0
VERTEX
  5
D49
  8
0
 10
76.910019923233776
 20
113.2767936862431
 30
0.0
  0
VERTEX
  5
D4A
  8
0
 10
76.928392096853798
 20
113.2844086228022
 30
0.0
  0
VERTEX
  5
D4B
  8
0
 10
76.946870258971785
 20
113.2918955894458
 30
0.0
  0
VERTEX
  5
D4C
  8
0
 10
76.98414189333559
 20
113.3064794226371
 30
0.0
  0
VERTEX
  5
D4D
  8
0
 10
77.021826172098372
 20
113.32053163465589
 30
0.0
  0
VERTEX
  5
D4E
  8
0
 10
77.040818593609302
 20
113.3273536089111
 30
0.0
  0
VERTEX
  5
D4F
  8
0
 10
77.059908728723457
 20
113.33403700278549
 30
0.0
  0
VERTEX
  5
D50
  8
0
 10
77.098374449290247
 20
113.3469807509202
 30
0.0
  0
VERTEX
  5
D51
  8
0
 10
77.137207530002314
 20
113.3593486047541
 30
0.0
  0
VERTEX
  5
D52
  8
0
 10
77.176391525547245
 20
113.3711268385146
 30
0.0
  0
VERTEX
  5
D53
  8
0
 10
77.215909404691701
 20
113.38230231909959
 30
0.0
  0
VERTEX
  5
D54
  8
0
 10
77.255743613705931
 20
113.39286254706541
 30
0.0
  0
VERTEX
  5
D55
  8
0
 10
77.275773730997713
 20
113.39790821775119
 30
0.0
  0
VERTEX
  5
D56
  8
0
 10
77.295876148186181
 20
113.4027956938327
 30
0.0
  0
VERTEX
  5
D57
  8
0
 10
77.336288633802752
 20
113.41209063438259
 30
0.0
  0
VERTEX
  5
D58
  8
0
 10
77.37696241643863
 20
113.4207369746328
 30
0.0
  0
VERTEX
  5
D59
  8
0
 10
77.41787876819204
 20
113.4287250923915
 30
0.0
  0
VERTEX
  5
D5A
  8
0
 10
77.459019055996521
 20
113.43604615210791
 30
0.0
  0
VERTEX
  5
D5B
  8
0
 10
77.500363150017336
 20
113.4426918360452
 30
0.0
  0
VERTEX
  5
D5C
  8
0
 10
77.521105128655137
 20
113.445759011115
 30
0.0
  0
VERTEX
  5
D5D
  8
0
 10
77.541890200060692
 20
113.4486545605337
 30
0.0
  0
VERTEX
  5
D5E
  8
0
 10
77.583578873354895
 20
113.4539275496477
 30
0.0
  0
VERTEX
  5
D5F
  8
0
 10
77.625407454722932
 20
113.4585048719868
 30
0.0
  0
VERTEX
  5
D60
  8
0
 10
77.646367347014944
 20
113.4605310427543
 30
0.0
  0
SEQEND
  5
D61
  8
0
  0
LINE
  5
A58
  8
0
 10
75.37643629372927
 20
102.7002685908765
 30
0.0
 11
75.37643629372927
 21
110.97113989633731
 31
0.0
  0
POLYLINE
  5
A59
  8
0
 66
     1
 10
0.0
 20
0.0
 30
0.0
  0
VERTEX
  5
D62
  8
0
 10
77.876436293729213
 20
100.20026859087641
 30
0.0
  0
VERTEX
  5
D63
  8
0
 10
77.854273809300537
 20
100.20036682794969
 30
0.0
  0
VERTEX
  5
D64
  8
0
 10
77.809946041777863
 20
100.2011529380113
 30
0.0
  0
VERTEX
  5
D65
  8
0
 10
77.765636922229646
 20
100.20272509790669
 30
0.0
  0
VERTEX
  5
D66
  8
0
 10
77.743497784813997
 20
100.20380562242541
 30
0.0
  0
VERTEX
  5
D67
  8
0
 10
77.72137342870127
 20
100.2050821233175
 30
0.0
  0
VERTEX
  5
D68
  8
0
 10
77.677182520243207
 20
100.20822165436989
 30
0.0
  0
VERTEX
  5
D69
  8
0
 10
77.633090969467901
 20
100.2121401671089
 30
0.0
  0
VERTEX
  5
D6A
  8
0
 10
77.589125205717949
 20
100.21683299905899
 30
0.0
  0
VERTEX
  5
D6B
  8
0
 10
77.545311169130059
 20
100.2222943876493
 30
0.0
  0
VERTEX
  5
D6C
  8
0
 10
77.501674175737065
 20
100.2285175202955
 30
0.0
  0
VERTEX
  5
D6D
  8
0
 10
77.479929780143479
 20
100.2319123393025
 30
0.0
  0
VERTEX
  5
D6E
  8
0
 10
77.458238793627515
 20
100.23549459496761
 30
0.0
  0
VERTEX
  5
D6F
  8
0
 10
77.415028730077523
 20
100.243216890117
 30
0.0
  0
VERTEX
  5
D70
  8
0
 10
77.372066739841856
 20
100.25167484075961
 30
0.0
  0
VERTEX
  5
D71
  8
0
 10
77.329374856402751
 20
100.2608580506454
 30
0.0
  0
VERTEX
  5
D72
  8
0
 10
77.286974893461291
 20
100.27075521211231
 30
0.0
  0
VERTEX
  5
D73
  8
0
 10
77.244888424387398
 20
100.281354105259
 30
0.0
  0
VERTEX
  5
D74
  8
0
 10
77.223969394833176
 20
100.2869126399556
 30
0.0
  0
VERTEX
  5
D75
  8
0
 10
77.2031366566369
 20
100.2926416266872
 30
0.0
  0
VERTEX
  5
D76
  8
0
 10
77.161740319397552
 20
100.3046038262914
 30
0.0
  0
VERTEX
  5
D77
  8
0
 10
77.120719563697605
 20
100.3172259508991
 30
0.0
  0
VERTEX
  5
D78
  8
0
 10
77.100356146117093
 20
100.3237796671736
 30
0.0
  0
VERTEX
  5
D79
  8
0
 10
77.080093874291748
 20
100.3304924936461
 30
0.0
  0
VERTEX
  5
D7A
  8
0
 10
77.039881992556644
 20
100.3443872481111
 30
0.0
  0
VERTEX
  5
D7B
  8
0
 10
77.000101849577078
 20
100.35889336635719
 30
0.0
  0
VERTEX
  5
D7C
  8
0
 10
76.980379047674774
 20
100.3663702615156
 30
0.0
  0
VERTEX
  5
D7D
  8
0
 10
76.960770508575195
 20
100.3739934201586
 30
0.0
  0
VERTEX
  5
D7E
  8
0
 10
76.92190169385735
 20
100.38967046535841
 30
0.0
  0
VERTEX
  5
D7F
  8
0
 10
76.883503764472664
 20
100.405909204829
 30
0.0
  0
VERTEX
  5
D80
  8
0
 10
76.845591223513139
 20
100.42269127249379
 30
0.0
  0
VERTEX
  5
D81
  8
0
 10
76.808178575392333
 20
100.4399974904963
 30
0.0
  0
VERTEX
  5
D82
  8
0
 10
76.771279807615031
 20
100.45780808036579
 30
0.0
  0
VERTEX
  5
D83
  8
0
 10
76.753027342852675
 20
100.4668961792329
 30
0.0
  0
VERTEX
  5
D84
  8
0
 10
76.734908327539443
 20
100.4761027017381
 30
0.0
  0
VERTEX
  5
D85
  8
0
 10
76.699076908372163
 20
100.494860493106
 30
0.0
  0
VERTEX
  5
D86
  8
0
 10
76.663797643547724
 20
100.51406011406409
 30
0.0
  0
VERTEX
  5
D87
  8
0
 10
76.629081908659401
 20
100.5336797886237
 30
0.0
  0
VERTEX
  5
D88
  8
0
 10
76.594940330134875
 20
100.5536973492701
 30
0.0
  0
VERTEX
  5
D89
  8
0
 10
76.561382759886484
 20
100.5740902815318
 30
0.0
  0
VERTEX
  5
D8A
  8
0
 10
76.544825840098824
 20
100.5844203922142
 30
0.0
  0
VERTEX
  5
D8B
  8
0
 10
76.528418265508535
 20
100.5948357623132
 30
0.0
  0
VERTEX
  5
D8C
  8
0
 10
76.496055267490647
 20
100.6159106028138
 30
0.0
  0
VERTEX
  5
D8D
  8
0
 10
76.464301691034024
 20
100.63729116398321
 30
0.0
  0
VERTEX
  5
D8E
  8
0
 10
76.433164940915873
 20
100.6589533770625
 30
0.0
  0
VERTEX
  5
D8F
  8
0
 10
76.402651863359921
 20
100.6808727770744
 30
0.0
  0
VERTEX
  5
D90
  8
0
 10
76.372768715020186
 20
100.70302453650071
 30
0.0
  0
VERTEX
  5
D91
  8
0
 10
76.35806515212056
 20
100.7141797015439
 30
0.0
  0
VERTEX
  5
D92
  8
0
 10
76.343521138359989
 20
100.72538349891811
 30
0.0
  0
VERTEX
  5
D93
  8
0
 10
76.314914142783238
 20
100.74792421241629
 30
0.0
  0
VERTEX
  5
D94
  8
0
 10
76.286952090915491
 20
100.7706209626796
 30
0.0
  0
VERTEX
  5
D95
  8
0
 10
76.259638689475779
 20
100.79344780567391
 30
0.0
  0
VERTEX
  5
D96
  8
0
 10
76.232976984223114
 20
100.8163785999275
 30
0.0
  0
VERTEX
  5
D97
  8
0
 10
76.206840355534794
 20
100.839502779936
 30
0.0
  0
VERTEX
  5
D98
  8
0
 10
76.193900047098452
 20
100.8511953692939
 30
0.0
  0
VERTEX
  5
D99
  8
0
 10
76.18104553375008
 20
100.8629743381838
 30
0.0
  0
VERTEX
  5
D9A
  8
0
 10
76.155596793221036
 20
100.88678812131231
 30
0.0
  0
VERTEX
  5
D9B
  8
0
 10
76.130499834660597
 20
100.91093746419951
 30
0.0
  0
VERTEX
  5
D9C
  8
0
 10
76.045509079662125
 20
100.99800376518439
 30
0.0
  0
VERTEX
  5
D9D
  8
0
 10
75.976309581968991
 20
101.0756090944726
 30
0.0
  0
VERTEX
  5
D9E
  8
0
 10
75.910608585871728
 20
101.1557552620185
 30
0.0
  0
VERTEX
  5
D9F
  8
0
 10
75.790111316662291
 20
101.3228623000288
 30
0.0
  0
VERTEX
  5
DA0
  8
0
 10
75.684688983976216
 20
101.4976698505684
 30
0.0
  0
VERTEX
  5
DA1
  8
0
 10
75.594794858473875
 20
101.6784504265606
 30
0.0
  0
VERTEX
  5
DA2
  8
0
 10
75.520643561752479
 20
101.86346478832441
 30
0.0
  0
VERTEX
  5
DA3
  8
0
 10
75.462227259285427
 20
102.0509653196619
 30
0.0
  0
VERTEX
  5
DA4
  8
0
 10
75.438863500135028
 20
102.1450759432942
 30
0.0
  0
VERTEX
  5
DA5
  8
0
 10
75.419335974865021
 20
102.2391199998156
 30
0.0
  0
VERTEX
  5
DA6
  8
0
 10
75.391516673354204
 20
102.4260889412392
 30
0.0
  0
VERTEX
  5
DA7
  8
0
 10
75.378065752681906
 20
102.610020933694
 30
0.0
  0
VERTEX
  5
DA8
  8
0
 10
75.376436293729213
 20
102.7002685908765
 30
0.0
  0
SEQEND
  5
DA9
  8
0
  0
LINE
  5
A5A
  8
0
 10
77.976436293729265
 20
100.20026859087641
 30
0.0
 11
77.876436293729213
 21
100.20026859087641
 31
0.0
  0
POLYLINE
  5
A5B
  8
0
 66
     1
 10
0.0
 20
0.0
 30
0.0
  0
VERTEX
  5
DAA
  8
0
 10
78.490523495420902
 20
100.264970907925
 30
0.0
  0
VERTEX
  5
DAB
  8
0
 10
78.404832539265186
 20
100.2542919274492
 30
0.0
  0
VERTEX
  5
DAC
  8
0
 10
78.233154936641711
 20
100.2327695967444
 30
0.0
  0
VERTEX
  5
DAD
  8
0
 10
78.061768893453291
 20
100.211114073929
 30
0.0
  0
VERTEX
  5
DAE
  8
0
 10
77.976436293729265
 20
100.20026859087641
 30
0.0
  0
SEQEND
  5
DAF
  8
0
  0
POLYLINE
  5
A5C
  8
0
 66
     1
 10
0.0
 20
0.0
 30
0.0
  0
VERTEX
  5
DB0
  8
0
 10
125.3764362937292
 20
91.550268590876456
 30
0.0
  0
VERTEX
  5
DB1
  8
0
 10
125.3800880525415
 20
91.820494127980879
 30
0.0
  0
VERTEX
  5
DB2
  8
0
 10
125.409094830554
 20
92.357798253779933
 30
0.0
  0
VERTEX
  5
DB3
  8
0
 10
125.4665860175852
 20
92.889995243745886
 30
0.0
  0
VERTEX
  5
DB4
  8
0
 10
125.5058453269733
 20
93.153837724713966
 30
0.0
  0
VERTEX
  5
DB5
  8
0
 10
125.552024554715
 20
93.415994718237982
 30
0.0
  0
VERTEX
  5
DB6
  8
0
 10
125.66487372120351
 20
93.934708231529697
 30
0.0
  0
VERTEX
  5
DB7
  8
0
 10
125.8045892468316
 20
94.445047358035893
 30
0.0
  0
VERTEX
  5
DB8
  8
0
 10
125.970611060876
 20
94.945920470710732
 30
0.0
  0
VERTEX
  5
DB9
  8
0
 10
126.16078442499411
 20
95.432505141407489
 30
0.0
  0
VERTEX
  5
DBA
  8
0
 10
126.37124360178061
 20
95.898429648251778
 30
0.0
  0
VERTEX
  5
DBB
  8
0
 10
126.4834572676334
 20
96.123552317196044
 30
0.0
  0
VERTEX
  5
DBC
  8
0
 10
126.6000025224966
 20
96.343410593693477
 30
0.0
  0
VERTEX
  5
DBD
  8
0
 10
126.8451120223293
 20
96.767212732442772
 30
0.0
  0
VERTEX
  5
DBE
  8
0
 10
127.10460048202719
 20
97.169586370130844
 30
0.0
  0
VERTEX
  5
DBF
  8
0
 10
127.37644390896619
 20
97.550278744512354
 30
0.0
  0
VERTEX
  5
DC0
  8
0
 10
127.6585390887299
 20
97.90904699030699
 30
0.0
  0
VERTEX
  5
DC1
  8
0
 10
127.94822447291359
 20
98.245167331342628
 30
0.0
  0
VERTEX
  5
DC2
  8
0
 10
128.0944072127362
 20
98.403884604600336
 30
0.0
  0
VERTEX
  5
DC3
  8
0
 10
128.24099817195739
 20
98.556374699862175
 30
0.0
  0
VERTEX
  5
DC4
  8
0
 10
128.53423075079931
 20
98.843020013234138
 30
0.0
  0
VERTEX
  5
DC5
  8
0
 10
128.8255486912272
 20
99.105787872791211
 30
0.0
  0
VERTEX
  5
DC6
  8
0
 10
128.96973432479339
 20
99.228430472553271
 30
0.0
  0
SEQEND
  5
DC7
  8
0
  0
POLYLINE
  5
A5D
  8
0
 66
     1
 10
0.0
 20
0.0
 30
0.0
  0
VERTEX
  5
DC8
  8
0
 10
105.3764362937292
 20
75.354114744722636
 30
0.0
  0
VERTEX
  5
DC9
  8
0
 10
105.5731825287226
 20
75.157368509729224
 30
0.0
  0
VERTEX
  5
DCA
  8
0
 10
105.9613487474866
 20
74.769202290965239
 30
0.0
  0
VERTEX
  5
DCB
  8
0
 10
106.3424132979534
 20
74.388137740498451
 30
0.0
  0
VERTEX
  5
DCC
  8
0
 10
106.5302824475754
 20
74.200268590876476
 30
0.0
  0
SEQEND
  5
DCD
  8
0
  0
POLYLINE
  5
A5E
  8
0
 66
     1
 10
0.0
 20
0.0
 30
0.0
  0
VERTEX
  5
DCE
  8
0
 10
124.222590139883
 20
74.200268590876476
 30
0.0
  0
VERTEX
  5
DCF
  8
0
 10
124.410459289505
 20
74.388137740498394
 30
0.0
  0
VERTEX
  5
DD0
  8
0
 10
124.7915238399717
 20
74.769202290965154
 30
0.0
  0
VERTEX
  5
DD1
  8
0
 10
125.1796900587357
 20
75.157368509729167
 30
0.0
  0
VERTEX
  5
DD2
  8
0
 10
125.3764362937292
 20
75.354114744722636
 30
0.0
  0
SEQEND
  5
DD3
  8
0
  0
LINE
  5
A5F
  8
0
 10
105.3764362937292
 20
90.740268590876468
 30
0.0
 11
105.3764362937292
 21
75.354114744722636
 31
0.0
  0
LINE
  5
A60
  8
0
 10
125.3764362937292
 20
75.354114744722636
 30
0.0
 11
125.3764362937292
 21
90.740268590876468
 31
0.0
  0
POLYLINE
  5
A61
  8
0
 66
     1
 10
0.0
 20
0.0
 30
0.0
  0
VERTEX
  5
DD4
  8
0
 10
101.78313826424311
 20
99.228430471236521
 30
0.0
  0
VERTEX
  5
DD5
  8
0
 10
101.9277312775091
 20
99.105434640375393
 30
0.0
  0
VERTEX
  5
DD6
  8
0
 10
102.2196908429424
 20
98.842035672638886
 30
0.0
  0
VERTEX
  5
DD7
  8
0
 10
102.51336204635921
 20
98.554859285659944
 30
0.0
  0
VERTEX
  5
DD8
  8
0
 10
102.660107194552
 20
98.402139737396055
 30
0.0
  0
VERTEX
  5
DD9
  8
0
 10
102.806406683181
 20
98.243215625768457
 30
0.0
  0
VERTEX
  5
DDA
  8
0
 10
103.0953811981332
 20
97.907775143195181
 30
0.0
  0
VERTEX
  5
DDB
  8
0
 10
103.37673572035069
 20
97.549869334625896
 30
0.0
  0
VERTEX
  5
DDC
  8
0
 10
103.64823347814431
 20
97.169643230451726
 30
0.0
  0
VERTEX
  5
DDD
  8
0
 10
103.9077313061908
 20
96.767260579594364
 30
0.0
  0
VERTEX
  5
DDE
  8
0
 10
104.15315425322051
 20
96.342890197006255
 30
0.0
  0
VERTEX
  5
DDF
  8
0
 10
104.2699510990866
 20
96.122510317522995
 30
0.0
  0
VERTEX
  5
DE0
  8
0
 10
104.3824677078121
 20
95.896692197538727
 30
0.0
  0
VERTEX
  5
DE1
  8
0
 10
104.59364529218981
 20
95.428806753470255
 30
0.0
  0
VERTEX
  5
DE2
  8
0
 10
104.784114998714
 20
94.940782030427229
 30
0.0
  0
VERTEX
  5
DE3
  8
0
 10
104.9495187188766
 20
94.440959318251714
 30
0.0
  0
VERTEX
  5
DE4
  8
0
 10
105.0887651738819
 20
93.931584975515804
 30
0.0
  0
VERTEX
  5
DE5
  8
0
 10
105.2012751655346
 20
93.413744145602578
 30
0.0
  0
VERTEX
  5
DE6
  8
0
 10
105.2473277170279
 20
93.151987202071126
 30
0.0
  0
VERTEX
  5
DE7
  8
0
 10
105.2864859388787
 20
92.888519699850747
 30
0.0
  0
VERTEX
  5
DE8
  8
0
 10
105.343842814684
 20
92.356994843099784
 30
0.0
  0
VERTEX
  5
DE9
  8
0
 10
105.3727910075807
 20
91.820254580992724
 30
0.0
  0
VERTEX
  5
DEA
  8
0
 10
105.3764362937292
 20
91.550268590876499
 30
0.0
  0
SEQEND
  5
DEB
  8
0
  0
POLYLINE
  5
A62
  8
0
 66
     1
 10
0.0
 20
0.0
 30
0.0
  0
VERTEX
  5
DEC
  8
0
 10
105.3764362937292
 20
91.550268590876485
 30
0.0
  0
VERTEX
  5
DED
  8
0
 10
105.3764362937292
 20
91.413030722548328
 30
0.0
  0
VERTEX
  5
DEE
  8
0
 10
105.3764362937292
 20
91.140598455183664
 30
0.0
  0
VERTEX
  5
DEF
  8
0
 10
105.3764362937292
 20
90.872314783207969
 30
0.0
  0
VERTEX
  5
DF0
  8
0
 10
105.3764362937292
 20
90.740268590876468
 30
0.0
  0
SEQEND
  5
DF1
  8
0
  0
POLYLINE
  5
A63
  8
0
 66
     1
 10
0.0
 20
0.0
 30
0.0
  0
VERTEX
  5
DF2
  8
0
 10
125.3764362937292
 20
90.740268590876468
 30
0.0
  0
VERTEX
  5
DF3
  8
0
 10
125.3764362937292
 20
90.872314783207969
 30
0.0
  0
VERTEX
  5
DF4
  8
0
 10
125.3764362937292
 20
91.14059845518365
 30
0.0
  0
VERTEX
  5
DF5
  8
0
 10
125.3764362937292
 20
91.413030722548328
 30
0.0
  0
VERTEX
  5
DF6
  8
0
 10
125.3764362937292
 20
91.550268590876456
 30
0.0
  0
SEQEND
  5
DF7
  8
0
  0
POLYLINE
  5
A64
  8
0
 66
     1
 10
0.0
 20
0.0
 30
0.0
  0
VERTEX
  5
DF8
  8
0
 10
125.3764362937292
 20
75.354114744722636
 30
0.0
  0
VERTEX
  5
DF9
  8
0
 10
125.1796900587357
 20
75.157368509729167
 30
0.0
  0
VERTEX
  5
DFA
  8
0
 10
124.7915238399717
 20
74.769202290965154
 30
0.0
  0
VERTEX
  5
DFB
  8
0
 10
124.410459289505
 20
74.388137740498394
 30
0.0
  0
VERTEX
  5
DFC
  8
0
 10
124.222590139883
 20
74.200268590876476
 30
0.0
  0
SEQEND
  5
DFD
  8
0
  0
LINE
  5
A65
  8
0
 10
109.3764362937292
 20
73.200268590876476
 30
0.0
 11
121.3764362937292
 21
73.200268590876476
 31
0.0
  0
LINE
  5
A66
  8
0
 10
109.3764362937292
 20
73.400268590876465
 30
0.0
 11
121.15145820596661
 21
73.400268590876465
 31
0.0
  0
LINE
  5
A67
  8
2
 10
119.3764362937292
 20
114.70026859087641
 30
0.0
 11
111.3764362937292
 21
114.70026859087641
 31
0.0
  0
LINE
  5
A68
  8
2
 10
112.9179362937292
 20
73.741768590876461
 30
0.0
 11
112.3764362937292
 21
73.200268590876476
 31
0.0
  0
LINE
  5
A69
  8
2
 10
118.3764362937292
 20
73.200268590876476
 30
0.0
 11
117.8349362937292
 21
73.741768590876461
 31
0.0
  0
LINE
  5
A6A
  8
2
 10
112.9179362937292
 20
92.400268590876465
 30
0.0
 11
112.9179362937292
 21
73.741768590876461
 31
0.0
  0
LINE
  5
A6B
  8
2
 10
117.8349362937292
 20
73.741768590876461
 30
0.0
 11
117.8349362937292
 21
92.400268590876465
 31
0.0
  0
LINE
  5
A6C
  8
2
 10
115.3764362937292
 20
93.819684227679176
 30
0.0
 11
112.9179362937292
 21
92.400268590876465
 31
0.0
  0
LINE
  5
A6D
  8
2
 10
117.8349362937292
 20
92.400268590876465
 30
0.0
 11
115.3764362937292
 21
93.819684227679176
 31
0.0
  0
LINE
  5
A6E
  8
0
 10
109.3764362937292
 20
73.400268590876465
 30
0.0
 11
109.3764362937292
 21
73.200268590876476
 31
0.0
  0
LINE
  5
A6F
  8
0
 10
121.3764362937292
 20
73.200268590876476
 30
0.0
 11
121.3764362937292
 21
73.400268590876465
 31
0.0
  0
LINE
  5
A70
  8
2
 10
111.3764362937292
 20
115.180552093372
 30
0.0
 11
111.3764362937292
 21
114.70026859087641
 31
0.0
  0
LINE
  5
A71
  8
2
 10
119.3764362937292
 20
114.70026859087641
 30
0.0
 11
119.3764362937292
 21
115.180552093372
 31
0.0
  0
LINE
  5
A72
  8
2
 10
201.05972134214991
 20
73.200268590876476
 30
0.0
 11
201.05972134214991
 21
89.200268590876476
 31
0.0
  0
LINE
  5
A73
  8
2
 10
207.05972134214991
 20
89.200268590876476
 30
0.0
 11
201.05972134214991
 21
89.200268590876476
 31
0.0
  0
LINE
  5
A74
  8
2
 10
207.05972134214991
 20
73.200268590876476
 30
0.0
 11
207.05972134214991
 21
89.200268590876476
 31
0.0
  0
LINE
  5
A75
  8
2
 10
206.5182213421499
 20
92.400268590876465
 30
0.0
 11
201.6012213421499
 21
92.400268590876465
 31
0.0
  0
LINE
  5
A76
  8
0
 10
214.05972134215
 20
74.200268590876476
 30
0.0
 11
194.05972134214969
 21
74.200268590876476
 31
0.0
  0
POLYLINE
  5
A77
  8
0
 66
     1
 10
0.0
 20
0.0
 30
0.0
  0
VERTEX
  5
DFE
  8
0
 10
212.0199677184805
 20
100.2649709079252
 30
0.0
  0
VERTEX
  5
DFF
  8
0
 10
212.0093895617938
 20
100.2542916232309
 30
0.0
  0
VERTEX
  5
E00
  8
0
 10
211.98168392944399
 20
100.2327691407534
 30
0.0
  0
VERTEX
  5
E01
  8
0
 10
211.94517588322171
 20
100.21111387620429
 30
0.0
  0
VERTEX
  5
E02
  8
0
 10
211.92361521047371
 20
100.2002685908766
 30
0.0
  0
SEQEND
  5
E03
  8
0
  0
LINE
  5
A78
  8
0
 10
212.0199677184805
 20
113.5376651602276
 30
0.0
 11
212.0199677184805
 21
100.2649709079252
 31
0.0
  0
POLYLINE
  5
A79
  8
0
 66
     1
 10
0.0
 20
0.0
 30
0.0
  0
VERTEX
  5
E04
  8
0
 10
211.8180367158875
 20
113.46053174484589
 30
0.0
  0
VERTEX
  5
E05
  8
0
 10
211.82653696998611
 20
113.4626461348812
 30
0.0
  0
VERTEX
  5
E06
  8
0
 10
211.8430534726555
 20
113.4668861155333
 30
0.0
  0
VERTEX
  5
E07
  8
0
 10
211.8589207337736
 20
113.4711397780211
 30
0.0
  0
VERTEX
  5
E08
  8
0
 10
211.86660953821121
 20
113.47327126567269
 30
0.0
  0
VERTEX
  5
E09
  8
0
 10
211.87413445596931
 20
113.4754056024273
 30
0.0
  0
VERTEX
  5
E0A
  8
0
 10
211.88869079840049
 20
113.4796820520375
 30
0.0
  0
VERTEX
  5
E0B
  8
0
 10
211.9025863947553
 20
113.48396757652939
 30
0.0
  0
VERTEX
  5
E0C
  8
0
 10
211.91581836901369
 20
113.4882606151851
 30
0.0
  0
VERTEX
  5
E0D
  8
0
 10
211.92838434900241
 20
113.49255960013041
 30
0.0
  0
VERTEX
  5
E0E
  8
0
 10
211.9402824777635
 20
113.4968629595996
 30
0.0
  0
VERTEX
  5
E0F
  8
0
 10
211.94598066082199
 20
113.49901578835011
 30
0.0
  0
VERTEX
  5
E10
  8
0
 10
211.95151142275461
 20
113.5011691212306
 30
0.0
  0
VERTEX
  5
E11
  8
0
 10
211.962070382885
 20
113.50547651539151
 30
0.0
  0
VERTEX
  5
E12
  8
0
 10
211.9719590933872
 20
113.509783578542
 30
0.0
  0
VERTEX
  5
E13
  8
0
 10
211.98117786063921
 20
113.51408877219851
 30
0.0
  0
VERTEX
  5
E14
  8
0
 10
211.9897275937054
 20
113.5183906088767
 30
0.0
  0
VERTEX
  5
E15
  8
0
 10
211.9976095402167
 20
113.52268752280651
 30
0.0
  0
VERTEX
  5
E16
  8
0
 10
212.0013006206172
 20
113.524833640399
 30
0.0
  0
VERTEX
  5
E17
  8
0
 10
212.00482545365469
 20
113.5269779350609
 30
0.0
  0
VERTEX
  5
E18
  8
0
 10
212.011377624468
 20
113.5312602658379
 30
0.0
  0
VERTEX
  5
E19
  8
0
 10
212.0172688889183
 20
113.535532937772
 30
0.0
  0
VERTEX
  5
E1A
  8
0
 10
212.0199677184805
 20
113.5376651602276
 30
0.0
  0
SEQEND
  5
E1B
  8
0
  0
LINE
  5
A7A
  8
0
 10
211.92361521047371
 20
100.20026859087641
 30
0.0
 11
196.19582747382611
 21
100.20026859087641
 31
0.0
  0
POLYLINE
  5
A7B
  8
0
 66
     1
 10
0.0
 20
0.0
 30
0.0
  0
VERTEX
  5
E1C
  8
0
 10
196.0994749658189
 20
100.2649709079252
 30
0.0
  0
VERTEX
  5
E1D
  8
0
 10
195.8053630173093
 20
100.5857895479288
 30
0.0
  0
VERTEX
  5
E1E
  8
0
 10
195.27949233053249
 20
101.1029589486121
 30
0.0
  0
VERTEX
  5
E1F
  8
0
 10
194.84201993943049
 20
101.4462772845028
 30
0.0
  0
VERTEX
  5
E20
  8
0
 10
194.65810425682571
 20
101.5502685908765
 30
0.0
  0
SEQEND
  5
E21
  8
0
  0
LINE
  5
A7C
  8
0
 10
196.0994749658189
 20
113.5376651602276
 30
0.0
 11
196.0994749658189
 21
100.2649709079252
 31
0.0
  0
POLYLINE
  5
A7D
  8
0
 66
     1
 10
0.0
 20
0.0
 30
0.0
  0
VERTEX
  5
E22
  8
0
 10
194.05972134214969
 20
115.20026859087631
 30
0.0
  0
VERTEX
  5
E23
  8
0
 10
194.11842607516951
 20
115.1523707518562
 30
0.0
  0
VERTEX
  5
E24
  8
0
 10
194.58387877046661
 20
114.77270232834979
 30
0.0
  0
VERTEX
  5
E25
  8
0
 10
195.492275056235
 20
114.0322368514806
 30
0.0
  0
VERTEX
  5
E26
  8
0
 10
196.0994749658189
 20
113.5376651602276
 30
0.0
  0
SEQEND
  5
E27
  8
0
  0
POLYLINE
  5
A7E
  8
0
 66
     1
 10
0.0
 20
0.0
 30
0.0
  0
VERTEX
  5
E28
  8
0
 10
194.1275109888218
 20
75.354114744722636
 30
0.0
  0
VERTEX
  5
E29
  8
0
 10
194.1197354282196
 20
75.141953511792224
 30
0.0
  0
VERTEX
  5
E2A
  8
0
 10
194.10530399576041
 20
74.737707369063571
 30
0.0
  0
VERTEX
  5
E2B
  8
0
 10
194.09256578646179
 20
74.368570427516175
 30
0.0
  0
VERTEX
  5
E2C
  8
0
 10
194.086897369144
 20
74.200268590876476
 30
0.0
  0
SEQEND
  5
E2D
  8
0
  0
LINE
  5
A7F
  8
0
 10
194.1275109888218
 20
90.740268590876468
 30
0.0
 11
194.1275109888218
 21
75.354114744722608
 31
0.0
  0
POLYLINE
  5
A80
  8
0
 66
     1
 10
0.0
 20
0.0
 30
0.0
  0
VERTEX
  5
E2E
  8
0
 10
194.33600783915179
 20
99.228430472093905
 30
0.0
  0
VERTEX
  5
E2F
  8
0
 10
194.32349038234869
 20
99.070928084283835
 30
0.0
  0
VERTEX
  5
E30
  8
0
 10
194.2997548643271
 20
98.735523705909316
 30
0.0
  0
VERTEX
  5
E31
  8
0
 10
194.27772660063309
 20
98.373869937860931
 30
0.0
  0
VERTEX
  5
E32
  8
0
 10
194.2673476547447
 20
98.183665446802124
 30
0.0
  0
VERTEX
  5
E33
  8
0
 10
194.25743039979091
 20
97.988330513542607
 30
0.0
  0
VERTEX
  5
E34
  8
0
 10
194.2389673772137
 20
97.583903848202723
 30
0.0
  0
VERTEX
  5
E35
  8
0
 10
194.22226280597769
 20
97.163045546058825
 30
0.0
  0
VERTEX
  5
E36
  8
0
 10
194.207230630824
 20
96.728024246098528
 30
0.0
  0
VERTEX
  5
E37
  8
0
 10
194.19378416806879
 20
96.281073155014752
 30
0.0
  0
VERTEX
  5
E38
  8
0
 10
194.18183760253251
 20
95.824389166983437
 30
0.0
  0
VERTEX
  5
E39
  8
0
 10
194.1764005252258
 20
95.593076127501632
 30
0.0
  0
VERTEX
  5
E3A
  8
0
 10
194.1713072797109
 20
95.360142806325683
 30
0.0
  0
VERTEX
  5
E3B
  8
0
 10
194.16201045966821
 20
94.884858268419919
 30
0.0
  0
VERTEX
  5
E3C
  8
0
 10
194.15370475227371
 20
94.386981029082051
 30
0.0
  0
VERTEX
  5
E3D
  8
0
 10
194.14645076280391
 20
93.868016740167235
 30
0.0
  0
VERTEX
  5
E3E
  8
0
 10
194.14272819659379
 20
93.556387817665794
 30
0.0
  0
VERTEX
  5
E3F
  8
0
 10
194.14173530085779
 20
93.466223409365114
 30
0.0
  0
VERTEX
  5
E40
  8
0
 10
194.14077420992589
 20
93.375575869699645
 30
0.0
  0
VERTEX
  5
E41
  8
0
 10
194.1403056541933
 20
93.33007401292295
 30
0.0
  0
VERTEX
  5
E42
  8
0
 10
194.13984512455281
 20
93.284455083602595
 30
0.0
  0
VERTEX
  5
E43
  8
0
 10
194.13894824062891
 20
93.192870981581436
 30
0.0
  0
VERTEX
  5
E44
  8
0
 10
194.1380837496753
 20
93.100833543921283
 30
0.0
  0
VERTEX
  5
E45
  8
0
 10
194.13725183930251
 20
93.008352803167938
 30
0.0
  0
VERTEX
  5
E46
  8
0
 10
194.1364526936344
 20
92.915438844367813
 30
0.0
  0
VERTEX
  5
E47
  8
0
 10
194.13568650411671
 20
92.822103102410466
 30
0.0
  0
VERTEX
  5
E48
  8
0
 10
194.13531598839711
 20
92.775301361331671
 30
0.0
  0
VERTEX
  5
E49
  8
0
 10
194.13495396954511
 20
92.728424210016072
 30
0.0
  0
VERTEX
  5
E4A
  8
0
 10
194.1342554093485
 20
92.63444334994719
 30
0.0
  0
VERTEX
  5
E4B
  8
0
 10
194.1335908069388
 20
92.540159806774241
 30
0.0
  0
VERTEX
  5
E4C
  8
0
 10
194.13327123898659
 20
92.492904281950857
 30
0.0
  0
VERTEX
  5
E4D
  8
0
 10
194.132960161368
 20
92.445572781300143
 30
0.0
  0
VERTEX
  5
E4E
  8
0
 10
194.13236348769701
 20
92.350681412191577
 30
0.0
  0
VERTEX
  5
E4F
  8
0
 10
194.13180081733441
 20
92.255484796800843
 30
0.0
  0
VERTEX
  5
E50
  8
0
 10
194.13153224775499
 20
92.207771733224604
 30
0.0
  0
VERTEX
  5
E51
  8
0
 10
194.1312721983434
 20
92.159982010736201
 30
0.0
  0
VERTEX
  5
E52
  8
0
 10
194.13077769572189
 20
92.064172125717775
 30
0.0
  0
VERTEX
  5
E53
  8
0
 10
194.1303173916564
 20
91.968054225250626
 30
0.0
  0
VERTEX
  5
E54
  8
0
 10
194.12989138575739
 20
91.87162741765016
 30
0.0
  0
VERTEX
  5
E55
  8
0
 10
194.12949979528
 20
91.774890845974255
 30
0.0
  0
VERTEX
  5
E56
  8
0
 10
194.12914275533791
 20
91.677843694452221
 30
0.0
  0
VERTEX
  5
E57
  8
0
 10
194.12897723897689
 20
91.629203408294146
 30
0.0
  0
VERTEX
  5
E58
  8
0
 10
194.12882041911971
 20
91.580485191051594
 30
0.0
  0
VERTEX
  5
E59
  8
0
 10
194.12853295811661
 20
91.482814605893623
 30
0.0
  0
VERTEX
  5
E5A
  8
0
 10
194.128280562372
 20
91.384831245313677
 30
0.0
  0
VERTEX
  5
E5B
  8
0
 10
194.12806344076691
 20
91.286534441464923
 30
0.0
  0
VERTEX
  5
E5C
  8
0
 10
194.12788182134969
 20
91.187923537479421
 30
0.0
  0
VERTEX
  5
E5D
  8
0
 10
194.12773595172629
 20
91.088997868325876
 30
0.0
  0
VERTEX
  5
E5E
  8
0
 10
194.1276765059236
 20
91.039416781130726
 30
0.0
  0
VERTEX
  5
E5F
  8
0
 10
194.12762609952131
 20
90.989756737638004
 30
0.0
  0
VERTEX
  5
E60
  8
0
 10
194.1275525529241
 20
90.890199390922305
 30
0.0
  0
VERTEX
  5
E61
  8
0
 10
194.1275156213286
 20
90.790324985686908
 30
0.0
  0
VERTEX
  5
E62
  8
0
 10
194.1275109888218
 20
90.740268590876468
 30
0.0
  0
SEQEND
  5
E63
  8
0
  0
POLYLINE
  5
A81
  8
0
 66
     1
 10
0.0
 20
0.0
 30
0.0
  0
VERTEX
  5
E64
  8
0
 10
194.65810425682571
 20
101.5502685908765
 30
0.0
  0
VERTEX
  5
E65
  8
0
 10
194.64707022735581
 20
101.548555493135
 30
0.0
  0
VERTEX
  5
E66
  8
0
 10
194.62512614677649
 20
101.53466303513061
 30
0.0
  0
VERTEX
  5
E67
  8
0
 10
194.60341303818859
 20
101.50645194171381
 30
0.0
  0
VERTEX
  5
E68
  8
0
 10
194.5926666878625
 20
101.4868647205742
 30
0.0
  0
VERTEX
  5
E69
  8
0
 10
194.5820057297814
 20
101.4635760098961
 30
0.0
  0
VERTEX
  5
E6A
  8
0
 10
194.5609734630284
 20
101.405790263076
 30
0.0
  0
VERTEX
  5
E6B
  8
0
 10
194.54037889728639
 20
101.3329457756151
 30
0.0
  0
VERTEX
  5
E6C
  8
0
 10
194.5202779283419
 20
101.244983979292
 30
0.0
  0
VERTEX
  5
E6D
  8
0
 10
194.5007212714732
 20
101.14193985261529
 30
0.0
  0
VERTEX
  5
E6E
  8
0
 10
194.48175452183281
 20
101.023943465211
 30
0.0
  0
VERTEX
  5
E6F
  8
0
 10
194.47250502739959
 20
100.95940394199521
 30
0.0
  0
VERTEX
  5
E70
  8
0
 10
194.46341742409109
 20
100.8912161389382
 30
0.0
  0
VERTEX
  5
E71
  8
0
 10
194.44574283290439
 20
100.7440591520017
 30
0.0
  0
VERTEX
  5
E72
  8
0
 10
194.42875033829969
 20
100.5827800782411
 30
0.0
  0
VERTEX
  5
E73
  8
0
 10
194.4124604133529
 20
100.4078007291892
 30
0.0
  0
VERTEX
  5
E74
  8
0
 10
194.3968917469449
 20
100.2196551489228
 30
0.0
  0
VERTEX
  5
E75
  8
0
 10
194.382058061809
 20
100.0189625905343
 30
0.0
  0
VERTEX
  5
E76
  8
0
 10
194.3749196988087
 20
99.914125940635174
 30
0.0
  0
VERTEX
  5
E77
  8
0
 10
194.36796783837221
 20
99.806418705437167
 30
0.0
  0
VERTEX
  5
E78
  8
0
 10
194.35462431526329
 20
99.58278582881249
 30
0.0
  0
VERTEX
  5
E79
  8
0
 10
194.3420273576576
 20
99.348915338636047
 30
0.0
  0
VERTEX
  5
E7A
  8
0
 10
194.33600783914369
 20
99.228430472523442
 30
0.0
  0
SEQEND
  5
E7B
  8
0
  0
POLYLINE
  5
A82
  8
0
 66
     1
 10
0.0
 20
0.0
 30
0.0
  0
VERTEX
  5
E7C
  8
0
 10
213.46133842747389
 20
101.5502685908765
 30
0.0
  0
VERTEX
  5
E7D
  8
0
 10
213.277422744869
 20
101.4462772845028
 30
0.0
  0
VERTEX
  5
E7E
  8
0
 10
212.83995035376691
 20
101.1029589486121
 30
0.0
  0
VERTEX
  5
E7F
  8
0
 10
212.31407966699021
 20
100.5857895479288
 30
0.0
  0
VERTEX
  5
E80
  8
0
 10
212.01996771848059
 20
100.2649709079252
 30
0.0
  0
SEQEND
  5
E81
  8
0
  0
POLYLINE
  5
A83
  8
0
 66
     1
 10
0.0
 20
0.0
 30
0.0
  0
VERTEX
  5
E82
  8
0
 10
213.78343484521869
 20
99.228430471236507
 30
0.0
  0
VERTEX
  5
E83
  8
0
 10
213.7774153267049
 20
99.348915337408741
 30
0.0
  0
VERTEX
  5
E84
  8
0
 10
213.76481836909909
 20
99.582785827702963
 30
0.0
  0
VERTEX
  5
E85
  8
0
 10
213.75147484599
 20
99.806418704442905
 30
0.0
  0
VERTEX
  5
E86
  8
0
 10
213.74452298555309
 20
99.914125939697826
 30
0.0
  0
VERTEX
  5
E87
  8
0
 10
213.73738462255221
 20
100.0189625896532
 30
0.0
  0
VERTEX
  5
E88
  8
0
 10
213.72255093741501
 20
100.21965514815081
 30
0.0
  0
VERTEX
  5
E89
  8
0
 10
213.70698227100519
 20
100.40780072852171
 30
0.0
  0
VERTEX
  5
E8A
  8
0
 10
213.6906923460561
 20
100.5827800776724
 30
0.0
  0
VERTEX
  5
E8B
  8
0
 10
213.6736998514487
 20
100.7440591515256
 30
0.0
  0
VERTEX
  5
E8C
  8
0
 10
213.65602526025879
 20
100.89121613854731
 30
0.0
  0
VERTEX
  5
E8D
  8
0
 10
213.6469376569485
 20
100.9594039416441
 30
0.0
  0
VERTEX
  5
E8E
  8
0
 10
213.6376881625134
 20
101.0239434648976
 30
0.0
  0
VERTEX
  5
E8F
  8
0
 10
213.61872141286889
 20
101.14193985237149
 30
0.0
  0
VERTEX
  5
E90
  8
0
 10
213.59916475599559
 20
101.24498397910941
 30
0.0
  0
VERTEX
  5
E91
  8
0
 10
213.5790637870461
 20
101.3329457754851
 30
0.0
  0
VERTEX
  5
E92
  8
0
 10
213.55846922129871
 20
101.4057902629896
 30
0.0
  0
VERTEX
  5
E93
  8
0
 10
213.53743695453991
 20
101.4635760098443
 30
0.0
  0
VERTEX
  5
E94
  8
0
 10
213.52677599645591
 20
101.4868647205364
 30
0.0
  0
VERTEX
  5
E95
  8
0
 10
213.51602964612681
 20
101.5064519416877
 30
0.0
  0
VERTEX
  5
E96
  8
0
 10
213.49431653753271
 20
101.5346630351214
 30
0.0
  0
VERTEX
  5
E97
  8
0
 10
213.472372456947
 20
101.548555493134
 30
0.0
  0
VERTEX
  5
E98
  8
0
 10
213.46133842747389
 20
101.5502685908765
 30
0.0
  0
SEQEND
  5
E99
  8
0
  0
POLYLINE
  5
A84
  8
0
 66
     1
 10
0.0
 20
0.0
 30
0.0
  0
VERTEX
  5
E9A
  8
0
 10
213.9919316954778
 20
90.740268590876468
 30
0.0
  0
VERTEX
  5
E9B
  8
0
 10
213.99192719967019
 20
90.789580914834147
 30
0.0
  0
VERTEX
  5
E9C
  8
0
 10
213.9918913521914
 20
90.887981329450952
 30
0.0
  0
VERTEX
  5
E9D
  8
0
 10
213.99181994993631
 20
90.986083932327233
 30
0.0
  0
VERTEX
  5
E9E
  8
0
 10
213.9917710056462
 20
91.035023969509112
 30
0.0
  0
VERTEX
  5
E9F
  8
0
 10
213.99171327790179
 20
91.083890042515407
 30
0.0
  0
VERTEX
  5
EA0
  8
0
 10
213.99157160034511
 20
91.181400911417157
 30
0.0
  0
VERTEX
  5
EA1
  8
0
 10
213.9913951613419
 20
91.278617747351987
 30
0.0
  0
VERTEX
  5
EA2
  8
0
 10
213.9911841852624
 20
91.375541737400766
 30
0.0
  0
VERTEX
  5
EA3
  8
0
 10
213.99093887717561
 20
91.472174066068646
 30
0.0
  0
VERTEX
  5
EA4
  8
0
 10
213.99065942319069
 20
91.568515930424823
 30
0.0
  0
VERTEX
  5
EA5
  8
0
 10
213.99050694453379
 20
91.616578318886909
 30
0.0
  0
VERTEX
  5
EA6
  8
0
 10
213.9903459907483
 20
91.664568551489126
 30
0.0
  0
VERTEX
  5
EA7
  8
0
 10
213.9899987288704
 20
91.760333181751136
 30
0.0
  0
VERTEX
  5
EA8
  8
0
 10
213.98961776838229
 20
91.855811108811324
 30
0.0
  0
VERTEX
  5
EA9
  8
0
 10
213.98920322211271
 20
91.951003655234587
 30
0.0
  0
VERTEX
  5
EAA
  8
0
 10
213.98875518508589
 20
92.045912174791226
 30
0.0
  0
VERTEX
  5
EAB
  8
0
 10
213.98827373470979
 20
92.140538045335518
 30
0.0
  0
VERTEX
  5
EAC
  8
0
 10
213.98802049893661
 20
92.187745421946047
 30
0.0
  0
VERTEX
  5
EAD
  8
0
 10
213.98775893097101
 20
92.23488265863098
 30
0.0
  0
VERTEX
  5
EAE
  8
0
 10
213.9872108166411
 20
92.328947407476576
 30
0.0
  0
VERTEX
  5
EAF
  8
0
 10
213.9866294175001
 20
92.422733670519975
 30
0.0
  0
VERTEX
  5
EB0
  8
0
 10
213.98632623959529
 20
92.469522792648689
 30
0.0
  0
VERTEX
  5
EB1
  8
0
 10
213.98601474258101
 20
92.516242795159826
 30
0.0
  0
VERTEX
  5
EB2
  8
0
 10
213.9853667844387
 20
92.609476078946557
 30
0.0
  0
VERTEX
  5
EB3
  8
0
 10
213.98468551944549
 20
92.702434749883807
 30
0.0
  0
VERTEX
  5
EB4
  8
0
 10
213.9843324994047
 20
92.748796646295489
 30
0.0
  0
VERTEX
  5
EB5
  8
0
 10
213.98397146918651
 20
92.795048938893814
 30
0.0
  0
VERTEX
  5
EB6
  8
0
 10
213.98322549835811
 20
92.887218589112436
 30
0.0
  0
VERTEX
  5
EB7
  8
0
 10
213.98244783134399
 20
92.978933787069167
 30
0.0
  0
VERTEX
  5
EB8
  8
0
 10
213.9816386916375
 20
93.070185127692454
 30
0.0
  0
VERTEX
  5
EB9
  8
0
 10
213.9807983057112
 20
93.160963255364905
 30
0.0
  0
VERTEX
  5
EBA
  8
0
 10
213.9799269034493
 20
93.251258863397524
 30
0.0
  0
VERTEX
  5
EBB
  8
0
 10
213.9794796440774
 20
93.296222826937594
 30
0.0
  0
VERTEX
  5
EBC
  8
0
 10
213.97902471861059
 20
93.341062691234356
 30
0.0
  0
VERTEX
  5
EBD
  8
0
 10
213.97809198932629
 20
93.430365519904399
 30
0.0
  0
VERTEX
  5
EBE
  8
0
 10
213.97712895862949
 20
93.519158166190437
 30
0.0
  0
VERTEX
  5
EBF
  8
0
 10
213.97352337160731
 20
93.825782756448575
 30
0.0
  0
VERTEX
  5
EC0
  8
0
 10
213.96651925024349
 20
94.335497404292099
 30
0.0
  0
VERTEX
  5
EC1
  8
0
 10
213.95848375866751
 20
94.826208084320655
 30
0.0
  0
VERTEX
  5
EC2
  8
0
 10
213.94919891404641
 20
95.309278552217805
 30
0.0
  0
VERTEX
  5
EC3
  8
0
 10
213.94405773941281
 20
95.547964068861063
 30
0.0
  0
VERTEX
  5
EC4
  8
0
 10
213.93857282114311
 20
95.784412901340716
 30
0.0
  0
VERTEX
  5
EC5
  8
0
 10
213.9265374686826
 20
96.249581934768884
 30
0.0
  0
VERTEX
  5
EC6
  8
0
 10
213.91302420265509
 20
96.702725622793025
 30
0.0
  0
VERTEX
  5
EC7
  8
0
 10
213.89796562557271
 20
97.141744353144787
 30
0.0
  0
VERTEX
  5
EC8
  8
0
 10
213.88129775387759
 20
97.5645063724794
 30
0.0
  0
VERTEX
  5
EC9
  8
0
 10
213.86293134630381
 20
97.969504255022898
 30
0.0
  0
VERTEX
  5
ECA
  8
0
 10
213.85305886223341
 20
98.165286876756966
 30
0.0
  0
VERTEX
  5
ECB
  8
0
 10
213.84271022612791
 20
98.356241072683574
 30
0.0
  0
VERTEX
  5
ECC
  8
0
 10
213.82053940097029
 20
98.722506246403611
 30
0.0
  0
VERTEX
  5
ECD
  8
0
 10
213.79633038937581
 20
99.065974657659325
 30
0.0
  0
VERTEX
  5
ECE
  8
0
 10
213.78343484521869
 20
99.228430471236507
 30
0.0
  0
SEQEND
  5
ECF
  8
0
  0
LINE
  5
A85
  8
0
 10
213.9919316954778
 20
75.354114744722636
 30
0.0
 11
213.9919316954778
 21
90.740268590876468
 31
0.0
  0
POLYLINE
  5
A86
  8
0
 66
     1
 10
0.0
 20
0.0
 30
0.0
  0
VERTEX
  5
ED0
  8
0
 10
214.03254531515569
 20
74.200268590876476
 30
0.0
  0
VERTEX
  5
ED1
  8
0
 10
214.02687689783801
 20
74.368570427509781
 30
0.0
  0
VERTEX
  5
ED2
  8
0
 10
214.01413868853939
 20
74.737707369059294
 30
0.0
  0
VERTEX
  5
ED3
  8
0
 10
213.99970725608009
 20
75.141953511790675
 30
0.0
  0
VERTEX
  5
ED4
  8
0
 10
213.9919316954778
 20
75.354114744722636
 30
0.0
  0
SEQEND
  5
ED5
  8
0
  0
POLYLINE
  5
A87
  8
0
 66
     1
 10
0.0
 20
0.0
 30
0.0
  0
VERTEX
  5
ED6
  8
0
 10
213.99193169547789
 20
75.354114744722636
 30
0.0
  0
VERTEX
  5
ED7
  8
0
 10
213.99970725608009
 20
75.141953511792224
 30
0.0
  0
VERTEX
  5
ED8
  8
0
 10
214.0141386885393
 20
74.737707369063571
 30
0.0
  0
VERTEX
  5
ED9
  8
0
 10
214.02687689783789
 20
74.368570427516175
 30
0.0
  0
VERTEX
  5
EDA
  8
0
 10
214.03254531515569
 20
74.200268590876476
 30
0.0
  0
SEQEND
  5
EDB
  8
0
  0
POLYLINE
  5
A88
  8
0
 66
     1
 10
0.0
 20
0.0
 30
0.0
  0
VERTEX
  5
EDC
  8
0
 10
212.01996771848059
 20
113.5376651602276
 30
0.0
  0
VERTEX
  5
EDD
  8
0
 10
212.62716762806451
 20
114.0322368514806
 30
0.0
  0
VERTEX
  5
EDE
  8
0
 10
213.5355639138329
 20
114.77270232834979
 30
0.0
  0
VERTEX
  5
EDF
  8
0
 10
214.0010166091302
 20
115.1523707518562
 30
0.0
  0
VERTEX
  5
EE0
  8
0
 10
214.05972134215
 20
115.20026859087631
 30
0.0
  0
SEQEND
  5
EE1
  8
0
  0
POLYLINE
  5
A89
  8
0
 66
     1
 10
0.0
 20
0.0
 30
0.0
  0
VERTEX
  5
EE2
  8
0
 10
196.19582747382611
 20
100.2002685908766
 30
0.0
  0
VERTEX
  5
EE3
  8
0
 10
196.17426680107801
 20
100.21111387620429
 30
0.0
  0
VERTEX
  5
EE4
  8
0
 10
196.1377587548557
 20
100.2327691407534
 30
0.0
  0
VERTEX
  5
EE5
  8
0
 10
196.11005312250589
 20
100.2542916232309
 30
0.0
  0
VERTEX
  5
EE6
  8
0
 10
196.09947496581921
 20
100.2649709079252
 30
0.0
  0
SEQEND
  5
EE7
  8
0
  0
POLYLINE
  5
A8A
  8
0
 66
     1
 10
0.0
 20
0.0
 30
0.0
  0
VERTEX
  5
EE8
  8
0
 10
196.09947496581921
 20
113.5376651602276
 30
0.0
  0
VERTEX
  5
EE9
  8
0
 10
196.1021737953815
 20
113.535532937772
 30
0.0
  0
VERTEX
  5
EEA
  8
0
 10
196.1080650598318
 20
113.5312602658379
 30
0.0
  0
VERTEX
  5
EEB
  8
0
 10
196.11461723064511
 20
113.5269779350609
 30
0.0
  0
VERTEX
  5
EEC
  8
0
 10
196.1181420636826
 20
113.524833640399
 30
0.0
  0
VERTEX
  5
EED
  8
0
 10
196.1218331440831
 20
113.52268752280639
 30
0.0
  0
VERTEX
  5
EEE
  8
0
 10
196.12971509059449
 20
113.5183906088767
 30
0.0
  0
VERTEX
  5
EEF
  8
0
 10
196.13826482366071
 20
113.51408877219851
 30
0.0
  0
VERTEX
  5
EF0
  8
0
 10
196.14748359091271
 20
113.5097835785419
 30
0.0
  0
VERTEX
  5
EF1
  8
0
 10
196.15737230141491
 20
113.50547651539151
 30
0.0
  0
VERTEX
  5
EF2
  8
0
 10
196.16793126154539
 20
113.5011691212306
 30
0.0
  0
VERTEX
  5
EF3
  8
0
 10
196.1734620234779
 20
113.49901578834999
 30
0.0
  0
VERTEX
  5
EF4
  8
0
 10
196.17916020653641
 20
113.4968629595995
 30
0.0
  0
VERTEX
  5
EF5
  8
0
 10
196.1910583352975
 20
113.49255960013031
 30
0.0
  0
VERTEX
  5
EF6
  8
0
 10
196.20362431528611
 20
113.4882606151851
 30
0.0
  0
VERTEX
  5
EF7
  8
0
 10
196.21685628954449
 20
113.4839675765293
 30
0.0
  0
VERTEX
  5
EF8
  8
0
 10
196.23075188589931
 20
113.4796820520375
 30
0.0
  0
VERTEX
  5
EF9
  8
0
 10
196.24530822833049
 20
113.4754056024273
 30
0.0
  0
VERTEX
  5
EFA
  8
0
 10
196.25283314608851
 20
113.47327126567269
 30
0.0
  0
VERTEX
  5
EFB
  8
0
 10
196.26052195052611
 20
113.4711397780211
 30
0.0
  0
VERTEX
  5
EFC
  8
0
 10
196.27638921164419
 20
113.4668861155333
 30
0.0
  0
VERTEX
  5
EFD
  8
0
 10
196.2929057143136
 20
113.4626461348812
 30
0.0
  0
VERTEX
  5
EFE
  8
0
 10
196.30140596841221
 20
113.46053174484589
 30
0.0
  0
SEQEND
  5
EFF
  8
0
  0
LINE
  5
A8B
  8
0
 10
194.1275109888218
 20
75.354114744722636
 30
0.0
 11
213.9919316954778
 21
75.354114744722636
 31
0.0
  0
LINE
  5
A8C
  8
0
 10
196.30140596841221
 20
113.46053174484589
 30
0.0
 11
211.8180367158875
 21
113.46053174484589
 31
0.0
  0
POLYLINE
  5
A8D
  8
0
 66
     1
 10
0.0
 20
0.0
 30
0.0
  0
VERTEX
  5
F00
  8
0
 10
200.05972134214991
 20
115.20026859087631
 30
0.0
  0
VERTEX
  5
F01
  8
0
 10
200.0601125640961
 20
115.2002647742635
 30
0.0
  0
VERTEX
  5
F02
  8
0
 10
200.06327532974871
 20
115.2002339332285
 30
0.0
  0
VERTEX
  5
F03
  8
0
 10
200.0696782185791
 20
115.2001715715087
 30
0.0
  0
VERTEX
  5
F04
  8
0
 10
200.07411644061821
 20
115.2001284035732
 30
0.0
  0
VERTEX
  5
F05
  8
0
 10
200.07938908594849
 20
115.2000771821361
 30
0.0
  0
VERTEX
  5
F06
  8
0
 10
200.09246235228309
 20
115.1999504735488
 30
0.0
  0
VERTEX
  5
F07
  8
0
 10
200.10893926668081
 20
115.19979136987639
 30
0.0
  0
VERTEX
  5
F08
  8
0
 10
200.12884843148271
 20
115.1996000072089
 30
0.0
  0
VERTEX
  5
F09
  8
0
 10
200.15220656335799
 20
115.19937672618251
 30
0.0
  0
VERTEX
  5
F0A
  8
0
 10
200.179018703145
 20
115.1991220685078
 30
0.0
  0
VERTEX
  5
F0B
  8
0
 10
200.1937182164736
 20
115.19898319882201
 30
0.0
  0
VERTEX
  5
F0C
  8
0
 10
200.20927749607739
 20
115.19883678082959
 30
0.0
  0
VERTEX
  5
F0D
  8
0
 10
200.2429631432108
 20
115.1985218105079
 30
0.0
  0
VERTEX
  5
F0E
  8
0
 10
200.28004372948911
 20
115.19817829634739
 30
0.0
  0
VERTEX
  5
F0F
  8
0
 10
200.320475779584
 20
115.19780755590131
 30
0.0
  0
VERTEX
  5
F10
  8
0
 10
200.36420504386891
 20
115.1974110695902
 30
0.0
  0
VERTEX
  5
F11
  8
0
 10
200.4111788203673
 20
115.1969903613476
 30
0.0
  0
VERTEX
  5
F12
  8
0
 10
200.4358646352353
 20
115.1967714264886
 30
0.0
  0
VERTEX
  5
F13
  8
0
 10
200.46133677641981
 20
115.1965470757948
 30
0.0
  0
VERTEX
  5
F14
  8
0
 10
200.51459667648601
 20
115.1960830925552
 30
0.0
  0
VERTEX
  5
F15
  8
0
 10
200.57086455615621
 20
115.19560041999991
 30
0.0
  0
VERTEX
  5
F16
  8
0
 10
200.60009405965641
 20
115.19535273327649
 30
0.0
  0
VERTEX
  5
F17
  8
0
 10
200.63003531796321
 20
115.1951011756596
 30
0.0
  0
VERTEX
  5
F18
  8
0
 10
200.69199353833491
 20
115.1945875643964
 30
0.0
  0
VERTEX
  5
F19
  8
0
 10
200.75661448858889
 20
115.19406185473289
 30
0.0
  0
VERTEX
  5
F1A
  8
0
 10
200.78988220142301
 20
115.1937951836827
 30
0.0
  0
VERTEX
  5
F1B
  8
0
 10
200.82376482342841
 20
115.19352635811209
 30
0.0
  0
VERTEX
  5
F1C
  8
0
 10
200.8933005074872
 20
115.19298342969169
 30
0.0
  0
VERTEX
  5
F1D
  8
0
 10
200.96506556733129
 20
115.1924354603966
 30
0.0
  0
VERTEX
  5
F1E
  8
0
 10
201.0388927365025
 20
115.191884853288
 30
0.0
  0
VERTEX
  5
F1F
  8
0
 10
201.11460438007001
 20
115.1913339983073
 30
0.0
  0
VERTEX
  5
F20
  8
0
 10
201.19201361408469
 20
115.1907852465834
 30
0.0
  0
VERTEX
  5
F21
  8
0
 10
201.23129421772919
 20
115.19051237723539
 30
0.0
  0
VERTEX
  5
F22
  8
0
 10
201.2711280798222
 20
115.1902395077058
 30
0.0
  0
VERTEX
  5
F23
  8
0
 10
201.3530100394843
 20
115.189690754517
 30
0.0
  0
VERTEX
  5
F24
  8
0
 10
201.4377765426438
 20
115.1891398965883
 30
0.0
  0
VERTEX
  5
F25
  8
0
 10
201.52533667682701
 20
115.18858928505389
 30
0.0
  0
VERTEX
  5
F26
  8
0
 10
201.61558977973741
 20
115.188041309886
 30
0.0
  0
VERTEX
  5
F27
  8
0
 10
201.708426931475
 20
115.18749837420221
 30
0.0
  0
VERTEX
  5
F28
  8
0
 10
201.75577863657099
 20
115.187229544503
 30
0.0
  0
VERTEX
  5
F29
  8
0
 10
201.80373262079581
 20
115.18696286900879
 30
0.0
  0
VERTEX
  5
F2A
  8
0
 10
201.90138646624479
 20
115.1864371495687
 30
0.0
  0
VERTEX
  5
F2B
  8
0
 10
202.0012622648602
 20
115.18592352745191
 30
0.0
  0
VERTEX
  5
F2C
  8
0
 10
202.10322490094109
 20
115.1854242713283
 30
0.0
  0
VERTEX
  5
F2D
  8
0
 10
202.20713096572891
 20
115.1849415862248
 30
0.0
  0
VERTEX
  5
F2E
  8
0
 10
202.31283024214019
 20
115.1844775898513
 30
0.0
  0
VERTEX
  5
F2F
  8
0
 10
202.36630391987569
 20
115.18425323243039
 30
0.0
  0
VERTEX
  5
F30
  8
0
 10
202.42016729754309
 20
115.1840342907698
 30
0.0
  0
VERTEX
  5
F31
  8
0
 10
202.5289831908556
 20
115.18361356880079
 30
0.0
  0
VERTEX
  5
F32
  8
0
 10
202.63914307195839
 20
115.1832170687633
 30
0.0
  0
VERTEX
  5
F33
  8
0
 10
202.75050892872741
 20
115.18284631478819
 30
0.0
  0
VERTEX
  5
F34
  8
0
 10
202.8629102250066
 20
115.1825027874938
 30
0.0
  0
VERTEX
  5
F35
  8
0
 10
202.97617061067109
 20
115.18218780462369
 30
0.0
  0
VERTEX
  5
F36
  8
0
 10
203.03306666224111
 20
115.18204138063309
 30
0.0
  0
VERTEX
  5
F37
  8
0
 10
203.0901095501398
 20
115.1819025051618
 30
0.0
  0
VERTEX
  5
F38
  8
0
 10
203.20454401946981
 20
115.1816478366332
 30
0.0
  0
VERTEX
  5
F39
  8
0
 10
203.319290278523
 20
115.1814245458299
 30
0.0
  0
VERTEX
  5
F3A
  8
0
 10
203.43416479632239
 20
115.18123317458971
 30
0.0
  0
VERTEX
  5
F3B
  8
0
 10
203.54898059847341
 20
115.1810740636535
 30
0.0
  0
VERTEX
  5
F3C
  8
0
 10
203.6635457116418
 20
115.1809473491931
 30
0.0
  0
VERTEX
  5
F3D
  8
0
 10
203.72067330887941
 20
115.18089612535969
 30
0.0
  0
VERTEX
  5
F3E
  8
0
 10
203.77766483711491
 20
115.1808529553947
 30
0.0
  0
VERTEX
  5
F3F
  8
0
 10
203.8911411832928
 20
115.1807905907269
 30
0.0
  0
VERTEX
  5
F40
  8
0
 10
204.00377831296021
 20
115.180759748227
 30
0.0
  0
VERTEX
  5
F41
  8
0
 10
204.05972134214991
 20
115.1807559314325
 30
0.0
  0
VERTEX
  5
F42
  8
0
 10
204.11566437133951
 20
115.180759748227
 30
0.0
  0
VERTEX
  5
F43
  8
0
 10
204.228301501007
 20
115.1807905907269
 30
0.0
  0
VERTEX
  5
F44
  8
0
 10
204.34177784718489
 20
115.1808529553947
 30
0.0
  0
VERTEX
  5
F45
  8
0
 10
204.3987693754203
 20
115.18089612535969
 30
0.0
  0
VERTEX
  5
F46
  8
0
 10
204.45589697265791
 20
115.1809473491931
 30
0.0
  0
VERTEX
  5
F47
  8
0
 10
204.57046208582639
 20
115.1810740636535
 30
0.0
  0
VERTEX
  5
F48
  8
0
 10
204.68527788797741
 20
115.18123317458971
 30
0.0
  0
VERTEX
  5
F49
  8
0
 10
204.8001524057768
 20
115.1814245458299
 30
0.0
  0
VERTEX
  5
F4A
  8
0
 10
204.91489866482999
 20
115.1816478366332
 30
0.0
  0
VERTEX
  5
F4B
  8
0
 10
205.02933313416
 20
115.1819025051618
 30
0.0
  0
VERTEX
  5
F4C
  8
0
 10
205.08637602205869
 20
115.18204138063309
 30
0.0
  0
VERTEX
  5
F4D
  8
0
 10
205.14327207362871
 20
115.18218780462369
 30
0.0
  0
VERTEX
  5
F4E
  8
0
 10
205.2565324592932
 20
115.1825027874938
 30
0.0
  0
VERTEX
  5
F4F
  8
0
 10
205.36893375557241
 20
115.18284631478819
 30
0.0
  0
VERTEX
  5
F50
  8
0
 10
205.48029961234141
 20
115.1832170687633
 30
0.0
  0
VERTEX
  5
F51
  8
0
 10
205.59045949344409
 20
115.18361356880079
 30
0.0
  0
VERTEX
  5
F52
  8
0
 10
205.69927538675671
 20
115.1840342907698
 30
0.0
  0
VERTEX
  5
F53
  8
0
 10
205.75313876442411
 20
115.18425323243039
 30
0.0
  0
VERTEX
  5
F54
  8
0
 10
205.8066124421596
 20
115.1844775898513
 30
0.0
  0
VERTEX
  5
F55
  8
0
 10
205.91231171857089
 20
115.1849415862248
 30
0.0
  0
VERTEX
  5
F56
  8
0
 10
206.0162177833586
 20
115.1854242713283
 30
0.0
  0
VERTEX
  5
F57
  8
0
 10
206.11818041943951
 20
115.18592352745191
 30
0.0
  0
VERTEX
  5
F58
  8
0
 10
206.2180562180549
 20
115.1864371495687
 30
0.0
  0
VERTEX
  5
F59
  8
0
 10
206.31571006350401
 20
115.18696286900879
 30
0.0
  0
VERTEX
  5
F5A
  8
0
 10
206.36366404772869
 20
115.187229544503
 30
0.0
  0
VERTEX
  5
F5B
  8
0
 10
206.4110157528248
 20
115.18749837420221
 30
0.0
  0
VERTEX
  5
F5C
  8
0
 10
206.50385290456239
 20
115.188041309886
 30
0.0
  0
VERTEX
  5
F5D
  8
0
 10
206.5941060074727
 20
115.18858928505389
 30
0.0
  0
VERTEX
  5
F5E
  8
0
 10
206.68166614165591
 20
115.1891398965883
 30
0.0
  0
VERTEX
  5
F5F
  8
0
 10
206.7664326448155
 20
115.189690754517
 30
0.0
  0
VERTEX
  5
F60
  8
0
 10
206.84831460447759
 20
115.1902395077058
 30
0.0
  0
VERTEX
  5
F61
  8
0
 10
206.88814846657061
 20
115.19051237723539
 30
0.0
  0
VERTEX
  5
F62
  8
0
 10
206.927429070215
 20
115.1907852465834
 30
0.0
  0
VERTEX
  5
F63
  8
0
 10
207.00483830422979
 20
115.1913339983073
 30
0.0
  0
VERTEX
  5
F64
  8
0
 10
207.08054994779729
 20
115.191884853288
 30
0.0
  0
VERTEX
  5
F65
  8
0
 10
207.1543771169685
 20
115.1924354603966
 30
0.0
  0
VERTEX
  5
F66
  8
0
 10
207.22614217681249
 20
115.19298342969169
 30
0.0
  0
VERTEX
  5
F67
  8
0
 10
207.29567786087139
 20
115.19352635811209
 30
0.0
  0
VERTEX
  5
F68
  8
0
 10
207.3295604828767
 20
115.1937951836827
 30
0.0
  0
VERTEX
  5
F69
  8
0
 10
207.3628281957109
 20
115.19406185473289
 30
0.0
  0
VERTEX
  5
F6A
  8
0
 10
207.42744914596491
 20
115.1945875643964
 30
0.0
  0
VERTEX
  5
F6B
  8
0
 10
207.48940736633659
 20
115.1951011756596
 30
0.0
  0
VERTEX
  5
F6C
  8
0
 10
207.51934862464341
 20
115.19535273327649
 30
0.0
  0
VERTEX
  5
F6D
  8
0
 10
207.54857812814359
 20
115.19560041999991
 30
0.0
  0
VERTEX
  5
F6E
  8
0
 10
207.60484600781379
 20
115.1960830925552
 30
0.0
  0
VERTEX
  5
F6F
  8
0
 10
207.65810590788001
 20
115.1965470757948
 30
0.0
  0
VERTEX
  5
F70
  8
0
 10
207.68357804906441
 20
115.1967714264886
 30
0.0
  0
VERTEX
  5
F71
  8
0
 10
207.70826386393239
 20
115.1969903613476
 30
0.0
  0
VERTEX
  5
F72
  8
0
 10
207.75523764043089
 20
115.1974110695902
 30
0.0
  0
VERTEX
  5
F73
  8
0
 10
207.7989669047158
 20
115.19780755590131
 30
0.0
  0
VERTEX
  5
F74
  8
0
 10
207.8393989548106
 20
115.19817829634739
 30
0.0
  0
VERTEX
  5
F75
  8
0
 10
207.876479541089
 20
115.1985218105079
 30
0.0
  0
VERTEX
  5
F76
  8
0
 10
207.91016518822241
 20
115.19883678082959
 30
0.0
  0
VERTEX
  5
F77
  8
0
 10
207.9257244678262
 20
115.19898319882201
 30
0.0
  0
VERTEX
  5
F78
  8
0
 10
207.94042398115479
 20
115.1991220685078
 30
0.0
  0
VERTEX
  5
F79
  8
0
 10
207.96723612094181
 20
115.19937672618251
 30
0.0
  0
VERTEX
  5
F7A
  8
0
 10
207.990594252817
 20
115.1996000072089
 30
0.0
  0
VERTEX
  5
F7B
  8
0
 10
208.01050341761891
 20
115.19979136987639
 30
0.0
  0
VERTEX
  5
F7C
  8
0
 10
208.02698033201659
 20
115.1999504735488
 30
0.0
  0
VERTEX
  5
F7D
  8
0
 10
208.04005359835131
 20
115.2000771821361
 30
0.0
  0
VERTEX
  5
F7E
  8
0
 10
208.04532624368159
 20
115.2001284035732
 30
0.0
  0
VERTEX
  5
F7F
  8
0
 10
208.0497644657207
 20
115.2001715715087
 30
0.0
  0
VERTEX
  5
F80
  8
0
 10
208.05616735455101
 20
115.2002339332285
 30
0.0
  0
VERTEX
  5
F81
  8
0
 10
208.0593301202037
 20
115.2002647742635
 30
0.0
  0
VERTEX
  5
F82
  8
0
 10
208.05972134214991
 20
115.20026859087631
 30
0.0
  0
SEQEND
  5
F83
  8
0
  0
POLYLINE
  5
A8E
  8
0
 66
     1
 10
0.0
 20
0.0
 30
0.0
  0
VERTEX
  5
F84
  8
0
 10
207.8597213421499
 20
115.20026859087631
 30
0.0
  0
VERTEX
  5
F85
  8
0
 10
207.8593496817831
 20
115.20026514638769
 30
0.0
  0
VERTEX
  5
F86
  8
0
 10
207.8563450581178
 20
115.2002373123881
 30
0.0
  0
VERTEX
  5
F87
  8
0
 10
207.8502623207381
 20
115.20018103100151
 30
0.0
  0
VERTEX
  5
F88
  8
0
 10
207.8460460144083
 20
115.20014207198329
 30
0.0
  0
VERTEX
  5
F89
  8
0
 10
207.84103700661109
 20
115.2000958446866
 30
0.0
  0
VERTEX
  5
F8A
  8
0
 10
207.8286174158678
 20
115.1999814903057
 30
0.0
  0
VERTEX
  5
F8B
  8
0
 10
207.8129643613793
 20
115.1998378993835
 30
0.0
  0
VERTEX
  5
F8C
  8
0
 10
207.79405067042219
 20
115.19966519473959
 30
0.0
  0
VERTEX
  5
F8D
  8
0
 10
207.7718604616592
 20
115.19946368379669
 30
0.0
  0
VERTEX
  5
F8E
  8
0
 10
207.74638894579331
 20
115.1992338554483
 30
0.0
  0
VERTEX
  5
F8F
  8
0
 10
207.7324244165934
 20
115.19910852566559
 30
0.0
  0
VERTEX
  5
F90
  8
0
 10
207.71764310934429
 20
115.19897638354109
 30
0.0
  0
VERTEX
  5
F91
  8
0
 10
207.6856417607967
 20
115.1986921230679
 30
0.0
  0
VERTEX
  5
F92
  8
0
 10
207.650415218944
 20
115.1983821018007
 30
0.0
  0
VERTEX
  5
F93
  8
0
 10
207.61200478485279
 20
115.1980475088325
 30
0.0
  0
VERTEX
  5
F94
  8
0
 10
207.57046199519669
 20
115.19768968024481
 30
0.0
  0
VERTEX
  5
F95
  8
0
 10
207.5258369164807
 20
115.1973099913901
 30
0.0
  0
VERTEX
  5
F96
  8
0
 10
207.50238539582111
 20
115.1971124028579
 30
0.0
  0
VERTEX
  5
F97
  8
0
 10
207.47818686443171
 20
115.1969099265427
 30
0.0
  0
VERTEX
  5
F98
  8
0
 10
207.42758996250879
 20
115.1964911820656
 30
0.0
  0
VERTEX
  5
F99
  8
0
 10
207.3741354766442
 20
115.196055570517
 30
0.0
  0
VERTEX
  5
F9A
  8
0
 10
207.346367446919
 20
115.1958320334799
 30
0.0
  0
VERTEX
  5
F9B
  8
0
 10
207.31792324922449
 20
115.1956050029717
 30
0.0
  0
VERTEX
  5
F9C
  8
0
 10
207.2590629324869
 20
115.1951414693205
 30
0.0
  0
VERTEX
  5
F9D
  8
0
 10
207.19767301857141
 20
115.1946670169079
 30
0.0
  0
VERTEX
  5
F9E
  8
0
 10
207.16606868434829
 20
115.19442634658181
 30
0.0
  0
VERTEX
  5
F9F
  8
0
 10
207.13388018544291
 20
115.1941837318132
 30
0.0
  0
VERTEX
  5
FA0
  8
0
 10
207.06782126667619
 20
115.1936937395681
 30
0.0
  0
VERTEX
  5
FA1
  8
0
 10
206.99964443706091
 20
115.1931991979832
 30
0.0
  0
VERTEX
  5
FA2
  8
0
 10
206.92950859980121
 20
115.1927022758215
 30
0.0
  0
VERTEX
  5
FA3
  8
0
 10
206.85758250818111
 20
115.1922051300043
 30
0.0
  0
VERTEX
  5
FA4
  8
0
 10
206.78404370206891
 20
115.19170988242421
 30
0.0
  0
VERTEX
  5
FA5
  8
0
 10
206.74672711040691
 20
115.1914636182801
 30
0.0
  0
VERTEX
  5
FA6
  8
0
 10
206.70888492270291
 20
115.19121735398799
 30
0.0
  0
VERTEX
  5
FA7
  8
0
 10
206.631097023162
 20
115.1907221052147
 30
0.0
  0
VERTEX
  5
FA8
  8
0
 10
206.5505688069984
 20
115.1902249569965
 30
0.0
  0
VERTEX
  5
FA9
  8
0
 10
206.4673866414372
 20
115.1897280312299
 30
0.0
  0
VERTEX
  5
FAA
  8
0
 10
206.38164615607889
 20
115.1892334848616
 30
0.0
  0
VERTEX
  5
FAB
  8
0
 10
206.293450825278
 20
115.1887434867004
 30
0.0
  0
VERTEX
  5
FAC
  8
0
 10
206.2484666876108
 20
115.18850086856889
 30
0.0
  0
VERTEX
  5
FAD
  8
0
 10
206.20291038518269
 20
115.1882601946233
 30
0.0
  0
VERTEX
  5
FAE
  8
0
 10
206.11013919864459
 20
115.1877857342477
 30
0.0
  0
VERTEX
  5
FAF
  8
0
 10
206.01525715895451
 20
115.18732219175619
 30
0.0
  0
VERTEX
  5
FB0
  8
0
 10
205.9183926265155
 20
115.1868716146133
 30
0.0
  0
VERTEX
  5
FB1
  8
0
 10
205.81968184013309
 20
115.1864359928442
 30
0.0
  0
VERTEX
  5
FB2
  8
0
 10
205.7192675065067
 20
115.1860172376697
 30
0.0
  0
VERTEX
  5
FB3
  8
0
 10
205.66846750370519
 20
115.1858147558751
 30
0.0
  0
VERTEX
  5
FB4
  8
0
 10
205.6172972870838
 20
115.18561716180299
 30
0.0
  0
VERTEX
  5
FB5
  8
0
 10
205.513922176313
 20
115.185237461768
 30
0.0
  0
VERTEX
  5
FB6
  8
0
 10
205.4092702823138
 20
115.1848796220001
 30
0.0
  0
VERTEX
  5
FB7
  8
0
 10
205.30347271702229
 20
115.1845450180126
 30
0.0
  0
VERTEX
  5
FB8
  8
0
 10
205.19669149000561
 20
115.1842349860478
 30
0.0
  0
VERTEX
  5
FB9
  8
0
 10
205.08909413403649
 20
115.1839507153539
 30
0.0
  0
VERTEX
  5
FBA
  8
0
 10
205.03504289252029
 20
115.1838185683438
 30
0.0
  0
VERTEX
  5
FBB
  8
0
 10
204.9808521580168
 20
115.1836932338488
 30
0.0
  0
VERTEX
  5
FBC
  8
0
 10
204.87213943475351
 20
115.18346339666
 30
0.0
  0
VERTEX
  5
FBD
  8
0
 10
204.76313051742241
 20
115.18326187775379
 30
0.0
  0
VERTEX
  5
FBE
  8
0
 10
204.6539997604967
 20
115.1830891661274
 30
0.0
  0
VERTEX
  5
FBF
  8
0
 10
204.5449247896459
 20
115.1829455692889
 30
0.0
  0
VERTEX
  5
FC0
  8
0
 10
204.43608797945311
 20
115.18283121012441
 30
0.0
  0
VERTEX
  5
FC1
  8
0
 10
204.38181678799049
 20
115.18278498087579
 30
0.0
  0
VERTEX
  5
FC2
  8
0
 10
204.3276748635561
 20
115.1827460202045
 30
0.0
  0
VERTEX
  5
FC3
  8
0
 10
204.2198723938092
 20
115.1826897364168
 30
0.0
  0
VERTEX
  5
FC4
  8
0
 10
204.1128671854072
 20
115.18266190122399
 30
0.0
  0
VERTEX
  5
FC5
  8
0
 10
204.05972134214991
 20
115.1826584565875
 30
0.0
  0
VERTEX
  5
FC6
  8
0
 10
204.0065754988926
 20
115.18266190122399
 30
0.0
  0
VERTEX
  5
FC7
  8
0
 10
203.8995702904906
 20
115.1826897364168
 30
0.0
  0
VERTEX
  5
FC8
  8
0
 10
203.7917678207437
 20
115.1827460202045
 30
0.0
  0
VERTEX
  5
FC9
  8
0
 10
203.7376258963092
 20
115.18278498087579
 30
0.0
  0
VERTEX
  5
FCA
  8
0
 10
203.68335470484661
 20
115.18283121012441
 30
0.0
  0
VERTEX
  5
FCB
  8
0
 10
203.57451789465381
 20
115.1829455692889
 30
0.0
  0
VERTEX
  5
FCC
  8
0
 10
203.4654429238031
 20
115.1830891661274
 30
0.0
  0
VERTEX
  5
FCD
  8
0
 10
203.35631216687739
 20
115.18326187775379
 30
0.0
  0
VERTEX
  5
FCE
  8
0
 10
203.24730324954629
 20
115.18346339666
 30
0.0
  0
VERTEX
  5
FCF
  8
0
 10
203.138590526283
 20
115.1836932338488
 30
0.0
  0
VERTEX
  5
FD0
  8
0
 10
203.0843997917795
 20
115.1838185683438
 30
0.0
  0
VERTEX
  5
FD1
  8
0
 10
203.03034855026331
 20
115.1839507153539
 30
0.0
  0
VERTEX
  5
FD2
  8
0
 10
202.92275119429419
 20
115.1842349860478
 30
0.0
  0
VERTEX
  5
FD3
  8
0
 10
202.8159699672774
 20
115.1845450180126
 30
0.0
  0
VERTEX
  5
FD4
  8
0
 10
202.710172401986
 20
115.1848796220001
 30
0.0
  0
VERTEX
  5
FD5
  8
0
 10
202.6055205079868
 20
115.185237461768
 30
0.0
  0
VERTEX
  5
FD6
  8
0
 10
202.502145397216
 20
115.18561716180299
 30
0.0
  0
VERTEX
  5
FD7
  8
0
 10
202.45097518059461
 20
115.1858147558751
 30
0.0
  0
VERTEX
  5
FD8
  8
0
 10
202.4001751777931
 20
115.1860172376697
 30
0.0
  0
VERTEX
  5
FD9
  8
0
 10
202.2997608441666
 20
115.1864359928442
 30
0.0
  0
VERTEX
  5
FDA
  8
0
 10
202.2010500577843
 20
115.1868716146133
 30
0.0
  0
VERTEX
  5
FDB
  8
0
 10
202.10418552534529
 20
115.18732219175619
 30
0.0
  0
VERTEX
  5
FDC
  8
0
 10
202.00930348565521
 20
115.1877857342477
 30
0.0
  0
VERTEX
  5
FDD
  8
0
 10
201.91653229911711
 20
115.1882601946233
 30
0.0
  0
VERTEX
  5
FDE
  8
0
 10
201.870975996689
 20
115.18850086856889
 30
0.0
  0
VERTEX
  5
FDF
  8
0
 10
201.8259918590218
 20
115.1887434867004
 30
0.0
  0
VERTEX
  5
FE0
  8
0
 10
201.73779652822091
 20
115.1892334848616
 30
0.0
  0
VERTEX
  5
FE1
  8
0
 10
201.6520560428626
 20
115.1897280312299
 30
0.0
  0
VERTEX
  5
FE2
  8
0
 10
201.5688738773014
 20
115.1902249569965
 30
0.0
  0
VERTEX
  5
FE3
  8
0
 10
201.48834566113771
 20
115.1907221052147
 30
0.0
  0
VERTEX
  5
FE4
  8
0
 10
201.41055776159689
 20
115.19121735398799
 30
0.0
  0
VERTEX
  5
FE5
  8
0
 10
201.37271557389289
 20
115.1914636182801
 30
0.0
  0
VERTEX
  5
FE6
  8
0
 10
201.33539898223091
 20
115.19170988242421
 30
0.0
  0
VERTEX
  5
FE7
  8
0
 10
201.26186017611869
 20
115.1922051300043
 30
0.0
  0
VERTEX
  5
FE8
  8
0
 10
201.18993408449859
 20
115.1927022758215
 30
0.0
  0
VERTEX
  5
FE9
  8
0
 10
201.11979824723889
 20
115.1931991979832
 30
0.0
  0
VERTEX
  5
FEA
  8
0
 10
201.05162141762349
 20
115.1936937395681
 30
0.0
  0
VERTEX
  5
FEB
  8
0
 10
200.98556249885689
 20
115.1941837318132
 30
0.0
  0
VERTEX
  5
FEC
  8
0
 10
200.95337399995151
 20
115.19442634658181
 30
0.0
  0
VERTEX
  5
FED
  8
0
 10
200.92176966572831
 20
115.1946670169079
 30
0.0
  0
VERTEX
  5
FEE
  8
0
 10
200.86037975181279
 20
115.1951414693205
 30
0.0
  0
VERTEX
  5
FEF
  8
0
 10
200.80151943507531
 20
115.1956050029717
 30
0.0
  0
VERTEX
  5
FF0
  8
0
 10
200.77307523738071
 20
115.1958320334799
 30
0.0
  0
VERTEX
  5
FF1
  8
0
 10
200.7453072076556
 20
115.196055570517
 30
0.0
  0
VERTEX
  5
FF2
  8
0
 10
200.69185272179089
 20
115.1964911820656
 30
0.0
  0
VERTEX
  5
FF3
  8
0
 10
200.64125581986809
 20
115.1969099265427
 30
0.0
  0
VERTEX
  5
FF4
  8
0
 10
200.61705728847861
 20
115.1971124028579
 30
0.0
  0
VERTEX
  5
FF5
  8
0
 10
200.5936057678191
 20
115.1973099913901
 30
0.0
  0
VERTEX
  5
FF6
  8
0
 10
200.54898068910299
 20
115.19768968024481
 30
0.0
  0
VERTEX
  5
FF7
  8
0
 10
200.50743789944701
 20
115.1980475088325
 30
0.0
  0
VERTEX
  5
FF8
  8
0
 10
200.46902746535571
 20
115.1983821018007
 30
0.0
  0
VERTEX
  5
FF9
  8
0
 10
200.4338009235031
 20
115.1986921230679
 30
0.0
  0
VERTEX
  5
FFA
  8
0
 10
200.40179957495539
 20
115.19897638354109
 30
0.0
  0
VERTEX
  5
FFB
  8
0
 10
200.38701826770631
 20
115.19910852566559
 30
0.0
  0
VERTEX
  5
FFC
  8
0
 10
200.3730537385064
 20
115.1992338554483
 30
0.0
  0
VERTEX
  5
FFD
  8
0
 10
200.3475822226406
 20
115.19946368379669
 30
0.0
  0
VERTEX
  5
FFE
  8
0
 10
200.3253920138776
 20
115.19966519473959
 30
0.0
  0
VERTEX
  5
FFF
  8
0
 10
200.30647832292041
 20
115.1998378993835
 30
0.0
  0
VERTEX
  5
1000
  8
0
 10
200.290825268432
 20
115.1999814903057
 30
0.0
  0
VERTEX
  5
1001
  8
0
 10
200.2784056776886
 20
115.2000958446866
 30
0.0
  0
VERTEX
  5
1002
  8
0
 10
200.2733966698915
 20
115.20014207198329
 30
0.0
  0
VERTEX
  5
1003
  8
0
 10
200.2691803635617
 20
115.20018103100151
 30
0.0
  0
VERTEX
  5
1004
  8
0
 10
200.26309762618189
 20
115.2002373123881
 30
0.0
  0
VERTEX
  5
1005
  8
0
 10
200.26009300251661
 20
115.20026514638769
 30
0.0
  0
VERTEX
  5
1006
  8
0
 10
200.2597213421499
 20
115.20026859087631
 30
0.0
  0
SEQEND
  5
1007
  8
0
  0
LINE
  5
A8F
  8
0
 10
198.0597213421498
 20
73.200268590876476
 30
0.0
 11
210.05972134214991
 21
73.200268590876476
 31
0.0
  0
LINE
  5
A90
  8
2
 10
208.05972134214991
 20
114.70026859087641
 30
0.0
 11
200.05972134214991
 21
114.70026859087641
 31
0.0
  0
LINE
  5
A91
  8
2
 10
201.6012213421499
 20
73.741768590876461
 30
0.0
 11
201.05972134214991
 21
73.200268590876476
 31
0.0
  0
LINE
  5
A92
  8
2
 10
207.05972134214991
 20
73.200268590876476
 30
0.0
 11
206.5182213421499
 21
73.741768590876461
 31
0.0
  0
LINE
  5
A93
  8
2
 10
201.6012213421499
 20
92.400268590876465
 30
0.0
 11
201.6012213421499
 21
73.741768590876461
 31
0.0
  0
LINE
  5
A94
  8
2
 10
206.5182213421499
 20
73.741768590876461
 30
0.0
 11
206.5182213421499
 21
92.400268590876465
 31
0.0
  0
LINE
  5
A95
  8
2
 10
204.05972134214991
 20
93.819684227679176
 30
0.0
 11
201.6012213421499
 21
92.400268590876465
 31
0.0
  0
LINE
  5
A96
  8
2
 10
206.5182213421499
 20
92.400268590876465
 30
0.0
 11
204.05972134214991
 21
93.819684227679176
 31
0.0
  0
LINE
  5
A97
  8
0
 10
194.05972134214969
 20
115.20026859087631
 30
0.0
 11
194.05972134214969
 21
74.200268590876476
 31
0.0
  0
LINE
  5
A98
  8
0
 10
214.05972134215
 20
74.200268590876476
 30
0.0
 11
214.05972134215
 21
115.20026859087631
 31
0.0
  0
LINE
  5
A99
  8
0
 10
214.05972134215
 20
115.20026859087631
 30
0.0
 11
208.05972134214991
 21
115.20026859087631
 31
0.0
  0
LINE
  5
A9A
  8
0
 10
200.05972134214991
 20
115.20026859087631
 30
0.0
 11
194.05972134214969
 21
115.20026859087631
 31
0.0
  0
LINE
  5
A9B
  8
0
 10
207.8597213421499
 20
115.20026859087631
 30
0.0
 11
200.2597213421499
 21
115.20026859087631
 31
0.0
  0
LINE
  5
A9C
  8
0
 10
198.0597213421498
 20
73.400268590876465
 30
0.0
 11
198.0597213421498
 21
73.200268590876476
 31
0.0
  0
LINE
  5
A9D
  8
0
 10
210.05972134214991
 20
73.200268590876476
 30
0.0
 11
210.05972134214991
 21
73.400268590876465
 31
0.0
  0
LINE
  5
A9E
  8
2
 10
200.05972134214991
 20
115.2002685908765
 30
0.0
 11
200.05972134214991
 21
114.70026859087641
 31
0.0
  0
LINE
  5
A9F
  8
2
 10
208.05972134214991
 20
114.70026859087641
 30
0.0
 11
208.05972134214991
 21
115.2002685908765
 31
0.0
  0
LINE
  5
AA0
  8
1
 10
68.727124402948604
 20
166.2275090535845
 30
0.0
 11
163.35624244115181
 21
166.2275090535845
 31
0.0
  0
POLYLINE
  5
AA1
  8
0
 66
     1
 10
0.0
 20
0.0
 30
0.0
  0
VERTEX
  5
1008
  8
0
 10
153.10649764342239
 20
173.9858244273222
 30
0.0
  0
VERTEX
  5
1009
  8
0
 10
153.08361176626329
 20
173.99432468142069
 30
0.0
  0
VERTEX
  5
100A
  8
0
 10
153.03767651461851
 20
174.0108411840902
 30
0.0
  0
VERTEX
  5
100B
  8
0
 10
152.99153618845071
 20
174.02670844520819
 30
0.0
  0
VERTEX
  5
100C
  8
0
 10
152.96839403612191
 20
174.03439724964579
 30
0.0
  0
VERTEX
  5
100D
  8
0
 10
152.94520654508781
 20
174.0419221674039
 30
0.0
  0
VERTEX
  5
100E
  8
0
 10
152.8987036000936
 20
174.0564785098351
 30
0.0
  0
VERTEX
  5
100F
  8
0
 10
152.85204359491561
 20
174.07037410618989
 30
0.0
  0
VERTEX
  5
1010
  8
0
 10
152.805242963967
 20
174.08360608044839
 30
0.0
  0
VERTEX
  5
1011
  8
0
 10
152.7583183011225
 20
174.096172060437
 30
0.0
  0
VERTEX
  5
1012
  8
0
 10
152.71128632560061
 20
174.10807018919809
 30
0.0
  0
VERTEX
  5
1013
  8
0
 10
152.68773534607359
 20
174.1137683722566
 30
0.0
  0
VERTEX
  5
1014
  8
0
 10
152.66416384719881
 20
174.11929913418919
 30
0.0
  0
VERTEX
  5
1015
  8
0
 10
152.61696773084091
 20
174.12985809431959
 30
0.0
  0
VERTEX
  5
1016
  8
0
 10
152.56971486039151
 20
174.13974680482181
 30
0.0
  0
VERTEX
  5
1017
  8
0
 10
152.52242193060491
 20
174.14896557207379
 30
0.0
  0
VERTEX
  5
1018
  8
0
 10
152.47510516059529
 20
174.15751530514001
 30
0.0
  0
VERTEX
  5
1019
  8
0
 10
152.42778171568921
 20
174.16539725165131
 30
0.0
  0
VERTEX
  5
101A
  8
0
 10
152.4041229230364
 20
174.16908833205181
 30
0.0
  0
VERTEX
  5
101B
  8
0
 10
152.3804689949076
 20
174.1726131650893
 30
0.0
  0
VERTEX
  5
101C
  8
0
 10
152.33318449676361
 20
174.17916533590261
 30
0.0
  0
VERTEX
  5
101D
  8
0
 10
152.2859457831668
 20
174.18505660035291
 30
0.0
  0
VERTEX
  5
101E
  8
0
 10
152.26234909203751
 20
174.1877554299152
 30
0.0
  0
SEQEND
  5
101F
  8
0
  0
POLYLINE
  5
AA2
  8
0
 66
     1
 10
0.0
 20
0.0
 30
0.0
  0
VERTEX
  5
1020
  8
0
 10
155.3764362937292
 20
170.70909601685071
 30
0.0
  0
VERTEX
  5
1021
  8
0
 10
155.37496099473711
 20
170.81070761283169
 30
0.0
  0
VERTEX
  5
1022
  8
0
 10
155.36279830455209
 20
171.0177704885694
 30
0.0
  0
VERTEX
  5
1023
  8
0
 10
155.3376704012384
 20
171.22857503761591
 30
0.0
  0
VERTEX
  5
1024
  8
0
 10
155.32004010986341
 20
171.3348697439323
 30
0.0
  0
VERTEX
  5
1025
  8
0
 10
155.29894929935671
 20
171.44149258040801
 30
0.0
  0
VERTEX
  5
1026
  8
0
 10
155.24621349503789
 20
171.65492983604949
 30
0.0
  0
VERTEX
  5
1027
  8
0
 10
155.17924269440809
 20
171.86731442442101
 30
0.0
  0
VERTEX
  5
1028
  8
0
 10
155.09799311084441
 20
172.0771499902371
 30
0.0
  0
VERTEX
  5
1029
  8
0
 10
155.0025862311843
 20
172.28300407278959
 30
0.0
  0
VERTEX
  5
102A
  8
0
 10
154.8933480341305
 20
172.4834250592294
 30
0.0
  0
VERTEX
  5
102B
  8
0
 10
154.83369329904161
 20
172.58116198912049
 30
0.0
  0
VERTEX
  5
102C
  8
0
 10
154.77078439827821
 20
172.6770261603501
 30
0.0
  0
VERTEX
  5
102D
  8
0
 10
154.63558961143809
 20
172.8624824125948
 30
0.0
  0
VERTEX
  5
102E
  8
0
 10
154.55124176796511
 20
172.96639876017019
 30
0.0
  0
VERTEX
  5
102F
  8
0
 10
154.5264370391518
 20
172.99546782590971
 30
0.0
  0
VERTEX
  5
1030
  8
0
 10
154.50122491841199
 20
173.0243680690588
 30
0.0
  0
VERTEX
  5
1031
  8
0
 10
154.48839880860169
 20
173.03882815186131
 30
0.0
  0
VERTEX
  5
1032
  8
0
 10
154.47542518420661
 20
173.0532924137371
 30
0.0
  0
VERTEX
  5
1033
  8
0
 10
154.44903671529821
 20
173.08222202929571
 30
0.0
  0
VERTEX
  5
1034
  8
0
 10
154.42206249832179
 20
173.11113415694999
 30
0.0
  0
VERTEX
  5
1035
  8
0
 10
154.39450606042141
 20
173.1400062681908
 30
0.0
  0
VERTEX
  5
1036
  8
0
 10
154.36637146350179
 20
173.1688160924547
 30
0.0
  0
VERTEX
  5
1037
  8
0
 10
154.3376632952386
 20
173.19754164555971
 30
0.0
  0
VERTEX
  5
1038
  8
0
 10
154.32309569624471
 20
173.21186603586611
 30
0.0
  0
VERTEX
  5
1039
  8
0
 10
154.30838665646741
 20
173.2261612589883
 30
0.0
  0
VERTEX
  5
103A
  8
0
 10
154.27854714453949
 20
173.25465361007451
 30
0.0
  0
VERTEX
  5
103B
  8
0
 10
154.24815083220571
 20
173.28299775312169
 30
0.0
  0
VERTEX
  5
103C
  8
0
 10
154.21720424156129
 20
173.31117315144951
 30
0.0
  0
VERTEX
  5
103D
  8
0
 10
154.1857143124746
 20
173.3391597104025
 30
0.0
  0
VERTEX
  5
103E
  8
0
 10
154.15368839819601
 20
173.36693778277689
 30
0.0
  0
VERTEX
  5
103F
  8
0
 10
154.13747689560881
 20
173.38074258716119
 30
0.0
  0
VERTEX
  5
1040
  8
0
 10
154.12113441673699
 20
173.3944880434579
 30
0.0
  0
VERTEX
  5
1041
  8
0
 10
154.08806093340209
 20
173.4217914389709
 30
0.0
  0
VERTEX
  5
1042
  8
0
 10
154.05447714793971
 20
173.4488292223636
 30
0.0
  0
VERTEX
  5
1043
  8
0
 10
154.0203928745112
 20
173.4755829912863
 30
0.0
  0
VERTEX
  5
1044
  8
0
 10
153.98581851720149
 20
173.5020347264001
 30
0.0
  0
VERTEX
  5
1045
  8
0
 10
153.9507650405244
 20
173.52816683011869
 30
0.0
  0
VERTEX
  5
1046
  8
0
 10
153.93306220356919
 20
173.5411076458831
 30
0.0
  0
VERTEX
  5
1047
  8
0
 10
153.91524393435279
 20
173.55396216564131
 30
0.0
  0
VERTEX
  5
1048
  8
0
 10
153.87926717268539
 20
173.57940409618629
 30
0.0
  0
VERTEX
  5
1049
  8
0
 10
153.842847165649
 20
173.60447652427899
 30
0.0
  0
VERTEX
  5
104A
  8
0
 10
153.82447492907221
 20
173.61686930155
 30
0.0
  0
VERTEX
  5
104B
  8
0
 10
153.8059967041369
 20
173.6291639308875
 30
0.0
  0
VERTEX
  5
104C
  8
0
 10
153.76872494332611
 20
173.65345395477311
 30
0.0
  0
VERTEX
  5
104D
  8
0
 10
153.7310405388007
 20
173.67733507295159
 30
0.0
  0
VERTEX
  5
104E
  8
0
 10
153.71204805475421
 20
173.68911773871571
 30
0.0
  0
VERTEX
  5
104F
  8
0
 10
153.69295785736611
 20
173.70079276098139
 30
0.0
  0
VERTEX
  5
1050
  8
0
 10
153.6544920131299
 20
173.72381289554869
 30
0.0
  0
VERTEX
  5
1051
  8
0
 10
153.6156588100732
 20
173.74638181812821
 30
0.0
  0
VERTEX
  5
1052
  8
0
 10
153.57647469368899
 20
173.7684863872779
 30
0.0
  0
VERTEX
  5
1053
  8
0
 10
153.5369566953857
 20
173.79011402972941
 30
0.0
  0
VERTEX
  5
1054
  8
0
 10
153.4971223690608
 20
173.81125279000489
 30
0.0
  0
VERTEX
  5
1055
  8
0
 10
153.47709219385661
 20
173.8216352839745
 30
0.0
  0
VERTEX
  5
1056
  8
0
 10
153.45698971927621
 20
173.83189137822029
 30
0.0
  0
VERTEX
  5
1057
  8
0
 10
153.41657712050829
 20
173.8520192156719
 30
0.0
  0
VERTEX
  5
1058
  8
0
 10
153.3759032270066
 20
173.87162647773289
 30
0.0
  0
VERTEX
  5
1059
  8
0
 10
153.33498676671951
 20
173.8907041821879
 30
0.0
  0
VERTEX
  5
105A
  8
0
 10
153.293846372947
 20
173.9092442426884
 30
0.0
  0
VERTEX
  5
105B
  8
0
 10
153.2525021758284
 20
173.92723875577991
 30
0.0
  0
VERTEX
  5
105C
  8
0
 10
153.23176014678069
 20
173.93602912017801
 30
0.0
  0
VERTEX
  5
105D
  8
0
 10
153.21097502575739
 20
173.94468041116289
 30
0.0
  0
VERTEX
  5
105E
  8
0
 10
153.16928625570009
 20
173.96156261557721
 30
0.0
  0
VERTEX
  5
105F
  8
0
 10
153.12745758102039
 20
173.97787954268179
 30
0.0
  0
VERTEX
  5
1060
  8
0
 10
153.10649764342239
 20
173.9858244273222
 30
0.0
  0
SEQEND
  5
1061
  8
0
  0
POLYLINE
  5
AA3
  8
0
 66
     1
 10
0.0
 20
0.0
 30
0.0
  0
VERTEX
  5
1062
  8
0
 10
78.490523495420902
 20
158.2672626772538
 30
0.0
  0
VERTEX
  5
1063
  8
0
 10
80.464511122431105
 20
158.05420194831041
 30
0.0
  0
VERTEX
  5
1064
  8
0
 10
84.450367546468172
 20
157.66006276766981
 30
0.0
  0
VERTEX
  5
1065
  8
0
 10
88.481733323668308
 20
157.310357212187
 30
0.0
  0
VERTEX
  5
1066
  8
0
 10
90.512597344718117
 20
157.15277800023549
 30
0.0
  0
VERTEX
  5
1067
  8
0
 10
92.552577736761634
 20
157.00700706560991
 30
0.0
  0
VERTEX
  5
1068
  8
0
 10
96.656887090744874
 20
156.7516664819014
 30
0.0
  0
VERTEX
  5
1069
  8
0
 10
100.7885733426486
 20
156.54572398915349
 30
0.0
  0
VERTEX
  5
106A
  8
0
 10
104.9415062570272
 20
156.3902944221781
 30
0.0
  0
VERTEX
  5
106B
  8
0
 10
109.1095444170946
 20
156.28621378660409
 30
0.0
  0
VERTEX
  5
106C
  8
0
 10
113.2865235688588
 20
156.23403721891091
 30
0.0
  0
VERTEX
  5
106D
  8
0
 10
115.3764362937291
 20
156.2275090535843
 30
0.0
  0
VERTEX
  5
106E
  8
0
 10
117.4663490185994
 20
156.23403721891091
 30
0.0
  0
VERTEX
  5
106F
  8
0
 10
121.6433281703636
 20
156.28621378660409
 30
0.0
  0
VERTEX
  5
1070
  8
0
 10
125.8113663304311
 20
156.39029442217799
 30
0.0
  0
VERTEX
  5
1071
  8
0
 10
129.96429924480969
 20
156.5457239891534
 30
0.0
  0
VERTEX
  5
1072
  8
0
 10
134.09598549671341
 20
156.75166648190131
 30
0.0
  0
VERTEX
  5
1073
  8
0
 10
138.20029485069671
 20
157.0070070656098
 30
0.0
  0
VERTEX
  5
1074
  8
0
 10
140.24027524274021
 20
157.15277800023529
 30
0.0
  0
VERTEX
  5
1075
  8
0
 10
142.27113926378999
 20
157.31035721218689
 30
0.0
  0
VERTEX
  5
1076
  8
0
 10
146.30250504099021
 20
157.66006276766959
 30
0.0
  0
VERTEX
  5
1077
  8
0
 10
150.28836146502729
 20
158.05420194831009
 30
0.0
  0
VERTEX
  5
1078
  8
0
 10
152.2623490920376
 20
158.26726267725351
 30
0.0
  0
SEQEND
  5
1079
  8
0
  0
POLYLINE
  5
AA4
  8
0
 66
     1
 10
0.0
 20
0.0
 30
0.0
  0
VERTEX
  5
107A
  8
0
 10
78.490523495420902
 20
174.1877554299152
 30
0.0
  0
VERTEX
  5
107B
  8
0
 10
78.466927056390915
 20
174.1850566300532
 30
0.0
  0
VERTEX
  5
107C
  8
0
 10
78.419688673809844
 20
174.1791654126551
 30
0.0
  0
VERTEX
  5
107D
  8
0
 10
78.372404295593569
 20
174.17261326740049
 30
0.0
  0
VERTEX
  5
107E
  8
0
 10
78.348750355637208
 20
174.16908843746961
 30
0.0
  0
VERTEX
  5
107F
  8
0
 10
78.325091507182194
 20
174.1653973530116
 30
0.0
  0
VERTEX
  5
1080
  8
0
 10
78.277767830256224
 20
174.1575153751717
 30
0.0
  0
VERTEX
  5
1081
  8
0
 10
78.230450686561142
 20
174.14896557765269
 30
0.0
  0
VERTEX
  5
1082
  8
0
 10
78.183157256559014
 20
174.1397467097398
 30
0.0
  0
VERTEX
  5
1083
  8
0
 10
78.135903780218769
 20
174.12985786129909
 30
0.0
  0
VERTEX
  5
1084
  8
0
 10
78.088706985170603
 20
174.11929872877829
 30
0.0
  0
VERTEX
  5
1085
  8
0
 10
78.065135126845632
 20
174.11376786838261
 30
0.0
  0
VERTEX
  5
1086
  8
0
 10
78.041583778271161
 20
174.108069579183
 30
0.0
  0
VERTEX
  5
1087
  8
0
 10
77.994551047162318
 20
174.09617121706219
 30
0.0
  0
VERTEX
  5
1088
  8
0
 10
77.947625624005667
 20
174.08360497961971
 30
0.0
  0
VERTEX
  5
1089
  8
0
 10
77.900824249951441
 20
174.07037272965431
 30
0.0
  0
VERTEX
  5
108A
  8
0
 10
77.854163540296085
 20
174.0564768463334
 30
0.0
  0
VERTEX
  5
108B
  8
0
 10
77.807659950287714
 20
174.04192021378941
 30
0.0
  0
VERTEX
  5
108C
  8
0
 10
77.784472165376854
 20
174.03439515262659
 30
0.0
  0
VERTEX
  5
108D
  8
0
 10
77.761329741545381
 20
174.0267062075267
 30
0.0
  0
VERTEX
  5
108E
  8
0
 10
77.715188949064185
 20
174.01083867861411
 30
0.0
  0
VERTEX
  5
108F
  8
0
 10
77.66925334878627
 20
173.994321935633
 30
0.0
  0
VERTEX
  5
1090
  8
0
 10
77.646367347014973
 20
173.9858215754426
 30
0.0
  0
SEQEND
  5
1091
  8
0
  0
POLYLINE
  5
AA5
  8
0
 66
     1
 10
0.0
 20
0.0
 30
0.0
  0
VERTEX
  5
1092
  8
0
 10
77.646367347014944
 20
173.9858215754426
 30
0.0
  0
VERTEX
  5
1093
  8
0
 10
77.625407454722918
 20
173.9778766524968
 30
0.0
  0
VERTEX
  5
1094
  8
0
 10
77.583578873354895
 20
173.9615596508647
 30
0.0
  0
VERTEX
  5
1095
  8
0
 10
77.541890200060692
 20
173.94467737479471
 30
0.0
  0
VERTEX
  5
1096
  8
0
 10
77.521105128655137
 20
173.93602604909179
 30
0.0
  0
VERTEX
  5
1097
  8
0
 10
77.500363150017321
 20
173.9272356507316
 30
0.0
  0
VERTEX
  5
1098
  8
0
 10
77.459019055996507
 20
173.90924107202841
 30
0.0
  0
VERTEX
  5
1099
  8
0
 10
77.417878768192026
 20
173.8907009490664
 30
0.0
  0
VERTEX
  5
109A
  8
0
 10
77.37696241643863
 20
173.8716231853227
 30
0.0
  0
VERTEX
  5
109B
  8
0
 10
77.336288633802752
 20
173.85201586718469
 30
0.0
  0
VERTEX
  5
109C
  8
0
 10
77.295876148186181
 20
173.83188797699171
 30
0.0
  0
VERTEX
  5
109D
  8
0
 10
77.275773730997685
 20
173.8216318576516
 30
0.0
  0
VERTEX
  5
109E
  8
0
 10
77.255743613705931
 20
173.81124933945091
 30
0.0
  0
VERTEX
  5
109F
  8
0
 10
77.215909404691701
 20
173.79011053333451
 30
0.0
  0
VERTEX
  5
10A0
  8
0
 10
77.176391525547217
 20
173.76848284858301
 30
0.0
  0
VERTEX
  5
10A1
  8
0
 10
77.137207530002314
 20
173.7463782407188
 30
0.0
  0
VERTEX
  5
10A2
  8
0
 10
77.098374449290233
 20
173.7238092830421
 30
0.0
  0
VERTEX
  5
10A3
  8
0
 10
77.059908728723457
 20
173.7007891170156
 30
0.0
  0
VERTEX
  5
10A4
  8
0
 10
77.040818593609288
 20
173.6891140803877
 30
0.0
  0
VERTEX
  5
10A5
  8
0
 10
77.021826172098372
 20
173.67733140117329
 30
0.0
  0
VERTEX
  5
10A6
  8
0
 10
76.98414189333559
 20
173.65345025882621
 30
0.0
  0
VERTEX
  5
10A7
  8
0
 10
76.946870258971771
 20
173.6291602143489
 30
0.0
  0
VERTEX
  5
10A8
  8
0
 10
76.928392096853784
 20
173.61686557563971
 30
0.0
  0
VERTEX
  5
10A9
  8
0
 10
76.910019923233776
 20
173.60447278988869
 30
0.0
  0
VERTEX
  5
10AA
  8
0
 10
76.873600042473072
 20
173.5794003475192
 30
0.0
  0
VERTEX
  5
10AB
  8
0
 10
76.837623407466381
 20
173.55395840628341
 30
0.0
  0
VERTEX
  5
10AC
  8
0
 10
76.819805201686535
 20
173.54110388252539
 30
0.0
  0
VERTEX
  5
10AD
  8
0
 10
76.802102428217694
 20
173.5281630636575
 30
0.0
  0
VERTEX
  5
10AE
  8
0
 10
76.767049078598035
 20
173.50203095641541
 30
0.0
  0
VERTEX
  5
10AF
  8
0
 10
76.732474848349639
 20
173.47557922134081
 30
0.0
  0
VERTEX
  5
10B0
  8
0
 10
76.69839070185364
 20
173.44882545599461
 30
0.0
  0
VERTEX
  5
10B1
  8
0
 10
76.664807043061515
 20
173.42178767968139
 30
0.0
  0
VERTEX
  5
10B2
  8
0
 10
76.631733686001425
 20
173.39448429470929
 30
0.0
  0
VERTEX
  5
10B3
  8
0
 10
76.615391270077211
 20
173.3807388449658
 30
0.0
  0
VERTEX
  5
10B4
  8
0
 10
76.599179830289359
 20
173.36693404798081
 30
0.0
  0
VERTEX
  5
10B5
  8
0
 10
76.56715404109957
 20
173.33915599291399
 30
0.0
  0
VERTEX
  5
10B6
  8
0
 10
76.535664236317857
 20
173.31116945456199
 30
0.0
  0
VERTEX
  5
10B7
  8
0
 10
76.504717769095876
 20
173.282994080083
 30
0.0
  0
VERTEX
  5
10B8
  8
0
 10
76.474321579214603
 20
173.25464996409141
 30
0.0
  0
VERTEX
  5
10B9
  8
0
 10
76.444482188680411
 20
173.2261576432191
 30
0.0
  0
VERTEX
  5
10BA
  8
0
 10
76.429773209174982
 20
173.21186243637129
 30
0.0
  0
VERTEX
  5
10BB
  8
0
 10
76.415205670154535
 20
173.1975380631074
 30
0.0
  0
VERTEX
  5
10BC
  8
0
 10
76.386497620898965
 20
173.16881254636061
 30
0.0
  0
VERTEX
  5
10BD
  8
0
 10
76.358363141660845
 20
173.14000276142821
 30
0.0
  0
VERTEX
  5
10BE
  8
0
 10
76.264470793691544
 20
173.03882480506039
 30
0.0
  0
VERTEX
  5
10BF
  8
0
 10
76.117280489389117
 20
172.86247922644819
 30
0.0
  0
VERTEX
  5
10C0
  8
0
 10
75.982086133968807
 20
172.67702313762899
 30
0.0
  0
VERTEX
  5
10C1
  8
0
 10
75.919177438258188
 20
172.58115906646691
 30
0.0
  0
VERTEX
  5
10C2
  8
0
 10
75.859522899924968
 20
172.48342224792671
 30
0.0
  0
VERTEX
  5
10C3
  8
0
 10
75.75028506852513
 20
172.283001515016
 30
0.0
  0
VERTEX
  5
10C4
  8
0
 10
75.654878513438859
 20
172.07714772210551
 30
0.0
  0
VERTEX
  5
10C5
  8
0
 10
75.573629209513683
 20
171.86731247522781
 30
0.0
  0
VERTEX
  5
10C6
  8
0
 10
75.506658640922794
 20
171.6549282274708
 30
0.0
  0
VERTEX
  5
10C7
  8
0
 10
75.453923020030203
 20
171.44149132770011
 30
0.0
  0
VERTEX
  5
10C8
  8
0
 10
75.432832282891226
 20
171.3348686724857
 30
0.0
  0
VERTEX
  5
10C9
  8
0
 10
75.415202052751397
 20
171.22857414832751
 30
0.0
  0
VERTEX
  5
10CA
  8
0
 10
75.390074236315414
 20
171.01776996234241
 30
0.0
  0
VERTEX
  5
10CB
  8
0
 10
75.37791158773797
 20
170.81070744125211
 30
0.0
  0
VERTEX
  5
10CC
  8
0
 10
75.376436293729213
 20
170.70909601685071
 30
0.0
  0
SEQEND
  5
10CD
  8
0
  0
POLYLINE
  5
AA6
  8
0
 66
     1
 10
0.0
 20
0.0
 30
0.0
  0
VERTEX
  5
10CE
  8
0
 10
152.26234909203751
 20
174.1877554299152
 30
0.0
  0
VERTEX
  5
10CF
  8
0
 10
150.28836146502729
 20
174.40081615885859
 30
0.0
  0
VERTEX
  5
10D0
  8
0
 10
146.30250504099021
 20
174.7949553394991
 30
0.0
  0
VERTEX
  5
10D1
  8
0
 10
142.27113926378999
 20
175.14466089498191
 30
0.0
  0
VERTEX
  5
10D2
  8
0
 10
140.24027524274021
 20
175.30224010693351
 30
0.0
  0
VERTEX
  5
10D3
  8
0
 10
138.20029485069671
 20
175.448011041559
 30
0.0
  0
VERTEX
  5
10D4
  8
0
 10
134.09598549671341
 20
175.7033516252676
 30
0.0
  0
VERTEX
  5
10D5
  8
0
 10
129.96429924480969
 20
175.90929411801551
 30
0.0
  0
VERTEX
  5
10D6
  8
0
 10
125.8113663304311
 20
176.06472368499089
 30
0.0
  0
VERTEX
  5
10D7
  8
0
 10
121.6433281703636
 20
176.16880432056479
 30
0.0
  0
VERTEX
  5
10D8
  8
0
 10
117.4663490185994
 20
176.220980888258
 30
0.0
  0
VERTEX
  5
10D9
  8
0
 10
115.3764362937291
 20
176.22750905358461
 30
0.0
  0
VERTEX
  5
10DA
  8
0
 10
113.2865235688588
 20
176.220980888258
 30
0.0
  0
VERTEX
  5
10DB
  8
0
 10
109.1095444170946
 20
176.1688043205649
 30
0.0
  0
VERTEX
  5
10DC
  8
0
 10
104.9415062570271
 20
176.06472368499089
 30
0.0
  0
VERTEX
  5
10DD
  8
0
 10
100.7885733426486
 20
175.90929411801559
 30
0.0
  0
VERTEX
  5
10DE
  8
0
 10
96.656887090744874
 20
175.70335162526769
 30
0.0
  0
VERTEX
  5
10DF
  8
0
 10
92.552577736761606
 20
175.4480110415592
 30
0.0
  0
VERTEX
  5
10E0
  8
0
 10
90.512597344718074
 20
175.3022401069336
 30
0.0
  0
VERTEX
  5
10E1
  8
0
 10
88.481733323668294
 20
175.14466089498211
 30
0.0
  0
VERTEX
  5
10E2
  8
0
 10
84.450367546468158
 20
174.7949553394993
 30
0.0
  0
VERTEX
  5
10E3
  8
0
 10
80.464511122431105
 20
174.40081615885879
 30
0.0
  0
VERTEX
  5
10E4
  8
0
 10
78.490523495420874
 20
174.1877554299154
 30
0.0
  0
SEQEND
  5
10E5
  8
0
  0
POLYLINE
  5
AA7
  8
0
 66
     1
 10
0.0
 20
0.0
 30
0.0
  0
VERTEX
  5
10E6
  8
0
 10
153.10649764342239
 20
158.4691936798468
 30
0.0
  0
VERTEX
  5
10E7
  8
0
 10
153.12745758102039
 20
158.47713856448721
 30
0.0
  0
VERTEX
  5
10E8
  8
0
 10
153.16928625570009
 20
158.4934554915917
 30
0.0
  0
VERTEX
  5
10E9
  8
0
 10
153.21097502575739
 20
158.5103376960061
 30
0.0
  0
VERTEX
  5
10EA
  8
0
 10
153.23176014678069
 20
158.51898898699091
 30
0.0
  0
VERTEX
  5
10EB
  8
0
 10
153.2525021758284
 20
158.52777935138911
 30
0.0
  0
VERTEX
  5
10EC
  8
0
 10
153.293846372947
 20
158.54577386448059
 30
0.0
  0
VERTEX
  5
10ED
  8
0
 10
153.33498676671951
 20
158.56431392498109
 30
0.0
  0
VERTEX
  5
10EE
  8
0
 10
153.3759032270066
 20
158.58339162943611
 30
0.0
  0
VERTEX
  5
10EF
  8
0
 10
153.41657712050829
 20
158.60299889149709
 30
0.0
  0
VERTEX
  5
10F0
  8
0
 10
153.45698971927621
 20
158.62312672894871
 30
0.0
  0
VERTEX
  5
10F1
  8
0
 10
153.47709219385661
 20
158.63338282319449
 30
0.0
  0
VERTEX
  5
10F2
  8
0
 10
153.4971223690608
 20
158.64376531716411
 30
0.0
  0
VERTEX
  5
10F3
  8
0
 10
153.5369566953857
 20
158.66490407743959
 30
0.0
  0
VERTEX
  5
10F4
  8
0
 10
153.57647469368899
 20
158.68653171989109
 30
0.0
  0
VERTEX
  5
10F5
  8
0
 10
153.6156588100732
 20
158.70863628904081
 30
0.0
  0
VERTEX
  5
10F6
  8
0
 10
153.6544920131299
 20
158.73120521162031
 30
0.0
  0
VERTEX
  5
10F7
  8
0
 10
153.69295785736611
 20
158.75422534618761
 30
0.0
  0
VERTEX
  5
10F8
  8
0
 10
153.71204805475421
 20
158.7659003684534
 30
0.0
  0
VERTEX
  5
10F9
  8
0
 10
153.7310405388007
 20
158.7776830342174
 30
0.0
  0
VERTEX
  5
10FA
  8
0
 10
153.76872494332611
 20
158.80156415239591
 30
0.0
  0
VERTEX
  5
10FB
  8
0
 10
153.8059967041369
 20
158.8258541762815
 30
0.0
  0
VERTEX
  5
10FC
  8
0
 10
153.82447492907221
 20
158.838148805619
 30
0.0
  0
VERTEX
  5
10FD
  8
0
 10
153.842847165649
 20
158.85054158289
 30
0.0
  0
VERTEX
  5
10FE
  8
0
 10
153.87926717268539
 20
158.87561401098259
 30
0.0
  0
VERTEX
  5
10FF
  8
0
 10
153.91524393435279
 20
158.90105594152769
 30
0.0
  0
VERTEX
  5
1100
  8
0
 10
153.93306220356919
 20
158.91391046128589
 30
0.0
  0
VERTEX
  5
1101
  8
0
 10
153.9507650405244
 20
158.9268512770503
 30
0.0
  0
VERTEX
  5
1102
  8
0
 10
153.98581851720149
 20
158.9529833807689
 30
0.0
  0
VERTEX
  5
1103
  8
0
 10
154.0203928745112
 20
158.97943511588269
 30
0.0
  0
VERTEX
  5
1104
  8
0
 10
154.05447714793971
 20
159.0061888848054
 30
0.0
  0
VERTEX
  5
1105
  8
0
 10
154.08806093340209
 20
159.0332266681981
 30
0.0
  0
VERTEX
  5
1106
  8
0
 10
154.12113441673699
 20
159.0605300637111
 30
0.0
  0
VERTEX
  5
1107
  8
0
 10
154.1374768956089
 20
159.0742755200078
 30
0.0
  0
VERTEX
  5
1108
  8
0
 10
154.15368839819601
 20
159.08808032439211
 30
0.0
  0
VERTEX
  5
1109
  8
0
 10
154.1857143124746
 20
159.1158583967665
 30
0.0
  0
VERTEX
  5
110A
  8
0
 10
154.21720424156129
 20
159.14384495571949
 30
0.0
  0
VERTEX
  5
110B
  8
0
 10
154.24815083220571
 20
159.17202035404719
 30
0.0
  0
VERTEX
  5
110C
  8
0
 10
154.27854714453949
 20
159.20036449709451
 30
0.0
  0
VERTEX
  5
110D
  8
0
 10
154.30838665646741
 20
159.2288568481807
 30
0.0
  0
VERTEX
  5
110E
  8
0
 10
154.32309569624471
 20
159.24315207130289
 30
0.0
  0
VERTEX
  5
110F
  8
0
 10
154.3376632952386
 20
159.25747646160929
 30
0.0
  0
VERTEX
  5
1110
  8
0
 10
154.36637146350179
 20
159.28620201471429
 30
0.0
  0
VERTEX
  5
1111
  8
0
 10
154.39450606042141
 20
159.31501183897819
 30
0.0
  0
VERTEX
  5
1112
  8
0
 10
154.48839880860169
 20
159.41618995530769
 30
0.0
  0
VERTEX
  5
1113
  8
0
 10
154.63558961143809
 20
159.5925356945742
 30
0.0
  0
VERTEX
  5
1114
  8
0
 10
154.77078439827821
 20
159.7779919468189
 30
0.0
  0
VERTEX
  5
1115
  8
0
 10
154.83369329904161
 20
159.87385611804851
 30
0.0
  0
VERTEX
  5
1116
  8
0
 10
154.8933480341305
 20
159.97159304793959
 30
0.0
  0
VERTEX
  5
1117
  8
0
 10
155.0025862311843
 20
160.1720140343794
 30
0.0
  0
VERTEX
  5
1118
  8
0
 10
155.09799311084441
 20
160.37786811693201
 30
0.0
  0
VERTEX
  5
1119
  8
0
 10
155.17924269440809
 20
160.5877036827481
 30
0.0
  0
VERTEX
  5
111A
  8
0
 10
155.24621349503789
 20
160.80008827111951
 30
0.0
  0
VERTEX
  5
111B
  8
0
 10
155.29894929935671
 20
161.01352552676099
 30
0.0
  0
VERTEX
  5
111C
  8
0
 10
155.32004010986341
 20
161.12014836323669
 30
0.0
  0
VERTEX
  5
111D
  8
0
 10
155.3376704012384
 20
161.2264430695532
 30
0.0
  0
VERTEX
  5
111E
  8
0
 10
155.36279830455209
 20
161.4372476185996
 30
0.0
  0
VERTEX
  5
111F
  8
0
 10
155.37496099473711
 20
161.64431049433719
 30
0.0
  0
VERTEX
  5
1120
  8
0
 10
155.3764362937292
 20
161.7459220903184
 30
0.0
  0
SEQEND
  5
1121
  8
0
  0
POLYLINE
  5
AA8
  8
0
 66
     1
 10
0.0
 20
0.0
 30
0.0
  0
VERTEX
  5
1122
  8
0
 10
152.26234909203751
 20
158.2672626772538
 30
0.0
  0
VERTEX
  5
1123
  8
0
 10
152.28594578316691
 20
158.26996150681609
 30
0.0
  0
VERTEX
  5
1124
  8
0
 10
152.33318449676381
 20
158.27585277126639
 30
0.0
  0
VERTEX
  5
1125
  8
0
 10
152.38046899490789
 20
158.28240494207969
 30
0.0
  0
VERTEX
  5
1126
  8
0
 10
152.40412292303671
 20
158.28592977511721
 30
0.0
  0
VERTEX
  5
1127
  8
0
 10
152.42778171568969
 20
158.2896208555178
 30
0.0
  0
VERTEX
  5
1128
  8
0
 10
152.47510516059589
 20
158.2975028020291
 30
0.0
  0
VERTEX
  5
1129
  8
0
 10
152.5224219306055
 20
158.30605253509529
 30
0.0
  0
VERTEX
  5
112A
  8
0
 10
152.56971486039231
 20
158.3152713023473
 30
0.0
  0
VERTEX
  5
112B
  8
0
 10
152.61696773084171
 20
158.32516001284949
 30
0.0
  0
VERTEX
  5
112C
  8
0
 10
152.6641638471996
 20
158.33571897298
 30
0.0
  0
VERTEX
  5
112D
  8
0
 10
152.68773534607439
 20
158.34124973491259
 30
0.0
  0
VERTEX
  5
112E
  8
0
 10
152.71128632560129
 20
158.34694791797111
 30
0.0
  0
VERTEX
  5
112F
  8
0
 10
152.7583183011231
 20
158.3588460467322
 30
0.0
  0
VERTEX
  5
1130
  8
0
 10
152.80524296396749
 20
158.3714120267208
 30
0.0
  0
VERTEX
  5
1131
  8
0
 10
152.8520435949159
 20
158.38464400097911
 30
0.0
  0
VERTEX
  5
1132
  8
0
 10
152.89870360009371
 20
158.39853959733389
 30
0.0
  0
VERTEX
  5
1133
  8
0
 10
152.94520654508781
 20
158.4130959397651
 30
0.0
  0
VERTEX
  5
1134
  8
0
 10
152.96839403612191
 20
158.42062085752309
 30
0.0
  0
VERTEX
  5
1135
  8
0
 10
152.99153618845071
 20
158.4283096619607
 30
0.0
  0
VERTEX
  5
1136
  8
0
 10
153.0376765146184
 20
158.4441769230788
 30
0.0
  0
VERTEX
  5
1137
  8
0
 10
153.0836117662632
 20
158.4606934257483
 30
0.0
  0
VERTEX
  5
1138
  8
0
 10
153.10649764342239
 20
158.4691936798468
 30
0.0
  0
SEQEND
  5
1139
  8
0
  0
POLYLINE
  5
AA9
  8
0
 66
     1
 10
0.0
 20
0.0
 30
0.0
  0
VERTEX
  5
113A
  8
0
 10
77.646367347014973
 20
158.4691965317264
 30
0.0
  0
VERTEX
  5
113B
  8
0
 10
77.669253348786214
 20
158.460696171536
 30
0.0
  0
VERTEX
  5
113C
  8
0
 10
77.715188949064085
 20
158.44417942855489
 30
0.0
  0
VERTEX
  5
113D
  8
0
 10
77.76132974154531
 20
158.42831189964241
 30
0.0
  0
VERTEX
  5
113E
  8
0
 10
77.784472165376826
 20
158.42062295454241
 30
0.0
  0
VERTEX
  5
113F
  8
0
 10
77.807659950287757
 20
158.41309789337959
 30
0.0
  0
VERTEX
  5
1140
  8
0
 10
77.854163540296241
 20
158.39854126083549
 30
0.0
  0
VERTEX
  5
1141
  8
0
 10
77.900824249951754
 20
158.3846453775146
 30
0.0
  0
VERTEX
  5
1142
  8
0
 10
77.947625624006122
 20
158.3714131275492
 30
0.0
  0
VERTEX
  5
1143
  8
0
 10
77.994551047162929
 20
158.35884689010661
 30
0.0
  0
VERTEX
  5
1144
  8
0
 10
78.0415837782719
 20
158.34694852798589
 30
0.0
  0
VERTEX
  5
1145
  8
0
 10
78.065135126846414
 20
158.34125023878619
 30
0.0
  0
VERTEX
  5
1146
  8
0
 10
78.088706985171427
 20
158.33571937839059
 30
0.0
  0
VERTEX
  5
1147
  8
0
 10
78.135903780219621
 20
158.32516024586971
 30
0.0
  0
VERTEX
  5
1148
  8
0
 10
78.183157256559809
 20
158.315271397429
 30
0.0
  0
VERTEX
  5
1149
  8
0
 10
78.230450686561852
 20
158.30605252951619
 30
0.0
  0
VERTEX
  5
114A
  8
0
 10
78.277767830256821
 20
158.29750273199721
 30
0.0
  0
VERTEX
  5
114B
  8
0
 10
78.325091507182648
 20
158.28962075415731
 30
0.0
  0
VERTEX
  5
114C
  8
0
 10
78.348750355637577
 20
158.28592966969941
 30
0.0
  0
VERTEX
  5
114D
  8
0
 10
78.372404295593881
 20
158.2824048397685
 30
0.0
  0
VERTEX
  5
114E
  8
0
 10
78.419688673810043
 20
158.2758526945139
 30
0.0
  0
VERTEX
  5
114F
  8
0
 10
78.466927056390972
 20
158.2699614771158
 30
0.0
  0
VERTEX
  5
1150
  8
0
 10
78.490523495420902
 20
158.2672626772538
 30
0.0
  0
SEQEND
  5
1151
  8
0
  0
POLYLINE
  5
AAA
  8
0
 66
     1
 10
0.0
 20
0.0
 30
0.0
  0
VERTEX
  5
1152
  8
0
 10
75.376436293729213
 20
161.74592209031829
 30
0.0
  0
VERTEX
  5
1153
  8
0
 10
75.37791158773797
 20
161.644310665917
 30
0.0
  0
VERTEX
  5
1154
  8
0
 10
75.390074236315414
 20
161.43724814482661
 30
0.0
  0
VERTEX
  5
1155
  8
0
 10
75.415202052751397
 20
161.22644395884149
 30
0.0
  0
VERTEX
  5
1156
  8
0
 10
75.432832282891226
 20
161.1201494346833
 30
0.0
  0
VERTEX
  5
1157
  8
0
 10
75.453923020030217
 20
161.013526779469
 30
0.0
  0
VERTEX
  5
1158
  8
0
 10
75.506658640922794
 20
160.80008987969819
 30
0.0
  0
VERTEX
  5
1159
  8
0
 10
75.573629209513683
 20
160.58770563194119
 30
0.0
  0
VERTEX
  5
115A
  8
0
 10
75.654878513438859
 20
160.3778703850634
 30
0.0
  0
VERTEX
  5
115B
  8
0
 10
75.750285068525145
 20
160.172016592153
 30
0.0
  0
VERTEX
  5
115C
  8
0
 10
75.859522899924968
 20
159.9715958592422
 30
0.0
  0
VERTEX
  5
115D
  8
0
 10
75.919177438258188
 20
159.87385904070209
 30
0.0
  0
VERTEX
  5
115E
  8
0
 10
75.982086133968807
 20
159.77799496953989
 30
0.0
  0
VERTEX
  5
115F
  8
0
 10
76.117280489389117
 20
159.59253888072081
 30
0.0
  0
VERTEX
  5
1160
  8
0
 10
76.201628070604386
 20
159.4886226043165
 30
0.0
  0
VERTEX
  5
1161
  8
0
 10
76.226432723356879
 20
159.4595535554985
 30
0.0
  0
VERTEX
  5
1162
  8
0
 10
76.251644739436344
 20
159.4306533593687
 30
0.0
  0
VERTEX
  5
1163
  8
0
 10
76.264470793691544
 20
159.41619330210861
 30
0.0
  0
VERTEX
  5
1164
  8
0
 10
76.277444362107545
 20
159.4017290651249
 30
0.0
  0
VERTEX
  5
1165
  8
0
 10
76.303832717823951
 20
159.37279949735361
 30
0.0
  0
VERTEX
  5
1166
  8
0
 10
76.330806820029153
 20
159.34388741475061
 30
0.0
  0
VERTEX
  5
1167
  8
0
 10
76.358363141660845
 20
159.31501534574079
 30
0.0
  0
VERTEX
  5
1168
  8
0
 10
76.386497620898965
 20
159.28620556080841
 30
0.0
  0
VERTEX
  5
1169
  8
0
 10
76.415205670154535
 20
159.25748004406159
 30
0.0
  0
VERTEX
  5
116A
  8
0
 10
76.429773209174982
 20
159.24315567079779
 30
0.0
  0
VERTEX
  5
116B
  8
0
 10
76.444482188680396
 20
159.2288604639499
 30
0.0
  0
VERTEX
  5
116C
  8
0
 10
76.474321579214603
 20
159.20036814307761
 30
0.0
  0
VERTEX
  5
116D
  8
0
 10
76.50471776909589
 20
159.17202402708591
 30
0.0
  0
VERTEX
  5
116E
  8
0
 10
76.535664236317857
 20
159.14384865260709
 30
0.0
  0
VERTEX
  5
116F
  8
0
 10
76.56715404109957
 20
159.11586211425501
 30
0.0
  0
VERTEX
  5
1170
  8
0
 10
76.599179830289359
 20
159.08808405918819
 30
0.0
  0
VERTEX
  5
1171
  8
0
 10
76.615391270077225
 20
159.07427926220319
 30
0.0
  0
VERTEX
  5
1172
  8
0
 10
76.631733686001425
 20
159.06053381245971
 30
0.0
  0
VERTEX
  5
1173
  8
0
 10
76.664807043061515
 20
159.03323042748761
 30
0.0
  0
VERTEX
  5
1174
  8
0
 10
76.69839070185364
 20
159.00619265117439
 30
0.0
  0
VERTEX
  5
1175
  8
0
 10
76.732474848349639
 20
158.97943888582819
 30
0.0
  0
VERTEX
  5
1176
  8
0
 10
76.767049078598035
 20
158.95298715075359
 30
0.0
  0
VERTEX
  5
1177
  8
0
 10
76.802102428217694
 20
158.92685504351149
 30
0.0
  0
VERTEX
  5
1178
  8
0
 10
76.819805201686535
 20
158.91391422464361
 30
0.0
  0
VERTEX
  5
1179
  8
0
 10
76.837623407466396
 20
158.90105970088561
 30
0.0
  0
VERTEX
  5
117A
  8
0
 10
76.873600042473072
 20
158.8756177596498
 30
0.0
  0
VERTEX
  5
117B
  8
0
 10
76.910019923233776
 20
158.85054531728031
 30
0.0
  0
VERTEX
  5
117C
  8
0
 10
76.928392096853798
 20
158.83815253152929
 30
0.0
  0
VERTEX
  5
117D
  8
0
 10
76.946870258971785
 20
158.8258578928201
 30
0.0
  0
VERTEX
  5
117E
  8
0
 10
76.98414189333559
 20
158.80156784834281
 30
0.0
  0
VERTEX
  5
117F
  8
0
 10
77.021826172098372
 20
158.77768670599571
 30
0.0
  0
VERTEX
  5
1180
  8
0
 10
77.040818593609302
 20
158.7659040267813
 30
0.0
  0
VERTEX
  5
1181
  8
0
 10
77.059908728723457
 20
158.75422899015339
 30
0.0
  0
VERTEX
  5
1182
  8
0
 10
77.098374449290247
 20
158.7312088241269
 30
0.0
  0
VERTEX
  5
1183
  8
0
 10
77.137207530002314
 20
158.7086398664502
 30
0.0
  0
VERTEX
  5
1184
  8
0
 10
77.176391525547245
 20
158.68653525858599
 30
0.0
  0
VERTEX
  5
1185
  8
0
 10
77.215909404691701
 20
158.66490757383451
 30
0.0
  0
VERTEX
  5
1186
  8
0
 10
77.255743613705931
 20
158.64376876771809
 30
0.0
  0
VERTEX
  5
1187
  8
0
 10
77.275773730997713
 20
158.6333862495174
 30
0.0
  0
VERTEX
  5
1188
  8
0
 10
77.295876148186181
 20
158.62313013017729
 30
0.0
  0
VERTEX
  5
1189
  8
0
 10
77.336288633802752
 20
158.60300223998431
 30
0.0
  0
VERTEX
  5
118A
  8
0
 10
77.37696241643863
 20
158.58339492184629
 30
0.0
  0
VERTEX
  5
118B
  8
0
 10
77.41787876819204
 20
158.5643171581026
 30
0.0
  0
VERTEX
  5
118C
  8
0
 10
77.459019055996521
 20
158.54577703514059
 30
0.0
  0
VERTEX
  5
118D
  8
0
 10
77.500363150017336
 20
158.52778245643739
 30
0.0
  0
VERTEX
  5
118E
  8
0
 10
77.521105128655137
 20
158.51899205807729
 30
0.0
  0
VERTEX
  5
118F
  8
0
 10
77.541890200060692
 20
158.5103407323744
 30
0.0
  0
VERTEX
  5
1190
  8
0
 10
77.583578873354895
 20
158.4934584563043
 30
0.0
  0
VERTEX
  5
1191
  8
0
 10
77.625407454722932
 20
158.47714145467219
 30
0.0
  0
VERTEX
  5
1192
  8
0
 10
77.646367347014944
 20
158.4691965317264
 30
0.0
  0
SEQEND
  5
1193
  8
0
  0
LINE
  5
AAB
  8
0
 10
155.3764362937292
 20
170.70909601685071
 30
0.0
 11
155.3764362937292
 21
161.74592209031829
 31
0.0
  0
POLYLINE
  5
AAC
  8
0
 66
     1
 10
0.0
 20
0.0
 30
0.0
  0
VERTEX
  5
1194
  8
0
 10
115.3764362937292
 20
162.2275090535845
 30
0.0
  0
VERTEX
  5
1195
  8
0
 10
115.4323793229198
 20
162.22790027553069
 30
0.0
  0
VERTEX
  5
1196
  8
0
 10
115.54501645259469
 20
162.2310630411834
 30
0.0
  0
VERTEX
  5
1197
  8
0
 10
115.6584927987868
 20
162.23746593001371
 30
0.0
  0
VERTEX
  5
1198
  8
0
 10
115.7154843270317
 20
162.2419041520528
 30
0.0
  0
VERTEX
  5
1199
  8
0
 10
115.7726119242802
 20
162.2471767973831
 30
0.0
  0
VERTEX
  5
119A
  8
0
 10
115.8871770374746
 20
162.26025006371779
 30
0.0
  0
VERTEX
  5
119B
  8
0
 10
116.00199283965649
 20
162.27672697811551
 30
0.0
  0
VERTEX
  5
119C
  8
0
 10
116.116867357491
 20
162.29663614291741
 30
0.0
  0
VERTEX
  5
119D
  8
0
 10
116.23161361658271
 20
162.31999427479261
 30
0.0
  0
VERTEX
  5
119E
  8
0
 10
116.3460480859534
 20
162.34680641457959
 30
0.0
  0
VERTEX
  5
119F
  8
0
 10
116.40309097387281
 20
162.36150592790821
 30
0.0
  0
VERTEX
  5
11A0
  8
0
 10
116.4599870254638
 20
162.377065207512
 30
0.0
  0
VERTEX
  5
11A1
  8
0
 10
116.5732474111704
 20
162.41075085464541
 30
0.0
  0
VERTEX
  5
11A2
  8
0
 10
116.68564870749231
 20
162.44783144092381
 30
0.0
  0
VERTEX
  5
11A3
  8
0
 10
116.7970145643046
 20
162.48826349101861
 30
0.0
  0
VERTEX
  5
11A4
  8
0
 10
116.9071744454519
 20
162.53199275530349
 30
0.0
  0
VERTEX
  5
11A5
  8
0
 10
117.01599033881121
 20
162.578966531802
 30
0.0
  0
VERTEX
  5
11A6
  8
0
 10
117.0698537165019
 20
162.60365234666989
 30
0.0
  0
VERTEX
  5
11A7
  8
0
 10
117.1233273942604
 20
162.6291244878544
 30
0.0
  0
VERTEX
  5
11A8
  8
0
 10
117.2290266707153
 20
162.68238438792059
 30
0.0
  0
VERTEX
  5
11A9
  8
0
 10
117.3329327355419
 20
162.73865226759079
 30
0.0
  0
VERTEX
  5
11AA
  8
0
 10
117.38416612272179
 20
162.767881771091
 30
0.0
  0
VERTEX
  5
11AB
  8
0
 10
117.4348953716558
 20
162.79782302939779
 30
0.0
  0
VERTEX
  5
11AC
  8
0
 10
117.5347711702976
 20
162.8597812497695
 30
0.0
  0
VERTEX
  5
11AD
  8
0
 10
117.6324250157663
 20
162.92440220002351
 30
0.0
  0
VERTEX
  5
11AE
  8
0
 10
117.6803789999983
 20
162.9576699128576
 30
0.0
  0
VERTEX
  5
11AF
  8
0
 10
117.7277307051001
 20
162.99155253486299
 30
0.0
  0
VERTEX
  5
11B0
  8
0
 10
117.82056785684399
 20
163.06108821892181
 30
0.0
  0
VERTEX
  5
11B1
  8
0
 10
117.9108209597541
 20
163.13285327876591
 30
0.0
  0
VERTEX
  5
11B2
  8
0
 10
117.9983810939304
 20
163.20668044793709
 30
0.0
  0
VERTEX
  5
11B3
  8
0
 10
118.0831475970768
 20
163.28239209150459
 30
0.0
  0
VERTEX
  5
11B4
  8
0
 10
118.1650295567196
 20
163.35980132551941
 30
0.0
  0
VERTEX
  5
11B5
  8
0
 10
118.2048634188009
 20
163.3990819291638
 30
0.0
  0
VERTEX
  5
11B6
  8
0
 10
118.2441440224388
 20
163.43891579125679
 30
0.0
  0
VERTEX
  5
11B7
  8
0
 10
118.32155325643581
 20
163.52079775091889
 30
0.0
  0
VERTEX
  5
11B8
  8
0
 10
118.39726489998
 20
163.6055642540785
 30
0.0
  0
VERTEX
  5
11B9
  8
0
 10
118.4710920691227
 20
163.69312438826159
 30
0.0
  0
VERTEX
  5
11BA
  8
0
 10
118.542857128934
 20
163.78337749117199
 30
0.0
  0
VERTEX
  5
11BB
  8
0
 10
118.6123928129564
 20
163.87621464290959
 30
0.0
  0
VERTEX
  5
11BC
  8
0
 10
118.6462754349424
 20
163.92356634800569
 30
0.0
  0
VERTEX
  5
11BD
  8
0
 10
118.6795431477566
 20
163.9715203322304
 30
0.0
  0
VERTEX
  5
11BE
  8
0
 10
118.7441640979693
 20
164.06917417767951
 30
0.0
  0
VERTEX
  5
11BF
  8
0
 10
118.80612231829819
 20
164.16904997629479
 30
0.0
  0
VERTEX
  5
11C0
  8
0
 10
118.8652930800616
 20
164.2710126123757
 30
0.0
  0
VERTEX
  5
11C1
  8
0
 10
118.92156095968841
 20
164.37491867716349
 30
0.0
  0
VERTEX
  5
11C2
  8
0
 10
118.97482085971249
 20
164.48061795357481
 30
0.0
  0
VERTEX
  5
11C3
  8
0
 10
119.00029300087679
 20
164.5340916313103
 30
0.0
  0
VERTEX
  5
11C4
  8
0
 10
119.02497881572531
 20
164.5879550089777
 30
0.0
  0
VERTEX
  5
11C5
  8
0
 10
119.0719525921877
 20
164.69677090229021
 30
0.0
  0
VERTEX
  5
11C6
  8
0
 10
119.115681856441
 20
164.806930783393
 30
0.0
  0
VERTEX
  5
11C7
  8
0
 10
119.1561139065079
 20
164.918296640162
 30
0.0
  0
VERTEX
  5
11C8
  8
0
 10
119.1931944927618
 20
165.03069793644119
 30
0.0
  0
VERTEX
  5
11C9
  8
0
 10
119.2268801398737
 20
165.1439583221057
 30
0.0
  0
VERTEX
  5
11CA
  8
0
 10
119.2424394194679
 20
165.2008543736757
 30
0.0
  0
VERTEX
  5
11CB
  8
0
 10
119.2571389327876
 20
165.25789726157441
 30
0.0
  0
VERTEX
  5
11CC
  8
0
 10
119.28395107255901
 20
165.37233173090439
 30
0.0
  0
VERTEX
  5
11CD
  8
0
 10
119.3073092044217
 20
165.48707798995761
 30
0.0
  0
VERTEX
  5
11CE
  8
0
 10
119.32721836921399
 20
165.60195250775701
 30
0.0
  0
VERTEX
  5
11CF
  8
0
 10
119.3436952836048
 20
165.71676830990799
 30
0.0
  0
VERTEX
  5
11D0
  8
0
 10
119.3567685499349
 20
165.8313334230765
 30
0.0
  0
VERTEX
  5
11D1
  8
0
 10
119.3620411952637
 20
165.88846102031411
 30
0.0
  0
VERTEX
  5
11D2
  8
0
 10
119.3664794173016
 20
165.9454525485495
 30
0.0
  0
VERTEX
  5
11D3
  8
0
 10
119.37288230613071
 20
166.05892889472739
 30
0.0
  0
VERTEX
  5
11D4
  8
0
 10
119.376045071783
 20
166.17156602439491
 30
0.0
  0
VERTEX
  5
11D5
  8
0
 10
119.3764362937292
 20
166.2275090535845
 30
0.0
  0
VERTEX
  5
11D6
  8
0
 10
119.376045071783
 20
166.28345208277409
 30
0.0
  0
VERTEX
  5
11D7
  8
0
 10
119.37288230613071
 20
166.39608921244161
 30
0.0
  0
VERTEX
  5
11D8
  8
0
 10
119.3664794173016
 20
166.5095655586195
 30
0.0
  0
VERTEX
  5
11D9
  8
0
 10
119.3620411952637
 20
166.56655708685491
 30
0.0
  0
VERTEX
  5
11DA
  8
0
 10
119.3567685499349
 20
166.6236846840925
 30
0.0
  0
VERTEX
  5
11DB
  8
0
 10
119.3436952836048
 20
166.73824979726101
 30
0.0
  0
VERTEX
  5
11DC
  8
0
 10
119.32721836921399
 20
166.85306559941199
 30
0.0
  0
VERTEX
  5
11DD
  8
0
 10
119.3073092044217
 20
166.96794011721141
 30
0.0
  0
VERTEX
  5
11DE
  8
0
 10
119.28395107255901
 20
167.0826863762646
 30
0.0
  0
VERTEX
  5
11DF
  8
0
 10
119.2571389327876
 20
167.19712084559461
 30
0.0
  0
VERTEX
  5
11E0
  8
0
 10
119.2424394194679
 20
167.2541637334933
 30
0.0
  0
VERTEX
  5
11E1
  8
0
 10
119.2268801398737
 20
167.31105978506329
 30
0.0
  0
VERTEX
  5
11E2
  8
0
 10
119.1931944927618
 20
167.42432017072781
 30
0.0
  0
VERTEX
  5
11E3
  8
0
 10
119.1561139065079
 20
167.536721467007
 30
0.0
  0
VERTEX
  5
11E4
  8
0
 10
119.115681856441
 20
167.648087323776
 30
0.0
  0
VERTEX
  5
11E5
  8
0
 10
119.0719525921877
 20
167.7582472048787
 30
0.0
  0
VERTEX
  5
11E6
  8
0
 10
119.02497881572531
 20
167.8670630981913
 30
0.0
  0
VERTEX
  5
11E7
  8
0
 10
119.00029300087679
 20
167.92092647585869
 30
0.0
  0
VERTEX
  5
11E8
  8
0
 10
118.97482085971249
 20
167.97440015359419
 30
0.0
  0
VERTEX
  5
11E9
  8
0
 10
118.92156095968841
 20
168.0800994300055
 30
0.0
  0
VERTEX
  5
11EA
  8
0
 10
118.8652930800616
 20
168.18400549479321
 30
0.0
  0
VERTEX
  5
11EB
  8
0
 10
118.80612231829819
 20
168.2859681308741
 30
0.0
  0
VERTEX
  5
11EC
  8
0
 10
118.7441640979693
 20
168.38584392948951
 30
0.0
  0
VERTEX
  5
11ED
  8
0
 10
118.6795431477566
 20
168.4834977749386
 30
0.0
  0
VERTEX
  5
11EE
  8
0
 10
118.6462754349424
 20
168.5314517591633
 30
0.0
  0
VERTEX
  5
11EF
  8
0
 10
118.6123928129564
 20
168.57880346425941
 30
0.0
  0
VERTEX
  5
11F0
  8
0
 10
118.542857128934
 20
168.67164061599701
 30
0.0
  0
VERTEX
  5
11F1
  8
0
 10
118.4710920691227
 20
168.7618937189074
 30
0.0
  0
VERTEX
  5
11F2
  8
0
 10
118.39726489998
 20
168.84945385309061
 30
0.0
  0
VERTEX
  5
11F3
  8
0
 10
118.32155325643581
 20
168.93422035625011
 30
0.0
  0
VERTEX
  5
11F4
  8
0
 10
118.2441440224388
 20
169.01610231591221
 30
0.0
  0
VERTEX
  5
11F5
  8
0
 10
118.2048634188009
 20
169.0559361780052
 30
0.0
  0
VERTEX
  5
11F6
  8
0
 10
118.1650295567196
 20
169.09521678164961
 30
0.0
  0
VERTEX
  5
11F7
  8
0
 10
118.0831475970768
 20
169.17262601566441
 30
0.0
  0
VERTEX
  5
11F8
  8
0
 10
117.9983810939304
 20
169.24833765923191
 30
0.0
  0
VERTEX
  5
11F9
  8
0
 10
117.9108209597541
 20
169.32216482840309
 30
0.0
  0
VERTEX
  5
11FA
  8
0
 10
117.82056785684399
 20
169.39392988824719
 30
0.0
  0
VERTEX
  5
11FB
  8
0
 10
117.7277307051001
 20
169.46346557230601
 30
0.0
  0
VERTEX
  5
11FC
  8
0
 10
117.6803789999983
 20
169.4973481943114
 30
0.0
  0
VERTEX
  5
11FD
  8
0
 10
117.6324250157662
 20
169.53061590714549
 30
0.0
  0
VERTEX
  5
11FE
  8
0
 10
117.5347711702976
 20
169.5952368573995
 30
0.0
  0
VERTEX
  5
11FF
  8
0
 10
117.4348953716558
 20
169.65719507777121
 30
0.0
  0
VERTEX
  5
1200
  8
0
 10
117.38416612272179
 20
169.687136336078
 30
0.0
  0
VERTEX
  5
1201
  8
0
 10
117.3329327355419
 20
169.7163658395782
 30
0.0
  0
VERTEX
  5
1202
  8
0
 10
117.2290266707153
 20
169.7726337192484
 30
0.0
  0
VERTEX
  5
1203
  8
0
 10
117.1233273942604
 20
169.8258936193146
 30
0.0
  0
VERTEX
  5
1204
  8
0
 10
117.0698537165019
 20
169.85136576049911
 30
0.0
  0
VERTEX
  5
1205
  8
0
 10
117.01599033881121
 20
169.876051575367
 30
0.0
  0
VERTEX
  5
1206
  8
0
 10
116.9071744454519
 20
169.9230253518655
 30
0.0
  0
VERTEX
  5
1207
  8
0
 10
116.7970145643046
 20
169.96675461615041
 30
0.0
  0
VERTEX
  5
1208
  8
0
 10
116.68564870749231
 20
170.00718666624519
 30
0.0
  0
VERTEX
  5
1209
  8
0
 10
116.5732474111704
 20
170.04426725252361
 30
0.0
  0
VERTEX
  5
120A
  8
0
 10
116.4599870254638
 20
170.07795289965699
 30
0.0
  0
VERTEX
  5
120B
  8
0
 10
116.40309097387281
 20
170.0935121792609
 30
0.0
  0
VERTEX
  5
120C
  8
0
 10
116.3460480859534
 20
170.10821169258941
 30
0.0
  0
VERTEX
  5
120D
  8
0
 10
116.23161361658271
 20
170.13502383237639
 30
0.0
  0
VERTEX
  5
120E
  8
0
 10
116.116867357491
 20
170.15838196425159
 30
0.0
  0
VERTEX
  5
120F
  8
0
 10
116.00199283965649
 20
170.1782911290536
 30
0.0
  0
VERTEX
  5
1210
  8
0
 10
115.8871770374746
 20
170.19476804345121
 30
0.0
  0
VERTEX
  5
1211
  8
0
 10
115.7726119242802
 20
170.20784130978589
 30
0.0
  0
VERTEX
  5
1212
  8
0
 10
115.7154843270317
 20
170.2131139551162
 30
0.0
  0
VERTEX
  5
1213
  8
0
 10
115.6584927987868
 20
170.21755217715531
 30
0.0
  0
VERTEX
  5
1214
  8
0
 10
115.54501645259469
 20
170.22395506598559
 30
0.0
  0
VERTEX
  5
1215
  8
0
 10
115.4323793229198
 20
170.22711783163831
 30
0.0
  0
VERTEX
  5
1216
  8
0
 10
115.3764362937292
 20
170.2275090535845
 30
0.0
  0
SEQEND
  5
1217
  8
0
  0
POLYLINE
  5
AAD
  8
0
 66
     1
 10
0.0
 20
0.0
 30
0.0
  0
VERTEX
  5
1218
  8
0
 10
115.3764362937292
 20
170.2275090535845
 30
0.0
  0
VERTEX
  5
1219
  8
0
 10
115.3204932645386
 20
170.22711783163831
 30
0.0
  0
VERTEX
  5
121A
  8
0
 10
115.2078561348637
 20
170.22395506598559
 30
0.0
  0
VERTEX
  5
121B
  8
0
 10
115.0943797886716
 20
170.21755217715531
 30
0.0
  0
VERTEX
  5
121C
  8
0
 10
115.0373882604267
 20
170.2131139551162
 30
0.0
  0
VERTEX
  5
121D
  8
0
 10
114.9802606631782
 20
170.20784130978589
 30
0.0
  0
VERTEX
  5
121E
  8
0
 10
114.8656955499838
 20
170.19476804345121
 30
0.0
  0
VERTEX
  5
121F
  8
0
 10
114.7508797478019
 20
170.1782911290536
 30
0.0
  0
VERTEX
  5
1220
  8
0
 10
114.6360052299674
 20
170.15838196425159
 30
0.0
  0
VERTEX
  5
1221
  8
0
 10
114.52125897087571
 20
170.13502383237639
 30
0.0
  0
VERTEX
  5
1222
  8
0
 10
114.406824501505
 20
170.10821169258941
 30
0.0
  0
VERTEX
  5
1223
  8
0
 10
114.34978161358561
 20
170.0935121792609
 30
0.0
  0
VERTEX
  5
1224
  8
0
 10
114.29288556199459
 20
170.07795289965699
 30
0.0
  0
VERTEX
  5
1225
  8
0
 10
114.1796251762879
 20
170.04426725252361
 30
0.0
  0
VERTEX
  5
1226
  8
0
 10
114.06722387996609
 20
170.00718666624519
 30
0.0
  0
VERTEX
  5
1227
  8
0
 10
113.95585802315379
 20
169.96675461615041
 30
0.0
  0
VERTEX
  5
1228
  8
0
 10
113.8456981420065
 20
169.9230253518655
 30
0.0
  0
VERTEX
  5
1229
  8
0
 10
113.73688224864721
 20
169.876051575367
 30
0.0
  0
VERTEX
  5
122A
  8
0
 10
113.6830188709565
 20
169.85136576049911
 30
0.0
  0
VERTEX
  5
122B
  8
0
 10
113.629545193198
 20
169.8258936193146
 30
0.0
  0
VERTEX
  5
122C
  8
0
 10
113.5238459167431
 20
169.7726337192484
 30
0.0
  0
VERTEX
  5
122D
  8
0
 10
113.4199398519165
 20
169.7163658395782
 30
0.0
  0
VERTEX
  5
122E
  8
0
 10
113.3687064647366
 20
169.687136336078
 30
0.0
  0
VERTEX
  5
122F
  8
0
 10
113.3179772158026
 20
169.65719507777121
 30
0.0
  0
VERTEX
  5
1230
  8
0
 10
113.2181014171609
 20
169.5952368573995
 30
0.0
  0
VERTEX
  5
1231
  8
0
 10
113.1204475716922
 20
169.53061590714549
 30
0.0
  0
VERTEX
  5
1232
  8
0
 10
113.0724935874601
 20
169.4973481943114
 30
0.0
  0
VERTEX
  5
1233
  8
0
 10
113.0251418823583
 20
169.46346557230601
 30
0.0
  0
VERTEX
  5
1234
  8
0
 10
112.9323047306144
 20
169.39392988824719
 30
0.0
  0
VERTEX
  5
1235
  8
0
 10
112.84205162770429
 20
169.32216482840309
 30
0.0
  0
VERTEX
  5
1236
  8
0
 10
112.75449149352799
 20
169.24833765923191
 30
0.0
  0
VERTEX
  5
1237
  8
0
 10
112.6697249903817
 20
169.17262601566441
 30
0.0
  0
VERTEX
  5
1238
  8
0
 10
112.5878430307388
 20
169.09521678164961
 30
0.0
  0
VERTEX
  5
1239
  8
0
 10
112.5480091686575
 20
169.0559361780052
 30
0.0
  0
VERTEX
  5
123A
  8
0
 10
112.5087285650196
 20
169.01610231591221
 30
0.0
  0
VERTEX
  5
123B
  8
0
 10
112.43131933102261
 20
168.93422035625011
 30
0.0
  0
VERTEX
  5
123C
  8
0
 10
112.3556076874784
 20
168.84945385309061
 30
0.0
  0
VERTEX
  5
123D
  8
0
 10
112.28178051833569
 20
168.7618937189074
 30
0.0
  0
VERTEX
  5
123E
  8
0
 10
112.2100154585244
 20
168.67164061599701
 30
0.0
  0
VERTEX
  5
123F
  8
0
 10
112.140479774502
 20
168.57880346425941
 30
0.0
  0
VERTEX
  5
1240
  8
0
 10
112.106597152516
 20
168.5314517591633
 30
0.0
  0
VERTEX
  5
1241
  8
0
 10
112.07332943970179
 20
168.4834977749386
 30
0.0
  0
VERTEX
  5
1242
  8
0
 10
112.00870848948909
 20
168.38584392948951
 30
0.0
  0
VERTEX
  5
1243
  8
0
 10
111.9467502691602
 20
168.2859681308741
 30
0.0
  0
VERTEX
  5
1244
  8
0
 10
111.88757950739679
 20
168.18400549479321
 30
0.0
  0
VERTEX
  5
1245
  8
0
 10
111.83131162777001
 20
168.0800994300055
 30
0.0
  0
VERTEX
  5
1246
  8
0
 10
111.7780517277459
 20
167.97440015359419
 30
0.0
  0
VERTEX
  5
1247
  8
0
 10
111.7525795865816
 20
167.92092647585869
 30
0.0
  0
VERTEX
  5
1248
  8
0
 10
111.72789377173309
 20
167.8670630981913
 30
0.0
  0
VERTEX
  5
1249
  8
0
 10
111.6809199952707
 20
167.75824720487881
 30
0.0
  0
VERTEX
  5
124A
  8
0
 10
111.6371907310174
 20
167.648087323776
 30
0.0
  0
VERTEX
  5
124B
  8
0
 10
111.5967586809505
 20
167.536721467007
 30
0.0
  0
VERTEX
  5
124C
  8
0
 10
111.55967809469659
 20
167.42432017072781
 30
0.0
  0
VERTEX
  5
124D
  8
0
 10
111.5259924475847
 20
167.31105978506329
 30
0.0
  0
VERTEX
  5
124E
  8
0
 10
111.5104331679905
 20
167.2541637334933
 30
0.0
  0
VERTEX
  5
124F
  8
0
 10
111.4957336546708
 20
167.19712084559461
 30
0.0
  0
VERTEX
  5
1250
  8
0
 10
111.46892151489929
 20
167.0826863762646
 30
0.0
  0
VERTEX
  5
1251
  8
0
 10
111.4455633830367
 20
166.96794011721141
 30
0.0
  0
VERTEX
  5
1252
  8
0
 10
111.4256542182443
 20
166.85306559941199
 30
0.0
  0
VERTEX
  5
1253
  8
0
 10
111.4091773038536
 20
166.73824979726101
 30
0.0
  0
VERTEX
  5
1254
  8
0
 10
111.3961040375235
 20
166.6236846840925
 30
0.0
  0
VERTEX
  5
1255
  8
0
 10
111.3908313921948
 20
166.56655708685491
 30
0.0
  0
VERTEX
  5
1256
  8
0
 10
111.38639317015679
 20
166.5095655586195
 30
0.0
  0
VERTEX
  5
1257
  8
0
 10
111.37999028132769
 20
166.39608921244161
 30
0.0
  0
VERTEX
  5
1258
  8
0
 10
111.3768275156754
 20
166.28345208277409
 30
0.0
  0
VERTEX
  5
1259
  8
0
 10
111.3764362937292
 20
166.2275090535845
 30
0.0
  0
VERTEX
  5
125A
  8
0
 10
111.3768275156754
 20
166.17156602439491
 30
0.0
  0
VERTEX
  5
125B
  8
0
 10
111.37999028132769
 20
166.05892889472739
 30
0.0
  0
VERTEX
  5
125C
  8
0
 10
111.38639317015679
 20
165.9454525485495
 30
0.0
  0
VERTEX
  5
125D
  8
0
 10
111.3908313921948
 20
165.88846102031411
 30
0.0
  0
VERTEX
  5
125E
  8
0
 10
111.3961040375235
 20
165.8313334230765
 30
0.0
  0
VERTEX
  5
125F
  8
0
 10
111.4091773038536
 20
165.71676830990799
 30
0.0
  0
VERTEX
  5
1260
  8
0
 10
111.4256542182443
 20
165.60195250775701
 30
0.0
  0
VERTEX
  5
1261
  8
0
 10
111.4455633830367
 20
165.48707798995761
 30
0.0
  0
VERTEX
  5
1262
  8
0
 10
111.46892151489929
 20
165.37233173090439
 30
0.0
  0
VERTEX
  5
1263
  8
0
 10
111.4957336546708
 20
165.25789726157441
 30
0.0
  0
VERTEX
  5
1264
  8
0
 10
111.5104331679905
 20
165.2008543736757
 30
0.0
  0
VERTEX
  5
1265
  8
0
 10
111.5259924475847
 20
165.1439583221057
 30
0.0
  0
VERTEX
  5
1266
  8
0
 10
111.55967809469659
 20
165.03069793644119
 30
0.0
  0
VERTEX
  5
1267
  8
0
 10
111.5967586809505
 20
164.918296640162
 30
0.0
  0
VERTEX
  5
1268
  8
0
 10
111.6371907310174
 20
164.806930783393
 30
0.0
  0
VERTEX
  5
1269
  8
0
 10
111.6809199952707
 20
164.6967709022903
 30
0.0
  0
VERTEX
  5
126A
  8
0
 10
111.72789377173309
 20
164.5879550089777
 30
0.0
  0
VERTEX
  5
126B
  8
0
 10
111.7525795865816
 20
164.5340916313103
 30
0.0
  0
VERTEX
  5
126C
  8
0
 10
111.7780517277459
 20
164.48061795357481
 30
0.0
  0
VERTEX
  5
126D
  8
0
 10
111.83131162777001
 20
164.37491867716349
 30
0.0
  0
VERTEX
  5
126E
  8
0
 10
111.88757950739679
 20
164.2710126123757
 30
0.0
  0
VERTEX
  5
126F
  8
0
 10
111.9467502691602
 20
164.16904997629479
 30
0.0
  0
VERTEX
  5
1270
  8
0
 10
112.00870848948909
 20
164.06917417767951
 30
0.0
  0
VERTEX
  5
1271
  8
0
 10
112.07332943970179
 20
163.9715203322304
 30
0.0
  0
VERTEX
  5
1272
  8
0
 10
112.106597152516
 20
163.92356634800569
 30
0.0
  0
VERTEX
  5
1273
  8
0
 10
112.140479774502
 20
163.87621464290959
 30
0.0
  0
VERTEX
  5
1274
  8
0
 10
112.2100154585244
 20
163.78337749117199
 30
0.0
  0
VERTEX
  5
1275
  8
0
 10
112.28178051833569
 20
163.69312438826159
 30
0.0
  0
VERTEX
  5
1276
  8
0
 10
112.3556076874784
 20
163.6055642540785
 30
0.0
  0
VERTEX
  5
1277
  8
0
 10
112.43131933102261
 20
163.52079775091889
 30
0.0
  0
VERTEX
  5
1278
  8
0
 10
112.5087285650196
 20
163.43891579125679
 30
0.0
  0
VERTEX
  5
1279
  8
0
 10
112.5480091686575
 20
163.3990819291638
 30
0.0
  0
VERTEX
  5
127A
  8
0
 10
112.5878430307388
 20
163.35980132551941
 30
0.0
  0
VERTEX
  5
127B
  8
0
 10
112.6697249903817
 20
163.28239209150459
 30
0.0
  0
VERTEX
  5
127C
  8
0
 10
112.75449149352799
 20
163.20668044793709
 30
0.0
  0
VERTEX
  5
127D
  8
0
 10
112.84205162770429
 20
163.13285327876591
 30
0.0
  0
VERTEX
  5
127E
  8
0
 10
112.93230473061431
 20
163.06108821892181
 30
0.0
  0
VERTEX
  5
127F
  8
0
 10
113.0251418823583
 20
162.99155253486299
 30
0.0
  0
VERTEX
  5
1280
  8
0
 10
113.0724935874601
 20
162.9576699128576
 30
0.0
  0
VERTEX
  5
1281
  8
0
 10
113.1204475716921
 20
162.92440220002351
 30
0.0
  0
VERTEX
  5
1282
  8
0
 10
113.2181014171609
 20
162.8597812497695
 30
0.0
  0
VERTEX
  5
1283
  8
0
 10
113.3179772158026
 20
162.79782302939779
 30
0.0
  0
VERTEX
  5
1284
  8
0
 10
113.3687064647366
 20
162.767881771091
 30
0.0
  0
VERTEX
  5
1285
  8
0
 10
113.4199398519165
 20
162.73865226759079
 30
0.0
  0
VERTEX
  5
1286
  8
0
 10
113.5238459167431
 20
162.68238438792059
 30
0.0
  0
VERTEX
  5
1287
  8
0
 10
113.629545193198
 20
162.6291244878544
 30
0.0
  0
VERTEX
  5
1288
  8
0
 10
113.6830188709565
 20
162.60365234666989
 30
0.0
  0
VERTEX
  5
1289
  8
0
 10
113.73688224864721
 20
162.578966531802
 30
0.0
  0
VERTEX
  5
128A
  8
0
 10
113.8456981420065
 20
162.53199275530349
 30
0.0
  0
VERTEX
  5
128B
  8
0
 10
113.95585802315379
 20
162.48826349101861
 30
0.0
  0
VERTEX
  5
128C
  8
0
 10
114.06722387996609
 20
162.44783144092381
 30
0.0
  0
VERTEX
  5
128D
  8
0
 10
114.1796251762879
 20
162.41075085464541
 30
0.0
  0
VERTEX
  5
128E
  8
0
 10
114.29288556199459
 20
162.377065207512
 30
0.0
  0
VERTEX
  5
128F
  8
0
 10
114.34978161358561
 20
162.36150592790821
 30
0.0
  0
VERTEX
  5
1290
  8
0
 10
114.406824501505
 20
162.34680641457959
 30
0.0
  0
VERTEX
  5
1291
  8
0
 10
114.52125897087571
 20
162.31999427479261
 30
0.0
  0
VERTEX
  5
1292
  8
0
 10
114.6360052299674
 20
162.29663614291741
 30
0.0
  0
VERTEX
  5
1293
  8
0
 10
114.7508797478019
 20
162.27672697811551
 30
0.0
  0
VERTEX
  5
1294
  8
0
 10
114.8656955499838
 20
162.26025006371779
 30
0.0
  0
VERTEX
  5
1295
  8
0
 10
114.9802606631782
 20
162.2471767973831
 30
0.0
  0
VERTEX
  5
1296
  8
0
 10
115.0373882604267
 20
162.2419041520528
 30
0.0
  0
VERTEX
  5
1297
  8
0
 10
115.0943797886716
 20
162.23746593001371
 30
0.0
  0
VERTEX
  5
1298
  8
0
 10
115.2078561348637
 20
162.2310630411834
 30
0.0
  0
VERTEX
  5
1299
  8
0
 10
115.3204932645386
 20
162.22790027553069
 30
0.0
  0
VERTEX
  5
129A
  8
0
 10
115.3764362937292
 20
162.2275090535845
 30
0.0
  0
SEQEND
  5
129B
  8
0
  0
LINE
  5
AAE
  8
0
 10
75.37643629372927
 20
170.70909601685071
 30
0.0
 11
75.37643629372927
 21
161.74592209031829
 31
0.0
  0
TEXT
  5
B93
  8
0
 62
     3
 10
0.0
 20
0.0
 30
0.0
 40
10.0
  1
ATH80N-M6
  7
STANDARD1
  0
ENDSEC
  0
EOF
