  0
SECTION
  2
HEADER
  9
$ACADVER
  1
AC1009
  9
$INSBASE
 10
0.0
 20
0.0
 30
0.0
  9
$EXTMIN
 10
-0.0204638472032742
 20
-2.960436562073669
 30
0.0
  9
$EXTMAX
 10
165.229773227034
 20
142.762562492803
 30
0.0
  9
$LIMMIN
 10
0.0
 20
0.0
  9
$LIMMAX
 10
420.0
 20
297.0
  9
$ORTHOMODE
 70
     1
  9
$REGENMODE
 70
     1
  9
$FILLMODE
 70
     1
  9
$QTEXTMODE
 70
     0
  9
$MIRRTEXT
 70
     0
  9
$DRAGMODE
 70
     2
  9
$LTSCALE
 40
1.0
  9
$OSMODE
 70
  3071
  9
$ATTMODE
 70
     1
  9
$TEXTSIZE
 40
2.5
  9
$TRACEWID
 40
1.0
  9
$TEXTSTYLE
  7
STANDARD
  9
$CLAYER
  8
0
  9
$CELTYPE
  6
BYLAYER
  9
$CECOLOR
 62
   256
  9
$DIMSCALE
 40
1.0
  9
$DIMASZ
 40
2.5
  9
$DIMEXO
 40
0.625
  9
$DIMDLI
 40
3.75
  9
$DIMRND
 40
0.0
  9
$DIMDLE
 40
0.0
  9
$DIMEXE
 40
1.25
  9
$DIMTP
 40
0.0
  9
$DIMTM
 40
0.0
  9
$DIMTXT
 40
2.5
  9
$DIMCEN
 40
2.5
  9
$DIMTSZ
 40
0.0
  9
$DIMTOL
 70
     0
  9
$DIMLIM
 70
     0
  9
$DIMTIH
 70
     0
  9
$DIMTOH
 70
     0
  9
$DIMSE1
 70
     0
  9
$DIMSE2
 70
     0
  9
$DIMTAD
 70
     1
  9
$DIMZIN
 70
     8
  9
$DIMBLK
  1

  9
$DIMASO
 70
     1
  9
$DIMSHO
 70
     1
  9
$DIMPOST
  1

  9
$DIMAPOST
  1

  9
$DIMALT
 70
     0
  9
$DIMALTD
 70
     3
  9
$DIMALTF
 40
0.03937007874016
  9
$DIMLFAC
 40
1.0
  9
$DIMTOFL
 70
     1
  9
$DIMTVP
 40
0.0
  9
$DIMTIX
 70
     0
  9
$DIMSOXD
 70
     0
  9
$DIMSAH
 70
     0
  9
$DIMBLK1
  1

  9
$DIMBLK2
  1

  9
$DIMSTYLE
  2
ISO-25
  9
$DIMCLRD
 70
     0
  9
$DIMCLRE
 70
     0
  9
$DIMCLRT
 70
     0
  9
$DIMTFAC
 40
1.0
  9
$DIMGAP
 40
0.625
  9
$LUNITS
 70
     2
  9
$LUPREC
 70
     4
  9
$SKETCHINC
 40
1.0
  9
$FILLETRAD
 40
0.0
  9
$AUNITS
 70
     0
  9
$AUPREC
 70
     0
  9
$MENU
  1
.
  9
$ELEVATION
 40
0.0
  9
$PELEVATION
 40
0.0
  9
$THICKNESS
 40
0.0
  9
$LIMCHECK
 70
     0
  9
$BLIPMODE
 70
     0
  9
$CHAMFERA
 40
0.0
  9
$CHAMFERB
 40
0.0
  9
$SKPOLY
 70
     0
  9
$TDCREATE
 40
2454979.4917406249
  9
$TDUPDATE
 40
2456597.5644987272
  9
$TDINDWG
 40
0.0755223958
  9
$TDUSRTIMER
 40
0.0755222222
  9
$USRTIMER
 70
     1
  9
$ANGBASE
 50
0.0
  9
$ANGDIR
 70
     0
  9
$PDMODE
 70
     0
  9
$PDSIZE
 40
0.0
  9
$PLINEWID
 40
0.0
  9
$COORDS
 70
     1
  9
$SPLFRAME
 70
     0
  9
$SPLINETYPE
 70
     6
  9
$SPLINESEGS
 70
     8
  9
$ATTDIA
 70
     0
  9
$ATTREQ
 70
     1
  9
$HANDLING
 70
     1
  9
$HANDSEED
  5
C56
  9
$SURFTAB1
 70
     6
  9
$SURFTAB2
 70
     6
  9
$SURFTYPE
 70
     6
  9
$SURFU
 70
     6
  9
$SURFV
 70
     6
  9
$UCSNAME
  2

  9
$UCSORG
 10
0.0
 20
0.0
 30
0.0
  9
$UCSXDIR
 10
1.0
 20
0.0
 30
0.0
  9
$UCSYDIR
 10
0.0
 20
1.0
 30
0.0
  9
$PUCSNAME
  2

  9
$PUCSORG
 10
0.0
 20
0.0
 30
0.0
  9
$PUCSXDIR
 10
1.0
 20
0.0
 30
0.0
  9
$PUCSYDIR
 10
0.0
 20
1.0
 30
0.0
  9
$USERI1
 70
     0
  9
$USERI2
 70
     0
  9
$USERI3
 70
     0
  9
$USERI4
 70
     0
  9
$USERI5
 70
     0
  9
$USERR1
 40
0.0
  9
$USERR2
 40
0.0
  9
$USERR3
 40
0.0
  9
$USERR4
 40
0.0
  9
$USERR5
 40
0.0
  9
$WORLDVIEW
 70
     1
  9
$SHADEDGE
 70
     3
  9
$SHADEDIF
 70
    70
  9
$TILEMODE
 70
     1
  9
$MAXACTVP
 70
    64
  9
$PLIMCHECK
 70
     0
  9
$PEXTMIN
 10
0.0
 20
0.0
 30
0.0
  9
$PEXTMAX
 10
0.0
 20
0.0
 30
0.0
  9
$PLIMMIN
 10
0.0
 20
0.0
  9
$PLIMMAX
 10
12.0
 20
9.0
  9
$UNITMODE
 70
     0
  9
$VISRETAIN
 70
     1
  9
$PLINEGEN
 70
     0
  9
$PSLTSCALE
 70
     1
  0
ENDSEC
  0
SECTION
  2
TABLES
  0
TABLE
  2
VPORT
 70
     1
  0
VPORT
  2
*ACTIVE
 70
     0
 10
0.0
 20
0.0
 11
1.0
 21
1.0
 12
218.28962076239009
 22
147.0112842185321
 13
0.0
 23
0.0
 14
10.0
 24
10.0
 15
10.0
 25
10.0
 16
0.0
 26
0.0
 36
1.0
 17
0.0
 27
0.0
 37
0.0
 40
302.66781211506969
 41
1.831871345029239
 42
50.0
 43
0.0
 44
0.0
 50
0.0
 51
0.0
 71
     0
 72
  1000
 73
     1
 74
     3
 75
     0
 76
     0
 77
     0
 78
     0
  0
ENDTAB
  0
TABLE
  2
LTYPE
 70
     4
  0
LTYPE
  2
CONTINUOUS
 70
     0
  3
Solid line
 72
    65
 73
     0
 40
0.0
  0
LTYPE
  2
CENTER
 70
     0
  3
____ _ ____ _ ____ _ ____ _ ____ _ ____ _ ____
 72
    65
 73
     4
 40
2.0
 49
1.25
 49
-0.25
 49
0.25
 49
-0.25
  0
LTYPE
  2
PHANTOM
 70
     0
  3
_____ _ _ _____ _ _ _____ _ _ _____ _ _ ____
 72
    65
 73
     6
 40
2.5
 49
1.25
 49
-0.25
 49
0.25
 49
-0.25
 49
0.25
 49
-0.25
  0
LTYPE
  2
HIDDEN
 70
     0
  3
_ _ _ _ _ _ _ _ _ _ _ _ _ _ _ _ _ _ _ _ _ _ _
 72
    65
 73
     2
 40
0.375
 49
0.25
 49
-0.125
  0
ENDTAB
  0
TABLE
  2
LAYER
 70
     4
  0
LAYER
  2
0
 70
     0
 62
     7
  6
CONTINUOUS
  0
LAYER
  2
1
 70
     0
 62
     1
  6
CENTER
  0
LAYER
  2
5
 70
     0
 62
     3
  6
PHANTOM
  0
LAYER
  2
2
 70
     0
 62
     2
  6
HIDDEN
  0
ENDTAB
  0
TABLE
  2
STYLE
 70
     2
  0
STYLE
  2
STANDARD
 70
     0
 40
0.0
 41
1.0
 50
0.0
 71
     0
 42
2.5
  3
txt
  4

  0
STYLE
  2
STANDARD1
 70
     0
 40
0.0
 41
1.0
 50
0.0
 71
     0
 42
3.0
  3
txt
  4

  0
ENDTAB
  0
TABLE
  2
VIEW
 70
     0
  0
ENDTAB
  0
TABLE
  2
UCS
 70
     0
  0
ENDTAB
  0
TABLE
  2
APPID
 70
     3
  0
APPID
  2
ACAD
 70
     0
  0
APPID
  2
ACAD_MLEADERVER
 70
     0
  0
APPID
  2
ACAD_NAV_VCDISPLAY
 70
     0
  0
ENDTAB
  0
TABLE
  2
DIMSTYLE
 70
     2
  0
DIMSTYLE
  2
ISO-25
 70
     0
  3

  4

  5

  6

  7

 40
1.0
 41
2.5
 42
0.625
 43
3.75
 44
1.25
 45
0.0
 46
0.0
 47
0.0
 48
0.0
140
2.5
141
2.5
142
0.0
143
0.03937007874016
144
1.0
145
0.0
146
1.0
147
0.625
 71
     0
 72
     0
 73
     0
 74
     0
 75
     0
 76
     0
 77
     1
 78
     8
170
     0
171
     3
172
     1
173
     0
174
     0
175
     0
176
     0
177
     0
178
     0
  0
DIMSTYLE
  2
STANDARD
 70
     0
  3

  4

  5

  6

  7

 40
1.0
 41
0.18
 42
0.0625
 43
0.38
 44
0.18
 45
0.0
 46
0.0
 47
0.0
 48
0.0
140
0.18
141
0.09
142
0.0
143
25.399999999999999
144
1.0
145
0.0
146
1.0
147
0.09
 71
     0
 72
     0
 73
     1
 74
     1
 75
     0
 76
     0
 77
     0
 78
     0
170
     0
171
     2
172
     0
173
     0
174
     0
175
     0
176
     0
177
     0
178
     0
  0
ENDTAB
  0
ENDSEC
  0
SECTION
  2
BLOCKS
  0
BLOCK
  8
0
  2
$MODEL_SPACE
 70
     0
 10
0.0
 20
0.0
 30
0.0
  3
$MODEL_SPACE
  1

  0
ENDBLK
  5
21
  8
0
  0
BLOCK
 67
     1
  8
0
  2
$PAPER_SPACE
 70
     0
 10
0.0
 20
0.0
 30
0.0
  3
$PAPER_SPACE
  1

  0
ENDBLK
  5
53
 67
     1
  8
0
  0
ENDSEC
  0
SECTION
  2
ENTITIES
  0
LINE
  5
376
  8
0
 10
56.868795211178451
 20
126.735157408829
 30
0.0
 11
56.868795211178451
 21
120.8500569222291
 31
0.0
  0
LINE
  5
380
  8
0
 10
123.86879521117829
 20
126.735157408829
 30
0.0
 11
123.86879521117829
 21
120.8500569222291
 31
0.0
  0
POLYLINE
  5
394
  8
0
 66
     1
 10
0.0
 20
0.0
 30
0.0
  0
VERTEX
  5
7A4
  8
0
 10
56.868795211178373
 20
120.8500569222291
 30
0.0
  0
VERTEX
  5
7A5
  8
0
 10
56.870239004863421
 20
120.7495359231534
 30
0.0
  0
VERTEX
  5
7A6
  8
0
 10
56.882138696888262
 20
120.5447270164578
 30
0.0
  0
VERTEX
  5
7A7
  8
0
 10
56.906717519339693
 20
120.33623004898
 30
0.0
  0
VERTEX
  5
7A8
  8
0
 10
56.923960806408147
 20
120.23109333387239
 30
0.0
  0
VERTEX
  5
7A9
  8
0
 10
56.944587927856432
 20
120.12562301851879
 30
0.0
  0
VERTEX
  5
7AA
  8
0
 10
56.9961643834963
 20
119.9144494724038
 30
0.0
  0
VERTEX
  5
7AB
  8
0
 10
57.06166834098866
 20
119.70423326019851
 30
0.0
  0
VERTEX
  5
7AC
  8
0
 10
57.141149848537637
 20
119.4964301594087
 30
0.0
  0
VERTEX
  5
7AD
  8
0
 10
57.23450377142818
 20
119.2924250110548
 30
0.0
  0
VERTEX
  5
7AE
  8
0
 10
57.341428178845561
 20
119.093626208667
 30
0.0
  0
VERTEX
  5
7AF
  8
0
 10
57.399837393200691
 20
118.99660353056559
 30
0.0
  0
VERTEX
  5
7B0
  8
0
 10
57.461447811024108
 20
118.90138273324411
 30
0.0
  0
VERTEX
  5
7B1
  8
0
 10
57.593909041894669
 20
118.7169824398169
 30
0.0
  0
VERTEX
  5
7B2
  8
0
 10
57.738016755686402
 20
118.54159320838841
 30
0.0
  0
VERTEX
  5
7B3
  8
0
 10
57.829378727300913
 20
118.44145485434591
 30
0.0
  0
VERTEX
  5
7B4
  8
0
 10
57.856768706164068
 20
118.41290226195299
 30
0.0
  0
VERTEX
  5
7B5
  8
0
 10
57.884723655970667
 20
118.3844153204127
 30
0.0
  0
VERTEX
  5
7B6
  8
0
 10
57.898911592785737
 20
118.3702031137163
 30
0.0
  0
VERTEX
  5
7B7
  8
0
 10
57.913239028061682
 20
118.3560152562666
 30
0.0
  0
VERTEX
  5
7B8
  8
0
 10
57.942309785090373
 20
118.32772298775841
 30
0.0
  0
VERTEX
  5
7B9
  8
0
 10
57.971930417611929
 20
118.29955909604659
 30
0.0
  0
VERTEX
  5
7BA
  8
0
 10
58.002094964950281
 20
118.27154379554079
 30
0.0
  0
VERTEX
  5
7BB
  8
0
 10
58.0327970407793
 20
118.24369690337291
 30
0.0
  0
VERTEX
  5
7BC
  8
0
 10
58.064029863809651
 20
118.2160378081055
 30
0.0
  0
VERTEX
  5
7BD
  8
0
 10
58.079843079649429
 20
118.20228462469881
 30
0.0
  0
VERTEX
  5
7BE
  8
0
 10
58.095786245373773
 20
118.18858547932921
 30
0.0
  0
VERTEX
  5
7BF
  8
0
 10
58.128058433061511
 20
118.16135859567881
 30
0.0
  0
VERTEX
  5
7C0
  8
0
 10
58.160838054218793
 20
118.13437557254341
 30
0.0
  0
VERTEX
  5
7C1
  8
0
 10
58.194116130460593
 20
118.107654527268
 30
0.0
  0
VERTEX
  5
7C2
  8
0
 10
58.227883097115729
 20
118.0812132430266
 30
0.0
  0
VERTEX
  5
7C3
  8
0
 10
58.262128826908217
 20
118.05506913238349
 30
0.0
  0
VERTEX
  5
7C4
  8
0
 10
58.279427916259749
 20
118.0421138482113
 30
0.0
  0
VERTEX
  5
7C5
  8
0
 10
58.296842658383802
 20
118.02923920054489
 30
0.0
  0
VERTEX
  5
7C6
  8
0
 10
58.332013429612658
 20
118.00374000834159
 30
0.0
  0
VERTEX
  5
7C7
  8
0
 10
58.367629517715557
 20
117.97858763503351
 30
0.0
  0
VERTEX
  5
7C8
  8
0
 10
58.385600808561712
 20
117.9661463893884
 30
0.0
  0
VERTEX
  5
7C9
  8
0
 10
58.40367888477072
 20
117.9537976410725
 30
0.0
  0
VERTEX
  5
7CA
  8
0
 10
58.4401491306579
 20
117.9293850310211
 30
0.0
  0
VERTEX
  5
7CB
  8
0
 10
58.477031624558428
 20
117.9053616014296
 30
0.0
  0
VERTEX
  5
7CC
  8
0
 10
58.495625117169517
 20
117.8934991604205
 30
0.0
  0
VERTEX
  5
7CD
  8
0
 10
58.514317831284998
 20
117.88173860246221
 30
0.0
  0
VERTEX
  5
7CE
  8
0
 10
58.551993822311942
 20
117.85853010245749
 30
0.0
  0
VERTEX
  5
7CF
  8
0
 10
58.590044962977508
 20
117.8357497788668
 30
0.0
  0
VERTEX
  5
7D0
  8
0
 10
58.628455957357033
 20
117.81341086422231
 30
0.0
  0
VERTEX
  5
7D1
  8
0
 10
58.667210894015398
 20
117.79152609655721
 30
0.0
  0
VERTEX
  5
7D2
  8
0
 10
58.706293298534639
 20
117.7701076709498
 30
0.0
  0
VERTEX
  5
7D3
  8
0
 10
58.725952013616578
 20
117.7595769872959
 30
0.0
  0
VERTEX
  5
7D4
  8
0
 10
58.745686193367497
 20
117.7491671924417
 30
0.0
  0
VERTEX
  5
7D5
  8
0
 10
58.785372165546299
 20
117.7287156306429
 30
0.0
  0
VERTEX
  5
7D6
  8
0
 10
58.825333442738412
 20
117.708763276394
 30
0.0
  0
VERTEX
  5
7D7
  8
0
 10
58.865551978083779
 20
117.6893197009222
 30
0.0
  0
VERTEX
  5
7D8
  8
0
 10
58.906009605024707
 20
117.6703936899937
 30
0.0
  0
VERTEX
  5
7D9
  8
0
 10
58.94668827670958
 20
117.6519931538005
 30
0.0
  0
VERTEX
  5
7DA
  8
0
 10
58.967104477423348
 20
117.6429923630247
 30
0.0
  0
VERTEX
  5
7DB
  8
0
 10
58.987568601233413
 20
117.63412578926309
 30
0.0
  0
VERTEX
  5
7DC
  8
0
 10
59.028630481024223
 20
117.6167987364279
 30
0.0
  0
VERTEX
  5
7DD
  8
0
 10
59.06985339311052
 20
117.60001843733779
 30
0.0
  0
VERTEX
  5
7DE
  8
0
 10
59.090518730029373
 20
117.59183513147561
 30
0.0
  0
SEQEND
  5
7DF
  8
0
  0
POLYLINE
  5
395
  8
0
 66
     1
 10
0.0
 20
0.0
 30
0.0
  0
VERTEX
  5
7E0
  8
0
 10
59.090518730029338
 20
117.59183513147561
 30
0.0
  0
VERTEX
  5
7E1
  8
0
 10
59.115253295399867
 20
117.5822392000502
 30
0.0
  0
VERTEX
  5
7E2
  8
0
 10
59.164928646961592
 20
117.56361427164769
 30
0.0
  0
VERTEX
  5
7E3
  8
0
 10
59.2148626426264
 20
117.5457506974317
 30
0.0
  0
VERTEX
  5
7E4
  8
0
 10
59.239920413999052
 20
117.537106320078
 30
0.0
  0
VERTEX
  5
7E5
  8
0
 10
59.265035336048399
 20
117.52865448680321
 30
0.0
  0
VERTEX
  5
7E6
  8
0
 10
59.315426405191197
 20
117.5123310259678
 30
0.0
  0
VERTEX
  5
7E7
  8
0
 10
59.366015200435889
 20
117.49678504985501
 30
0.0
  0
VERTEX
  5
7E8
  8
0
 10
59.416780793619829
 20
117.48202061768001
 30
0.0
  0
VERTEX
  5
7E9
  8
0
 10
59.467702028040549
 20
117.4680410920913
 30
0.0
  0
VERTEX
  5
7EA
  8
0
 10
59.518757569473621
 20
117.45484912186031
 30
0.0
  0
VERTEX
  5
7EB
  8
0
 10
59.544329002629993
 20
117.4485490990775
 30
0.0
  0
VERTEX
  5
7EC
  8
0
 10
59.56992595826533
 20
117.442446628086
 30
0.0
  0
VERTEX
  5
7ED
  8
0
 10
59.621185662572891
 20
117.4308347939032
 30
0.0
  0
VERTEX
  5
7EE
  8
0
 10
59.672515132834498
 20
117.4200140577008
 30
0.0
  0
VERTEX
  5
7EF
  8
0
 10
59.72389301657698
 20
117.4099840800645
 30
0.0
  0
VERTEX
  5
7F0
  8
0
 10
59.775298399047067
 20
117.4007437247955
 30
0.0
  0
VERTEX
  5
7F1
  8
0
 10
59.826709275922163
 20
117.39229133752021
 30
0.0
  0
VERTEX
  5
7F2
  8
0
 10
59.852409808618852
 20
117.3883599227759
 30
0.0
  0
VERTEX
  5
7F3
  8
0
 10
59.878103336147419
 20
117.384624556163
 30
0.0
  0
VERTEX
  5
7F4
  8
0
 10
59.929458129734769
 20
117.37774027064501
 30
0.0
  0
VERTEX
  5
7F5
  8
0
 10
59.980751122172713
 20
117.3716346096012
 30
0.0
  0
VERTEX
  5
7F6
  8
0
 10
60.006367391340341
 20
117.368872342893
 30
0.0
  0
SEQEND
  5
7F7
  8
0
  0
POLYLINE
  5
396
  8
0
 66
     1
 10
0.0
 20
0.0
 30
0.0
  0
VERTEX
  5
7F8
  8
0
 10
120.73122335027161
 20
117.36887237613089
 30
0.0
  0
VERTEX
  5
7F9
  8
0
 10
120.7568396108437
 20
117.3716346442577
 30
0.0
  0
VERTEX
  5
7FA
  8
0
 10
120.8081325859465
 20
117.3777403077581
 30
0.0
  0
VERTEX
  5
7FB
  8
0
 10
120.8594873620267
 20
117.3846245952177
 30
0.0
  0
VERTEX
  5
7FC
  8
0
 10
120.8851808807448
 20
117.3883599626057
 30
0.0
  0
VERTEX
  5
7FD
  8
0
 10
120.91088140459701
 20
117.3922913779933
 30
0.0
  0
VERTEX
  5
7FE
  8
0
 10
120.9622922636933
 20
117.40074376615649
 30
0.0
  0
VERTEX
  5
7FF
  8
0
 10
121.0136976282849
 20
117.4099841217771
 30
0.0
  0
VERTEX
  5
800
  8
0
 10
121.0650754940753
 20
117.42001409922401
 30
0.0
  0
VERTEX
  5
801
  8
0
 10
121.11640494633509
 20
117.4308348346925
 30
0.0
  0
VERTEX
  5
802
  8
0
 10
121.16766463261089
 20
117.4424466675932
 30
0.0
  0
VERTEX
  5
803
  8
0
 10
121.1932615792261
 20
117.4485491377374
 30
0.0
  0
VERTEX
  5
804
  8
0
 10
121.2188330033632
 20
117.4548491595352
 30
0.0
  0
VERTEX
  5
805
  8
0
 10
121.26988852677169
 20
117.46804112738241
 30
0.0
  0
VERTEX
  5
806
  8
0
 10
121.3208097432052
 20
117.48202065003591
 30
0.0
  0
VERTEX
  5
807
  8
0
 10
121.37157531846189
 20
117.4967850787252
 30
0.0
  0
VERTEX
  5
808
  8
0
 10
121.4221640958618
 20
117.51233105080399
 30
0.0
  0
VERTEX
  5
809
  8
0
 10
121.4725551472643
 20
117.52865450706
 30
0.0
  0
VERTEX
  5
80A
  8
0
 10
121.4976700604895
 20
117.53710633784181
 30
0.0
  0
VERTEX
  5
80B
  8
0
 10
121.5227278230724
 20
117.5457507125676
 30
0.0
  0
VERTEX
  5
80C
  8
0
 10
121.5726618012711
 20
117.56361428112641
 30
0.0
  0
VERTEX
  5
80D
  8
0
 10
121.6223371355357
 20
117.5822392033411
 30
0.0
  0
VERTEX
  5
80E
  8
0
 10
121.6470716923274
 20
117.59183513147561
 30
0.0
  0
SEQEND
  5
80F
  8
0
  0
POLYLINE
  5
397
  8
0
 66
     1
 10
0.0
 20
0.0
 30
0.0
  0
VERTEX
  5
810
  8
0
 10
121.6470716923274
 20
117.59183513147561
 30
0.0
  0
VERTEX
  5
811
  8
0
 10
121.6677370292462
 20
117.60001843733779
 30
0.0
  0
VERTEX
  5
812
  8
0
 10
121.70895994133249
 20
117.6167987364279
 30
0.0
  0
VERTEX
  5
813
  8
0
 10
121.7500218211233
 20
117.63412578926309
 30
0.0
  0
VERTEX
  5
814
  8
0
 10
121.7704859449334
 20
117.6429923630247
 30
0.0
  0
VERTEX
  5
815
  8
0
 10
121.79090214564719
 20
117.6519931538005
 30
0.0
  0
VERTEX
  5
816
  8
0
 10
121.831580817332
 20
117.6703936899937
 30
0.0
  0
VERTEX
  5
817
  8
0
 10
121.8720384442729
 20
117.6893197009222
 30
0.0
  0
VERTEX
  5
818
  8
0
 10
121.91225697961831
 20
117.708763276394
 30
0.0
  0
VERTEX
  5
819
  8
0
 10
121.9522182568104
 20
117.7287156306429
 30
0.0
  0
VERTEX
  5
81A
  8
0
 10
121.9919042289892
 20
117.7491671924417
 30
0.0
  0
VERTEX
  5
81B
  8
0
 10
122.0116384087401
 20
117.7595769872959
 30
0.0
  0
VERTEX
  5
81C
  8
0
 10
122.0312971238221
 20
117.7701076709498
 30
0.0
  0
VERTEX
  5
81D
  8
0
 10
122.07037952834131
 20
117.79152609655731
 30
0.0
  0
VERTEX
  5
81E
  8
0
 10
122.1091344649997
 20
117.81341086422231
 30
0.0
  0
VERTEX
  5
81F
  8
0
 10
122.1475454593792
 20
117.8357497788668
 30
0.0
  0
VERTEX
  5
820
  8
0
 10
122.1855966000448
 20
117.85853010245749
 30
0.0
  0
VERTEX
  5
821
  8
0
 10
122.22327259107171
 20
117.88173860246221
 30
0.0
  0
VERTEX
  5
822
  8
0
 10
122.24196530518719
 20
117.8934991604205
 30
0.0
  0
VERTEX
  5
823
  8
0
 10
122.2605587977983
 20
117.9053616014296
 30
0.0
  0
VERTEX
  5
824
  8
0
 10
122.2974412916988
 20
117.9293850310211
 30
0.0
  0
VERTEX
  5
825
  8
0
 10
122.333911537586
 20
117.9537976410725
 30
0.0
  0
VERTEX
  5
826
  8
0
 10
122.351989613795
 20
117.9661463893884
 30
0.0
  0
VERTEX
  5
827
  8
0
 10
122.3699609046412
 20
117.97858763503351
 30
0.0
  0
VERTEX
  5
828
  8
0
 10
122.4055769927441
 20
118.00374000834169
 30
0.0
  0
VERTEX
  5
829
  8
0
 10
122.44074776397289
 20
118.02923920054489
 30
0.0
  0
VERTEX
  5
82A
  8
0
 10
122.458162506097
 20
118.0421138482114
 30
0.0
  0
VERTEX
  5
82B
  8
0
 10
122.47546159544849
 20
118.05506913238349
 30
0.0
  0
VERTEX
  5
82C
  8
0
 10
122.509707325241
 20
118.0812132430266
 30
0.0
  0
VERTEX
  5
82D
  8
0
 10
122.5434742918961
 20
118.107654527268
 30
0.0
  0
VERTEX
  5
82E
  8
0
 10
122.5767523681379
 20
118.13437557254341
 30
0.0
  0
VERTEX
  5
82F
  8
0
 10
122.60953198929521
 20
118.16135859567881
 30
0.0
  0
VERTEX
  5
830
  8
0
 10
122.641804176983
 20
118.18858547932921
 30
0.0
  0
VERTEX
  5
831
  8
0
 10
122.6577473427073
 20
118.20228462469881
 30
0.0
  0
VERTEX
  5
832
  8
0
 10
122.67356055854709
 20
118.2160378081056
 30
0.0
  0
VERTEX
  5
833
  8
0
 10
122.7047933815774
 20
118.24369690337291
 30
0.0
  0
VERTEX
  5
834
  8
0
 10
122.7354954574064
 20
118.27154379554079
 30
0.0
  0
VERTEX
  5
835
  8
0
 10
122.7656600047448
 20
118.29955909604659
 30
0.0
  0
VERTEX
  5
836
  8
0
 10
122.7952806372664
 20
118.32772298775841
 30
0.0
  0
VERTEX
  5
837
  8
0
 10
122.82435139429499
 20
118.3560152562666
 30
0.0
  0
VERTEX
  5
838
  8
0
 10
122.83867882957099
 20
118.3702031137163
 30
0.0
  0
VERTEX
  5
839
  8
0
 10
122.8528667663861
 20
118.3844153204127
 30
0.0
  0
VERTEX
  5
83A
  8
0
 10
122.8808217161927
 20
118.41290226195299
 30
0.0
  0
VERTEX
  5
83B
  8
0
 10
122.9082116950558
 20
118.44145485434591
 30
0.0
  0
VERTEX
  5
83C
  8
0
 10
122.9995736666703
 20
118.54159320838841
 30
0.0
  0
VERTEX
  5
83D
  8
0
 10
123.143681380462
 20
118.7169824398169
 30
0.0
  0
VERTEX
  5
83E
  8
0
 10
123.2761426113326
 20
118.90138273324411
 30
0.0
  0
VERTEX
  5
83F
  8
0
 10
123.337753029156
 20
118.99660353056549
 30
0.0
  0
VERTEX
  5
840
  8
0
 10
123.3961622435111
 20
119.093626208667
 30
0.0
  0
VERTEX
  5
841
  8
0
 10
123.50308665092849
 20
119.2924250110548
 30
0.0
  0
VERTEX
  5
842
  8
0
 10
123.59644057381909
 20
119.4964301594087
 30
0.0
  0
VERTEX
  5
843
  8
0
 10
123.6759220813681
 20
119.70423326019851
 30
0.0
  0
VERTEX
  5
844
  8
0
 10
123.7414260388604
 20
119.9144494724038
 30
0.0
  0
VERTEX
  5
845
  8
0
 10
123.7930024945003
 20
120.12562301851879
 30
0.0
  0
VERTEX
  5
846
  8
0
 10
123.8136296159485
 20
120.23109333387229
 30
0.0
  0
VERTEX
  5
847
  8
0
 10
123.830872903017
 20
120.3362300489799
 30
0.0
  0
VERTEX
  5
848
  8
0
 10
123.8554517254685
 20
120.5447270164578
 30
0.0
  0
VERTEX
  5
849
  8
0
 10
123.8673514174933
 20
120.7495359231533
 30
0.0
  0
VERTEX
  5
84A
  8
0
 10
123.86879521117829
 20
120.8500569222291
 30
0.0
  0
SEQEND
  5
84B
  8
0
  0
POLYLINE
  5
39B
  8
0
 66
     1
 10
0.0
 20
0.0
 30
0.0
  0
VERTEX
  5
84C
  8
0
 10
120.7312230310163
 20
130.21634198816511
 30
0.0
  0
VERTEX
  5
84D
  8
0
 10
119.1074250547092
 20
130.3808295859626
 30
0.0
  0
VERTEX
  5
84E
  8
0
 10
115.8281095354847
 20
130.6852144490085
 30
0.0
  0
VERTEX
  5
84F
  8
0
 10
112.51068183020701
 20
130.9553920095459
 30
0.0
  0
VERTEX
  5
850
  8
0
 10
110.8392532535572
 20
131.07716809578019
 30
0.0
  0
VERTEX
  5
851
  8
0
 10
109.16018927996841
 20
131.1898366530817
 30
0.0
  0
VERTEX
  5
852
  8
0
 10
105.7816640180118
 20
131.3872343257915
 30
0.0
  0
VERTEX
  5
853
  8
0
 10
102.38020451096
 20
131.54648109632589
 30
0.0
  0
VERTEX
  5
854
  8
0
 10
98.960949396694105
 20
131.66669005347899
 30
0.0
  0
VERTEX
  5
855
  8
0
 10
95.529047676488673
 20
131.74719597360971
 30
0.0
  0
VERTEX
  5
856
  8
0
 10
92.089669252878736
 20
131.7875571899697
 30
0.0
  0
VERTEX
  5
857
  8
0
 10
90.368795041415424
 20
131.79260716552929
 30
0.0
  0
VERTEX
  5
858
  8
0
 10
88.647920830001596
 20
131.7875571879772
 30
0.0
  0
VERTEX
  5
859
  8
0
 10
85.208542406873676
 20
131.74719596764291
 30
0.0
  0
VERTEX
  5
85A
  8
0
 10
81.776640687661157
 20
131.6666900435703
 30
0.0
  0
VERTEX
  5
85B
  8
0
 10
78.357385574896966
 20
131.54648108252979
 30
0.0
  0
VERTEX
  5
85C
  8
0
 10
74.955926069854215
 20
131.3872343081847
 30
0.0
  0
VERTEX
  5
85D
  8
0
 10
71.577400810412726
 20
131.1898366317624
 30
0.0
  0
VERTEX
  5
85E
  8
0
 10
69.898336838269074
 20
131.07716807264831
 30
0.0
  0
VERTEX
  5
85F
  8
0
 10
68.226908263187525
 20
130.95539198463351
 30
0.0
  0
VERTEX
  5
860
  8
0
 10
64.90948056142075
 20
130.68521442064309
 30
0.0
  0
VERTEX
  5
861
  8
0
 10
61.630165046203757
 20
130.3808295543048
 30
0.0
  0
VERTEX
  5
862
  8
0
 10
60.006367072085041
 20
130.2163419549276
 30
0.0
  0
SEQEND
  5
863
  8
0
  0
POLYLINE
  5
3A7
  8
0
 66
     1
 10
0.0
 20
0.0
 30
0.0
  0
VERTEX
  5
864
  8
0
 10
59.090518730029373
 20
129.99337919958259
 30
0.0
  0
VERTEX
  5
865
  8
0
 10
59.06985339311052
 20
129.98519589372029
 30
0.0
  0
VERTEX
  5
866
  8
0
 10
59.028630481024223
 20
129.9684155946303
 30
0.0
  0
VERTEX
  5
867
  8
0
 10
58.987568601233413
 20
129.951088541795
 30
0.0
  0
VERTEX
  5
868
  8
0
 10
58.967104477423362
 20
129.94222196803349
 30
0.0
  0
VERTEX
  5
869
  8
0
 10
58.94668827670958
 20
129.93322117725759
 30
0.0
  0
VERTEX
  5
86A
  8
0
 10
58.906009605024707
 20
129.91482064106441
 30
0.0
  0
VERTEX
  5
86B
  8
0
 10
58.865551978083793
 20
129.89589463013601
 30
0.0
  0
VERTEX
  5
86C
  8
0
 10
58.825333442738419
 20
129.8764510546641
 30
0.0
  0
VERTEX
  5
86D
  8
0
 10
58.785372165546292
 20
129.85649870041519
 30
0.0
  0
VERTEX
  5
86E
  8
0
 10
58.745686193367511
 20
129.83604713861641
 30
0.0
  0
VERTEX
  5
86F
  8
0
 10
58.725952013616578
 20
129.8256373437622
 30
0.0
  0
VERTEX
  5
870
  8
0
 10
58.706293298534654
 20
129.81510666010831
 30
0.0
  0
VERTEX
  5
871
  8
0
 10
58.667210894015398
 20
129.79368823450091
 30
0.0
  0
VERTEX
  5
872
  8
0
 10
58.628455957357033
 20
129.77180346683579
 30
0.0
  0
VERTEX
  5
873
  8
0
 10
58.590044962977522
 20
129.7494645521914
 30
0.0
  0
VERTEX
  5
874
  8
0
 10
58.55199382231195
 20
129.72668422860059
 30
0.0
  0
VERTEX
  5
875
  8
0
 10
58.514317831285013
 20
129.70347572859589
 30
0.0
  0
VERTEX
  5
876
  8
0
 10
58.495625117169531
 20
129.69171517063771
 30
0.0
  0
VERTEX
  5
877
  8
0
 10
58.477031624558428
 20
129.67985272962861
 30
0.0
  0
VERTEX
  5
878
  8
0
 10
58.4401491306579
 20
129.65582930003711
 30
0.0
  0
VERTEX
  5
879
  8
0
 10
58.40367888477072
 20
129.6314166899856
 30
0.0
  0
VERTEX
  5
87A
  8
0
 10
58.385600808561719
 20
129.61906794166981
 30
0.0
  0
VERTEX
  5
87B
  8
0
 10
58.367629517715557
 20
129.60662669602459
 30
0.0
  0
VERTEX
  5
87C
  8
0
 10
58.332013429612658
 20
129.5814743227165
 30
0.0
  0
VERTEX
  5
87D
  8
0
 10
58.29684265838381
 20
129.5559751305133
 30
0.0
  0
VERTEX
  5
87E
  8
0
 10
58.279427916259749
 20
129.5431004828468
 30
0.0
  0
VERTEX
  5
87F
  8
0
 10
58.262128826908231
 20
129.5301451986746
 30
0.0
  0
VERTEX
  5
880
  8
0
 10
58.227883097115743
 20
129.50400108803149
 30
0.0
  0
VERTEX
  5
881
  8
0
 10
58.1941161304606
 20
129.47755980379009
 30
0.0
  0
VERTEX
  5
882
  8
0
 10
58.160838054218793
 20
129.45083875851469
 30
0.0
  0
VERTEX
  5
883
  8
0
 10
58.128058433061511
 20
129.42385573537931
 30
0.0
  0
VERTEX
  5
884
  8
0
 10
58.095786245373773
 20
129.39662885172891
 30
0.0
  0
VERTEX
  5
885
  8
0
 10
58.079843079649429
 20
129.38292970635939
 30
0.0
  0
VERTEX
  5
886
  8
0
 10
58.064029863809658
 20
129.36917652295261
 30
0.0
  0
VERTEX
  5
887
  8
0
 10
58.0327970407793
 20
129.3415174276852
 30
0.0
  0
VERTEX
  5
888
  8
0
 10
58.002094964950281
 20
129.3136705355173
 30
0.0
  0
VERTEX
  5
889
  8
0
 10
57.971930417611937
 20
129.28565523501149
 30
0.0
  0
VERTEX
  5
88A
  8
0
 10
57.942309785090373
 20
129.25749134329971
 30
0.0
  0
VERTEX
  5
88B
  8
0
 10
57.913239028061682
 20
129.22919907479161
 30
0.0
  0
VERTEX
  5
88C
  8
0
 10
57.898911592785751
 20
129.2150112173419
 30
0.0
  0
VERTEX
  5
88D
  8
0
 10
57.884723655970667
 20
129.20079901064551
 30
0.0
  0
VERTEX
  5
88E
  8
0
 10
57.856768706164068
 20
129.17231206910509
 30
0.0
  0
VERTEX
  5
88F
  8
0
 10
57.829378727300913
 20
129.14375947671221
 30
0.0
  0
VERTEX
  5
890
  8
0
 10
57.738016755686402
 20
129.04362112266969
 30
0.0
  0
VERTEX
  5
891
  8
0
 10
57.593909041894683
 20
128.86823189124121
 30
0.0
  0
VERTEX
  5
892
  8
0
 10
57.461447811024122
 20
128.68383159781399
 30
0.0
  0
VERTEX
  5
893
  8
0
 10
57.399837393200691
 20
128.5886108004926
 30
0.0
  0
VERTEX
  5
894
  8
0
 10
57.341428178845561
 20
128.49158812239119
 30
0.0
  0
VERTEX
  5
895
  8
0
 10
57.23450377142818
 20
128.29278932000341
 30
0.0
  0
VERTEX
  5
896
  8
0
 10
57.141149848537651
 20
128.08878417164951
 30
0.0
  0
VERTEX
  5
897
  8
0
 10
57.06166834098866
 20
127.8809810708596
 30
0.0
  0
VERTEX
  5
898
  8
0
 10
56.996164383496307
 20
127.67076485865429
 30
0.0
  0
VERTEX
  5
899
  8
0
 10
56.944587927856432
 20
127.4595913125394
 30
0.0
  0
VERTEX
  5
89A
  8
0
 10
56.923960806408161
 20
127.3541209971858
 30
0.0
  0
VERTEX
  5
89B
  8
0
 10
56.906717519339701
 20
127.2489842820782
 30
0.0
  0
VERTEX
  5
89C
  8
0
 10
56.882138696888262
 20
127.0404873146003
 30
0.0
  0
VERTEX
  5
89D
  8
0
 10
56.870239004863429
 20
126.83567840790479
 30
0.0
  0
VERTEX
  5
89E
  8
0
 10
56.868795211178373
 20
126.735157408829
 30
0.0
  0
SEQEND
  5
89F
  8
0
  0
POLYLINE
  5
3AB
  8
0
 66
     1
 10
0.0
 20
0.0
 30
0.0
  0
VERTEX
  5
8A0
  8
0
 10
60.006367072085077
 20
130.2163419549272
 30
0.0
  0
VERTEX
  5
8A1
  8
0
 10
59.980751620519683
 20
130.21357977705119
 30
0.0
  0
VERTEX
  5
8A2
  8
0
 10
59.929459951564041
 20
130.2074742909208
 30
0.0
  0
VERTEX
  5
8A3
  8
0
 10
59.878106102534332
 20
130.20059016660369
 30
0.0
  0
VERTEX
  5
8A4
  8
0
 10
59.852412918822687
 20
130.1968548722335
 30
0.0
  0
VERTEX
  5
8A5
  8
0
 10
59.826712651489757
 20
130.1929235227357
 30
0.0
  0
VERTEX
  5
8A6
  8
0
 10
59.775302091243987
 20
130.18447124154849
 30
0.0
  0
VERTEX
  5
8A7
  8
0
 10
59.72389677478359
 20
130.17523095553341
 30
0.0
  0
VERTEX
  5
8A8
  8
0
 10
59.67251873705775
 20
130.16520100499309
 30
0.0
  0
VERTEX
  5
8A9
  8
0
 10
59.62118893326771
 20
130.1543802522875
 30
0.0
  0
VERTEX
  5
8AA
  8
0
 10
59.569928771229343
 20
130.14276836243309
 30
0.0
  0
VERTEX
  5
8AB
  8
0
 10
59.544331553325136
 20
130.13666585022369
 30
0.0
  0
VERTEX
  5
8AC
  8
0
 10
59.518759842596829
 20
130.13036577830511
 30
0.0
  0
VERTEX
  5
8AD
  8
0
 10
59.46770372077804
 20
130.1171736899737
 30
0.0
  0
VERTEX
  5
8AE
  8
0
 10
59.416781906292009
 20
130.1031940278875
 30
0.0
  0
VERTEX
  5
8AF
  8
0
 10
59.366015773360118
 20
130.08842945253329
 30
0.0
  0
VERTEX
  5
8B0
  8
0
 10
59.315426517646863
 20
130.07288334058069
 30
0.0
  0
VERTEX
  5
8B1
  8
0
 10
59.26503510507726
 20
130.0565597674991
 30
0.0
  0
VERTEX
  5
8B2
  8
0
 10
59.239920066637417
 20
130.04810789261799
 30
0.0
  0
VERTEX
  5
8B3
  8
0
 10
59.214862221668497
 20
130.0394634866191
 30
0.0
  0
VERTEX
  5
8B4
  8
0
 10
59.164928224326943
 20
130.02159990459381
 30
0.0
  0
VERTEX
  5
8B5
  8
0
 10
59.11525309257452
 20
130.00297505320361
 30
0.0
  0
VERTEX
  5
8B6
  8
0
 10
59.090518730029338
 20
129.99337919958251
 30
0.0
  0
SEQEND
  5
8B7
  8
0
  0
POLYLINE
  5
3B6
  8
0
 66
     1
 10
0.0
 20
0.0
 30
0.0
  0
VERTEX
  5
8B8
  8
0
 10
60.006367391340341
 20
117.368872342893
 30
0.0
  0
VERTEX
  5
8B9
  8
0
 10
61.630165367647521
 20
117.2043847450956
 30
0.0
  0
VERTEX
  5
8BA
  8
0
 10
64.909480886872032
 20
116.8999998820497
 30
0.0
  0
VERTEX
  5
8BB
  8
0
 10
68.226908592149726
 20
116.62982232151229
 30
0.0
  0
VERTEX
  5
8BC
  8
0
 10
69.898337168799543
 20
116.5080462352779
 30
0.0
  0
VERTEX
  5
8BD
  8
0
 10
71.577401142388354
 20
116.3953776779765
 30
0.0
  0
VERTEX
  5
8BE
  8
0
 10
74.955926404344964
 20
116.1979800052667
 30
0.0
  0
VERTEX
  5
8BF
  8
0
 10
78.357385911396847
 20
116.03873323473231
 30
0.0
  0
VERTEX
  5
8C0
  8
0
 10
81.776641025662713
 20
115.91852427757919
 30
0.0
  0
VERTEX
  5
8C1
  8
0
 10
85.208542745868129
 20
115.8380183574486
 30
0.0
  0
VERTEX
  5
8C2
  8
0
 10
88.647921169478067
 20
115.79765714108861
 30
0.0
  0
VERTEX
  5
8C3
  8
0
 10
90.368795380941378
 20
115.79260716552901
 30
0.0
  0
VERTEX
  5
8C4
  8
0
 10
92.089669592355236
 20
115.7976571430811
 30
0.0
  0
VERTEX
  5
8C5
  8
0
 10
95.529048015483113
 20
115.8380183634155
 30
0.0
  0
VERTEX
  5
8C6
  8
0
 10
98.960949734695646
 20
115.9185242874881
 30
0.0
  0
VERTEX
  5
8C7
  8
0
 10
102.38020484745979
 20
116.0387332485286
 30
0.0
  0
VERTEX
  5
8C8
  8
0
 10
105.7816643525025
 20
116.19798002287369
 30
0.0
  0
VERTEX
  5
8C9
  8
0
 10
109.16018961194401
 20
116.39537769929601
 30
0.0
  0
VERTEX
  5
8CA
  8
0
 10
110.8392535840877
 20
116.5080462584101
 30
0.0
  0
VERTEX
  5
8CB
  8
0
 10
112.51068215916921
 20
116.629822346425
 30
0.0
  0
VERTEX
  5
8CC
  8
0
 10
115.8281098609359
 20
116.8999999104153
 30
0.0
  0
VERTEX
  5
8CD
  8
0
 10
119.1074253761529
 20
117.2043847767537
 30
0.0
  0
VERTEX
  5
8CE
  8
0
 10
120.7312233502717
 20
117.3688723761308
 30
0.0
  0
SEQEND
  5
8CF
  8
0
  0
POLYLINE
  5
3BA
  8
0
 66
     1
 10
0.0
 20
0.0
 30
0.0
  0
VERTEX
  5
8D0
  8
0
 10
123.86879521117829
 20
126.735157408829
 30
0.0
  0
VERTEX
  5
8D1
  8
0
 10
123.8673514174933
 20
126.83567840790479
 30
0.0
  0
VERTEX
  5
8D2
  8
0
 10
123.8554517254685
 20
127.0404873146003
 30
0.0
  0
VERTEX
  5
8D3
  8
0
 10
123.830872903017
 20
127.2489842820782
 30
0.0
  0
VERTEX
  5
8D4
  8
0
 10
123.8136296159485
 20
127.3541209971857
 30
0.0
  0
VERTEX
  5
8D5
  8
0
 10
123.7930024945003
 20
127.4595913125393
 30
0.0
  0
VERTEX
  5
8D6
  8
0
 10
123.7414260388604
 20
127.67076485865429
 30
0.0
  0
VERTEX
  5
8D7
  8
0
 10
123.6759220813681
 20
127.8809810708596
 30
0.0
  0
VERTEX
  5
8D8
  8
0
 10
123.59644057381909
 20
128.08878417164951
 30
0.0
  0
VERTEX
  5
8D9
  8
0
 10
123.50308665092849
 20
128.29278932000341
 30
0.0
  0
VERTEX
  5
8DA
  8
0
 10
123.3961622435111
 20
128.49158812239119
 30
0.0
  0
VERTEX
  5
8DB
  8
0
 10
123.337753029156
 20
128.5886108004926
 30
0.0
  0
VERTEX
  5
8DC
  8
0
 10
123.2761426113326
 20
128.68383159781399
 30
0.0
  0
VERTEX
  5
8DD
  8
0
 10
123.143681380462
 20
128.86823189124121
 30
0.0
  0
VERTEX
  5
8DE
  8
0
 10
122.9995736666703
 20
129.04362112266969
 30
0.0
  0
VERTEX
  5
8DF
  8
0
 10
122.9082116950558
 20
129.14375947671221
 30
0.0
  0
VERTEX
  5
8E0
  8
0
 10
122.8808217161927
 20
129.17231206910509
 30
0.0
  0
VERTEX
  5
8E1
  8
0
 10
122.8528667663861
 20
129.20079901064551
 30
0.0
  0
VERTEX
  5
8E2
  8
0
 10
122.83867882957099
 20
129.21501121734181
 30
0.0
  0
VERTEX
  5
8E3
  8
0
 10
122.82435139429499
 20
129.22919907479161
 30
0.0
  0
VERTEX
  5
8E4
  8
0
 10
122.7952806372664
 20
129.25749134329971
 30
0.0
  0
VERTEX
  5
8E5
  8
0
 10
122.7656600047448
 20
129.28565523501149
 30
0.0
  0
VERTEX
  5
8E6
  8
0
 10
122.7354954574064
 20
129.3136705355173
 30
0.0
  0
VERTEX
  5
8E7
  8
0
 10
122.7047933815774
 20
129.3415174276852
 30
0.0
  0
VERTEX
  5
8E8
  8
0
 10
122.67356055854709
 20
129.36917652295261
 30
0.0
  0
VERTEX
  5
8E9
  8
0
 10
122.6577473427073
 20
129.38292970635931
 30
0.0
  0
VERTEX
  5
8EA
  8
0
 10
122.641804176983
 20
129.39662885172891
 30
0.0
  0
VERTEX
  5
8EB
  8
0
 10
122.60953198929521
 20
129.42385573537931
 30
0.0
  0
VERTEX
  5
8EC
  8
0
 10
122.5767523681379
 20
129.45083875851469
 30
0.0
  0
VERTEX
  5
8ED
  8
0
 10
122.5434742918961
 20
129.47755980379009
 30
0.0
  0
VERTEX
  5
8EE
  8
0
 10
122.509707325241
 20
129.50400108803149
 30
0.0
  0
VERTEX
  5
8EF
  8
0
 10
122.47546159544849
 20
129.5301451986746
 30
0.0
  0
VERTEX
  5
8F0
  8
0
 10
122.458162506097
 20
129.5431004828468
 30
0.0
  0
VERTEX
  5
8F1
  8
0
 10
122.44074776397289
 20
129.55597513051319
 30
0.0
  0
VERTEX
  5
8F2
  8
0
 10
122.4055769927441
 20
129.5814743227165
 30
0.0
  0
VERTEX
  5
8F3
  8
0
 10
122.3699609046412
 20
129.60662669602459
 30
0.0
  0
VERTEX
  5
8F4
  8
0
 10
122.351989613795
 20
129.61906794166981
 30
0.0
  0
VERTEX
  5
8F5
  8
0
 10
122.333911537586
 20
129.6314166899856
 30
0.0
  0
VERTEX
  5
8F6
  8
0
 10
122.2974412916988
 20
129.65582930003711
 30
0.0
  0
VERTEX
  5
8F7
  8
0
 10
122.2605587977983
 20
129.67985272962861
 30
0.0
  0
VERTEX
  5
8F8
  8
0
 10
122.24196530518719
 20
129.69171517063759
 30
0.0
  0
VERTEX
  5
8F9
  8
0
 10
122.22327259107171
 20
129.70347572859589
 30
0.0
  0
VERTEX
  5
8FA
  8
0
 10
122.1855966000448
 20
129.72668422860059
 30
0.0
  0
VERTEX
  5
8FB
  8
0
 10
122.1475454593792
 20
129.7494645521914
 30
0.0
  0
VERTEX
  5
8FC
  8
0
 10
122.1091344649997
 20
129.77180346683579
 30
0.0
  0
VERTEX
  5
8FD
  8
0
 10
122.07037952834131
 20
129.79368823450091
 30
0.0
  0
VERTEX
  5
8FE
  8
0
 10
122.0312971238221
 20
129.81510666010831
 30
0.0
  0
VERTEX
  5
8FF
  8
0
 10
122.0116384087401
 20
129.8256373437622
 30
0.0
  0
VERTEX
  5
900
  8
0
 10
121.9919042289892
 20
129.83604713861641
 30
0.0
  0
VERTEX
  5
901
  8
0
 10
121.9522182568104
 20
129.85649870041519
 30
0.0
  0
VERTEX
  5
902
  8
0
 10
121.91225697961831
 20
129.8764510546641
 30
0.0
  0
VERTEX
  5
903
  8
0
 10
121.8720384442729
 20
129.89589463013601
 30
0.0
  0
VERTEX
  5
904
  8
0
 10
121.831580817332
 20
129.91482064106441
 30
0.0
  0
VERTEX
  5
905
  8
0
 10
121.79090214564719
 20
129.93322117725759
 30
0.0
  0
VERTEX
  5
906
  8
0
 10
121.7704859449334
 20
129.94222196803349
 30
0.0
  0
VERTEX
  5
907
  8
0
 10
121.7500218211233
 20
129.951088541795
 30
0.0
  0
VERTEX
  5
908
  8
0
 10
121.70895994133249
 20
129.9684155946303
 30
0.0
  0
VERTEX
  5
909
  8
0
 10
121.6677370292462
 20
129.98519589372029
 30
0.0
  0
VERTEX
  5
90A
  8
0
 10
121.6470716923274
 20
129.99337919958259
 30
0.0
  0
SEQEND
  5
90B
  8
0
  0
POLYLINE
  5
3BB
  8
0
 66
     1
 10
0.0
 20
0.0
 30
0.0
  0
VERTEX
  5
90C
  8
0
 10
121.6470716923274
 20
129.99337919958259
 30
0.0
  0
VERTEX
  5
90D
  8
0
 10
121.6223373212031
 20
130.00297505649459
 30
0.0
  0
VERTEX
  5
90E
  8
0
 10
121.5726621721529
 20
130.02159991407291
 30
0.0
  0
VERTEX
  5
90F
  8
0
 10
121.5227281573446
 20
130.03946350175571
 30
0.0
  0
VERTEX
  5
910
  8
0
 10
121.49767030358549
 20
130.04810791038241
 30
0.0
  0
VERTEX
  5
911
  8
0
 10
121.4725552563211
 20
130.0565597877567
 30
0.0
  0
VERTEX
  5
912
  8
0
 10
121.42216382601021
 20
130.07288336541791
 30
0.0
  0
VERTEX
  5
913
  8
0
 10
121.37157455245119
 20
130.08842948140469
 30
0.0
  0
VERTEX
  5
914
  8
0
 10
121.32080840159119
 20
130.10319406024479
 30
0.0
  0
VERTEX
  5
915
  8
0
 10
121.26988656911711
 20
130.1171737252663
 30
0.0
  0
VERTEX
  5
916
  8
0
 10
121.218830429273
 20
130.13036581598149
 30
0.0
  0
VERTEX
  5
917
  8
0
 10
121.1932587095251
 20
130.13666588888509
 30
0.0
  0
VERTEX
  5
918
  8
0
 10
121.16766148260039
 20
130.14276840194191
 30
0.0
  0
VERTEX
  5
919
  8
0
 10
121.11640130252979
 20
130.1543802930783
 30
0.0
  0
VERTEX
  5
91A
  8
0
 10
121.0650714807379
 20
130.16520104651761
 30
0.0
  0
VERTEX
  5
91B
  8
0
 10
121.0136934250601
 20
130.1752309972471
 30
0.0
  0
VERTEX
  5
91C
  8
0
 10
120.9622880907218
 20
130.18447128291049
 30
0.0
  0
VERTEX
  5
91D
  8
0
 10
120.91087751269809
 20
130.19292356320949
 30
0.0
  0
VERTEX
  5
91E
  8
0
 10
120.8851772365212
 20
130.19685491206391
 30
0.0
  0
VERTEX
  5
91F
  8
0
 10
120.8594840439997
 20
130.2005902056589
 30
0.0
  0
VERTEX
  5
920
  8
0
 10
120.80813017746451
 20
130.2074743280341
 30
0.0
  0
VERTEX
  5
921
  8
0
 10
120.756838491176
 20
130.21357981170769
 30
0.0
  0
VERTEX
  5
922
  8
0
 10
120.7312230310163
 20
130.21634198816511
 30
0.0
  0
SEQEND
  5
923
  8
0
  0
LINE
  5
42B
  8
1
 10
50.490043594913658
 20
123.79260716552911
 30
0.0
 11
130.2475468274431
 21
123.79260716552911
 31
0.0
  0
LINE
  5
42C
  8
1
 10
90.368795211178366
 20
104.8226518382552
 30
0.0
 11
90.368795211178366
 21
142.762562492803
 31
0.0
  0
LINE
  5
444
  8
2
 10
163.22977322703369
 20
84.711639104884171
 30
0.0
 11
163.22977322703369
 21
85.211639104884156
 31
0.0
  0
LINE
  5
445
  8
2
 10
151.22977322703369
 20
85.211639104884156
 30
0.0
 11
151.22977322703369
 21
84.711639104884171
 31
0.0
  0
LINE
  5
446
  8
0
 10
162.0297732270337
 20
46.211639104884171
 30
0.0
 11
162.0297732270337
 21
46.411639104884173
 31
0.0
  0
LINE
  5
447
  8
0
 10
152.42977322703371
 20
46.411639104884173
 30
0.0
 11
152.42977322703371
 21
46.211639104884171
 31
0.0
  0
LINE
  5
448
  8
0
 10
163.22977322703369
 20
85.21008441137883
 30
0.0
 11
151.22977322703369
 21
85.211639104884156
 31
0.0
  0
LINE
  5
449
  8
0
 10
151.22977322703369
 20
85.211639104884284
 30
0.0
 11
149.22977322703369
 21
85.211639104884284
 31
0.0
  0
LINE
  5
44A
  8
0
 10
165.229773227034
 20
85.211639104884284
 30
0.0
 11
163.22977322703369
 21
85.211639104884284
 31
0.0
  0
LINE
  5
44B
  8
0
 10
165.229773227034
 20
47.211639104884163
 30
0.0
 11
165.229773227034
 21
85.211639104884284
 31
0.0
  0
LINE
  5
44C
  8
0
 10
149.22977322703369
 20
85.211639104884284
 30
0.0
 11
149.22977322703369
 21
47.211639104884163
 31
0.0
  0
LINE
  5
451
  8
2
 10
159.2967732270337
 20
58.211639104884171
 30
0.0
 11
157.22977322703369
 21
59.405022111299132
 31
0.0
  0
LINE
  5
452
  8
2
 10
157.22977322703369
 20
59.405022111299132
 30
0.0
 11
155.1627732270338
 21
58.211639104884171
 31
0.0
  0
LINE
  5
453
  8
2
 10
159.2967732270337
 20
46.64463910488417
 30
0.0
 11
159.2967732270337
 21
58.211639104884171
 31
0.0
  0
LINE
  5
454
  8
2
 10
155.16277322703371
 20
58.211639104884171
 30
0.0
 11
155.16277322703371
 21
46.64463910488417
 31
0.0
  0
LINE
  5
455
  8
2
 10
159.72977322703369
 20
46.211639104884171
 30
0.0
 11
159.2967732270337
 21
46.64463910488417
 31
0.0
  0
LINE
  5
456
  8
2
 10
155.16277322703371
 20
46.64463910488417
 30
0.0
 11
154.72977322703369
 21
46.211639104884171
 31
0.0
  0
LINE
  5
457
  8
2
 10
163.22977322703369
 20
84.711639104884171
 30
0.0
 11
151.22977322703369
 21
84.711639104884171
 31
0.0
  0
LINE
  5
458
  8
0
 10
152.42977322703371
 20
46.211639104884171
 30
0.0
 11
162.0297732270337
 21
46.211639104884171
 31
0.0
  0
LINE
  5
465
  8
0
 10
151.0290011929803
 20
83.465411542014905
 30
0.0
 11
163.43054526108719
 21
83.465411542014905
 31
0.0
  0
POLYLINE
  5
476
  8
0
 66
     1
 10
0.0
 20
0.0
 30
0.0
  0
VERTEX
  5
924
  8
0
 10
151.02900119298019
 20
83.465411542015204
 30
0.0
  0
VERTEX
  5
925
  8
0
 10
151.01940526155491
 20
83.468180868401021
 30
0.0
  0
VERTEX
  5
926
  8
0
 10
151.00078033315231
 20
83.47373590902032
 30
0.0
  0
VERTEX
  5
927
  8
0
 10
150.9829167589364
 20
83.479310856403345
 30
0.0
  0
VERTEX
  5
928
  8
0
 10
150.97427238158269
 20
83.482105058342427
 30
0.0
  0
VERTEX
  5
929
  8
0
 10
150.9658205483079
 20
83.484903349119335
 30
0.0
  0
VERTEX
  5
92A
  8
0
 10
150.94949708747251
 20
83.490510997835415
 30
0.0
  0
VERTEX
  5
92B
  8
0
 10
150.9339511113597
 20
83.496131391164965
 30
0.0
  0
VERTEX
  5
92C
  8
0
 10
150.91918667918469
 20
83.501762101554789
 30
0.0
  0
VERTEX
  5
92D
  8
0
 10
150.905207153596
 20
83.507400691212524
 30
0.0
  0
VERTEX
  5
92E
  8
0
 10
150.892015183365
 20
83.513044718077495
 30
0.0
  0
VERTEX
  5
92F
  8
0
 10
150.88571516058209
 20
83.515868007631354
 30
0.0
  0
VERTEX
  5
930
  8
0
 10
150.87961268959069
 20
83.51869174183804
 30
0.0
  0
VERTEX
  5
931
  8
0
 10
150.86800085540779
 20
83.524339330002178
 30
0.0
  0
VERTEX
  5
932
  8
0
 10
150.85718011920551
 20
83.529985064028097
 30
0.0
  0
VERTEX
  5
933
  8
0
 10
150.84715014156919
 20
83.535626562967479
 30
0.0
  0
VERTEX
  5
934
  8
0
 10
150.83790978630009
 20
83.541261509680794
 30
0.0
  0
VERTEX
  5
935
  8
0
 10
150.82945739902479
 20
83.546887483465227
 30
0.0
  0
VERTEX
  5
936
  8
0
 10
150.8255259842806
 20
83.549696343711901
 30
0.0
  0
VERTEX
  5
937
  8
0
 10
150.82179061766769
 20
83.552502046527707
 30
0.0
  0
VERTEX
  5
938
  8
0
 10
150.8149063321496
 20
83.558102762547847
 30
0.0
  0
VERTEX
  5
939
  8
0
 10
150.80880067110579
 20
83.563687202700692
 30
0.0
  0
VERTEX
  5
93A
  8
0
 10
150.8060384043977
 20
83.566472563847753
 30
0.0
  0
SEQEND
  5
93B
  8
0
  0
POLYLINE
  5
477
  8
0
 66
     1
 10
0.0
 20
0.0
 30
0.0
  0
VERTEX
  5
93C
  8
0
 10
150.80603843763561
 20
83.566472529148314
 30
0.0
  0
VERTEX
  5
93D
  8
0
 10
150.80880070576231
 20
83.563687168906654
 30
0.0
  0
VERTEX
  5
93E
  8
0
 10
150.8149063692627
 20
83.558102730585077
 30
0.0
  0
VERTEX
  5
93F
  8
0
 10
150.82179065672241
 20
83.552502016421258
 30
0.0
  0
VERTEX
  5
940
  8
0
 10
150.8255260241103
 20
83.549696314542359
 30
0.0
  0
VERTEX
  5
941
  8
0
 10
150.8294574394979
 20
83.546887455237865
 30
0.0
  0
VERTEX
  5
942
  8
0
 10
150.83790982766109
 20
83.541261483352571
 30
0.0
  0
VERTEX
  5
943
  8
0
 10
150.84715018328171
 20
83.535626538555903
 30
0.0
  0
VERTEX
  5
944
  8
0
 10
150.85718016072869
 20
83.529985041548059
 30
0.0
  0
VERTEX
  5
945
  8
0
 10
150.86800089619709
 20
83.524339309465745
 30
0.0
  0
VERTEX
  5
946
  8
0
 10
150.87961272909789
 20
83.518691723255301
 30
0.0
  0
VERTEX
  5
947
  8
0
 10
150.88571519924199
 20
83.515867990028482
 30
0.0
  0
VERTEX
  5
948
  8
0
 10
150.8920152210398
 20
83.513044701456053
 30
0.0
  0
VERTEX
  5
949
  8
0
 10
150.905207188887
 20
83.507400676557495
 30
0.0
  0
VERTEX
  5
94A
  8
0
 10
150.9191867115405
 20
83.501762088868645
 30
0.0
  0
VERTEX
  5
94B
  8
0
 10
150.93395114022991
 20
83.496131380447864
 30
0.0
  0
VERTEX
  5
94C
  8
0
 10
150.94949711230859
 20
83.490510989084839
 30
0.0
  0
VERTEX
  5
94D
  8
0
 10
150.9658205685646
 20
83.484903342330142
 30
0.0
  0
VERTEX
  5
94E
  8
0
 10
150.9742723993464
 20
83.482105052531253
 30
0.0
  0
VERTEX
  5
94F
  8
0
 10
150.98291677407229
 20
83.479310851568016
 30
0.0
  0
VERTEX
  5
950
  8
0
 10
151.00078034263109
 20
83.473735906128695
 30
0.0
  0
VERTEX
  5
951
  8
0
 10
151.0194052648458
 20
83.468180867440594
 30
0.0
  0
VERTEX
  5
952
  8
0
 10
151.0290011929803
 20
83.46541154201492
 30
0.0
  0
SEQEND
  5
953
  8
0
  0
POLYLINE
  5
47B
  8
0
 66
     1
 10
0.0
 20
0.0
 30
0.0
  0
VERTEX
  5
954
  8
0
 10
150.90491607867631
 20
72.211639104884256
 30
0.0
  0
VERTEX
  5
955
  8
0
 10
150.88242197216741
 20
72.224940729246853
 30
0.0
  0
VERTEX
  5
956
  8
0
 10
150.84466598894019
 20
72.251460351032506
 30
0.0
  0
VERTEX
  5
957
  8
0
 10
150.81653086847939
 20
72.277753751330195
 30
0.0
  0
VERTEX
  5
958
  8
0
 10
150.80603843763561
 20
72.290772732993304
 30
0.0
  0
SEQEND
  5
959
  8
0
  0
POLYLINE
  5
481
  8
0
 66
     1
 10
0.0
 20
0.0
 30
0.0
  0
VERTEX
  5
95A
  8
0
 10
165.16666241167371
 20
48.13471602796109
 30
0.0
  0
VERTEX
  5
95B
  8
0
 10
165.17236266872951
 20
47.970793990307122
 30
0.0
  0
VERTEX
  5
95C
  8
0
 10
165.1831408980743
 20
47.653132701017228
 30
0.0
  0
VERTEX
  5
95D
  8
0
 10
165.19299006779241
 20
47.353286485114729
 30
0.0
  0
VERTEX
  5
95E
  8
0
 10
165.19753318526219
 20
47.211639104884192
 30
0.0
  0
SEQEND
  5
95F
  8
0
  0
LINE
  5
483
  8
0
 10
165.1666624116736
 20
48.13471602796109
 30
0.0
 11
165.1666624116736
 21
64.731639104884181
 31
0.0
  0
POLYLINE
  5
484
  8
0
 66
     1
 10
0.0
 20
0.0
 30
0.0
  0
VERTEX
  5
960
  8
0
 10
165.1666624116736
 20
64.731639104884181
 30
0.0
  0
VERTEX
  5
961
  8
0
 10
165.1666599921802
 20
64.764867157169434
 30
0.0
  0
VERTEX
  5
962
  8
0
 10
165.16664067731381
 20
64.83122610078911
 30
0.0
  0
VERTEX
  5
963
  8
0
 10
165.1666021485797
 20
64.897455731519415
 30
0.0
  0
VERTEX
  5
964
  8
0
 10
165.16657570997941
 20
64.930522139334968
 30
0.0
  0
VERTEX
  5
965
  8
0
 10
165.16654450414009
 20
64.963556319201956
 30
0.0
  0
VERTEX
  5
966
  8
0
 10
165.16646783473519
 20
65.029528123007125
 30
0.0
  0
VERTEX
  5
967
  8
0
 10
165.1663722238093
 20
65.0953713948699
 30
0.0
  0
VERTEX
  5
968
  8
0
 10
165.16625774762269
 20
65.16108638262692
 30
0.0
  0
VERTEX
  5
969
  8
0
 10
165.16612447535161
 20
65.226673332794348
 30
0.0
  0
VERTEX
  5
96A
  8
0
 10
165.1659724691755
 20
65.292132492933831
 30
0.0
  0
VERTEX
  5
96B
  8
0
 10
165.16588945841031
 20
65.324814229872018
 30
0.0
  0
VERTEX
  5
96C
  8
0
 10
165.16580178435481
 20
65.357464113562884
 30
0.0
  0
VERTEX
  5
96D
  8
0
 10
165.16561246929871
 20
65.422668449575696
 30
0.0
  0
VERTEX
  5
96E
  8
0
 10
165.1654045656249
 20
65.487745761148773
 30
0.0
  0
VERTEX
  5
96F
  8
0
 10
165.16517810821239
 20
65.552696314115849
 30
0.0
  0
VERTEX
  5
970
  8
0
 10
165.16493312524921
 20
65.617520379805086
 30
0.0
  0
VERTEX
  5
971
  8
0
 10
165.16466963827449
 20
65.682218234340326
 30
0.0
  0
VERTEX
  5
972
  8
0
 10
165.1645309607056
 20
65.714519919734158
 30
0.0
  0
VERTEX
  5
973
  8
0
 10
165.16438766221839
 20
65.746790157415631
 30
0.0
  0
VERTEX
  5
974
  8
0
 10
165.16408720543831
 20
65.811236430560641
 30
0.0
  0
VERTEX
  5
975
  8
0
 10
165.1637682697552
 20
65.875557334919492
 30
0.0
  0
VERTEX
  5
976
  8
0
 10
165.16360187111539
 20
65.907670860906123
 30
0.0
  0
VERTEX
  5
977
  8
0
 10
165.1634308504886
 20
65.939753148573104
 30
0.0
  0
VERTEX
  5
978
  8
0
 10
165.16307493649211
 20
66.003824143438209
 30
0.0
  0
VERTEX
  5
979
  8
0
 10
165.16270051019049
 20
66.067770581781403
 30
0.0
  0
VERTEX
  5
97A
  8
0
 10
165.16250634768451
 20
66.099697170640709
 30
0.0
  0
VERTEX
  5
97B
  8
0
 10
165.1623075602626
 20
66.13159070809013
 30
0.0
  0
VERTEX
  5
97C
  8
0
 10
165.16189657414671
 20
66.195206734306495
 30
0.0
  0
VERTEX
  5
97D
  8
0
 10
165.1614678832812
 20
66.258576276114425
 30
0.0
  0
VERTEX
  5
97E
  8
0
 10
165.15982939782029
 20
66.478383022218736
 30
0.0
  0
VERTEX
  5
97F
  8
0
 10
165.15653002206281
 20
66.84769295709431
 30
0.0
  0
VERTEX
  5
980
  8
0
 10
165.15262772374069
 20
67.206952442474233
 30
0.0
  0
VERTEX
  5
981
  8
0
 10
165.14814020082889
 20
67.555642711045209
 30
0.0
  0
VERTEX
  5
982
  8
0
 10
165.1430554602116
 20
67.895104644583725
 30
0.0
  0
VERTEX
  5
983
  8
0
 10
165.1402874000006
 20
68.061428408193109
 30
0.0
  0
VERTEX
  5
984
  8
0
 10
165.13736950983321
 20
68.225384356777369
 30
0.0
  0
VERTEX
  5
985
  8
0
 10
165.13108675207951
 20
68.545896338404773
 30
0.0
  0
VERTEX
  5
986
  8
0
 10
165.12421385387429
 20
68.856034474916598
 30
0.0
  0
VERTEX
  5
987
  8
0
 10
165.11676096003961
 20
69.155175334311963
 30
0.0
  0
VERTEX
  5
988
  8
0
 10
165.10874288043379
 20
69.44268844737563
 30
0.0
  0
VERTEX
  5
989
  8
0
 10
165.10018020552249
 20
69.717951483666084
 30
0.0
  0
VERTEX
  5
98A
  8
0
 10
165.0956900140082
 20
69.851174059659897
 30
0.0
  0
VERTEX
  5
98B
  8
0
 10
165.09101713594029
 20
69.982648424717496
 30
0.0
  0
VERTEX
  5
98C
  8
0
 10
165.08109977833291
 20
70.240209538730227
 30
0.0
  0
VERTEX
  5
98D
  8
0
 10
165.07039520865359
 20
70.489910591899431
 30
0.0
  0
VERTEX
  5
98E
  8
0
 10
165.06473831643839
 20
70.61155839733577
 30
0.0
  0
SEQEND
  5
98F
  8
0
  0
POLYLINE
  5
485
  8
0
 66
     1
 10
0.0
 20
0.0
 30
0.0
  0
VERTEX
  5
990
  8
0
 10
165.06473831644101
 20
70.611558397452455
 30
0.0
  0
VERTEX
  5
991
  8
0
 10
165.06052383922349
 20
70.75870074317244
 30
0.0
  0
VERTEX
  5
992
  8
0
 10
165.05166371696961
 20
71.0409587598445
 30
0.0
  0
VERTEX
  5
993
  8
0
 10
165.04221438800889
 20
71.307730638375787
 30
0.0
  0
VERTEX
  5
994
  8
0
 10
165.0371879683556
 20
71.437345530718204
 30
0.0
  0
VERTEX
  5
995
  8
0
 10
165.0319456943551
 20
71.564482135199995
 30
0.0
  0
VERTEX
  5
996
  8
0
 10
165.02080661227899
 20
71.810442974340134
 30
0.0
  0
VERTEX
  5
997
  8
0
 10
165.00878741899251
 20
72.043958069077732
 30
0.0
  0
VERTEX
  5
998
  8
0
 10
164.99588480250341
 20
72.263550117837653
 30
0.0
  0
VERTEX
  5
999
  8
0
 10
164.98210218776009
 20
72.467921226371672
 30
0.0
  0
VERTEX
  5
99A
  8
0
 10
164.96745232669591
 20
72.655923955624502
 30
0.0
  0
VERTEX
  5
99B
  8
0
 10
164.9598088970194
 20
72.743472550177373
 30
0.0
  0
VERTEX
  5
99C
  8
0
 10
164.95195790546771
 20
72.826573910471794
 30
0.0
  0
VERTEX
  5
99D
  8
0
 10
164.93564904550149
 20
72.979085510015395
 30
0.0
  0
VERTEX
  5
99E
  8
0
 10
164.9185561457976
 20
73.112911715886014
 30
0.0
  0
VERTEX
  5
99F
  8
0
 10
164.90072874937439
 20
73.227575722407693
 30
0.0
  0
VERTEX
  5
9A0
  8
0
 10
164.88222991184799
 20
73.322765788096262
 30
0.0
  0
VERTEX
  5
9A1
  8
0
 10
164.86313321228619
 20
73.398365935660877
 30
0.0
  0
VERTEX
  5
9A2
  8
0
 10
164.85338629965281
 20
73.428837790464371
 30
0.0
  0
VERTEX
  5
9A3
  8
0
 10
164.84352221469581
 20
73.454457442679143
 30
0.0
  0
VERTEX
  5
9A4
  8
0
 10
164.82349305710281
 20
73.491313891163742
 30
0.0
  0
VERTEX
  5
9A5
  8
0
 10
164.8031538750071
 20
73.509414158123093
 30
0.0
  0
VERTEX
  5
9A6
  8
0
 10
164.79290446581081
 20
73.511639104884154
 30
0.0
  0
SEQEND
  5
9A7
  8
0
  0
LINE
  5
486
  8
0
 10
164.79290446581081
 20
73.511639104884154
 30
0.0
 11
164.75095382426889
 21
73.511639104884154
 31
0.0
  0
POLYLINE
  5
487
  8
0
 66
     1
 10
0.0
 20
0.0
 30
0.0
  0
VERTEX
  5
9A8
  8
0
 10
164.75095382426889
 20
73.511639104884154
 30
0.0
  0
VERTEX
  5
9A9
  8
0
 10
164.6099674577396
 20
73.40990800288553
 30
0.0
  0
VERTEX
  5
9AA
  8
0
 10
164.2762993998642
 20
73.081997660123918
 30
0.0
  0
VERTEX
  5
9AB
  8
0
 10
163.8766984989675
 20
72.593213403941093
 30
0.0
  0
VERTEX
  5
9AC
  8
0
 10
163.6535080496698
 20
72.290772779282818
 30
0.0
  0
SEQEND
  5
9AD
  8
0
  0
POLYLINE
  5
48B
  8
0
 66
     1
 10
0.0
 20
0.0
 30
0.0
  0
VERTEX
  5
9AE
  8
0
 10
163.65350801643191
 20
83.566472529148584
 30
0.0
  0
VERTEX
  5
9AF
  8
0
 10
163.65074583855579
 20
83.563687256911123
 30
0.0
  0
VERTEX
  5
9B0
  8
0
 10
163.6446403524254
 20
83.558102961065728
 30
0.0
  0
VERTEX
  5
9B1
  8
0
 10
163.63775622810829
 20
83.55250234848512
 30
0.0
  0
VERTEX
  5
9B2
  8
0
 10
163.63402093373821
 20
83.549696683487184
 30
0.0
  0
VERTEX
  5
9B3
  8
0
 10
163.6300895842403
 20
83.546887852544558
 30
0.0
  0
VERTEX
  5
9B4
  8
0
 10
163.62163730305321
 20
83.541261914067533
 30
0.0
  0
VERTEX
  5
9B5
  8
0
 10
163.61239701703801
 20
83.535626975283876
 30
0.0
  0
VERTEX
  5
9B6
  8
0
 10
163.60236706649769
 20
83.529985460121779
 30
0.0
  0
VERTEX
  5
9B7
  8
0
 10
163.59154631379221
 20
83.524339690050397
 30
0.0
  0
VERTEX
  5
9B8
  8
0
 10
163.5799344239378
 20
83.518692052020356
 30
0.0
  0
VERTEX
  5
9B9
  8
0
 10
163.57383191172829
 20
83.515868289130196
 30
0.0
  0
VERTEX
  5
9BA
  8
0
 10
163.5675318398097
 20
83.513044969153725
 30
0.0
  0
VERTEX
  5
9BB
  8
0
 10
163.55433975147841
 20
83.507400878495844
 30
0.0
  0
VERTEX
  5
9BC
  8
0
 10
163.54036008939221
 20
83.501762224865374
 30
0.0
  0
VERTEX
  5
9BD
  8
0
 10
163.525595514038
 20
83.496131454764111
 30
0.0
  0
VERTEX
  5
9BE
  8
0
 10
163.5100494020854
 20
83.490511010339503
 30
0.0
  0
VERTEX
  5
9BF
  8
0
 10
163.49372582900381
 20
83.484903323395216
 30
0.0
  0
VERTEX
  5
9C0
  8
0
 10
163.48527395412259
 20
83.482105019623745
 30
0.0
  0
VERTEX
  5
9C1
  8
0
 10
163.47662954812381
 20
83.479310809443064
 30
0.0
  0
VERTEX
  5
9C2
  8
0
 10
163.4587659660985
 20
83.473735861796399
 30
0.0
  0
VERTEX
  5
9C3
  8
0
 10
163.4401411147083
 20
83.468180845701397
 30
0.0
  0
VERTEX
  5
9C4
  8
0
 10
163.43054526108719
 20
83.465411542015204
 30
0.0
  0
SEQEND
  5
9C5
  8
0
  0
LINE
  5
48C
  8
0
 10
149.7085926297986
 20
73.511639104884154
 30
0.0
 11
149.66664198825671
 21
73.511639104884154
 31
0.0
  0
POLYLINE
  5
48D
  8
0
 66
     1
 10
0.0
 20
0.0
 30
0.0
  0
VERTEX
  5
9C6
  8
0
 10
149.66664198825671
 20
73.511639104884154
 30
0.0
  0
VERTEX
  5
9C7
  8
0
 10
149.65639254482741
 20
73.50941414316938
 30
0.0
  0
VERTEX
  5
9C8
  8
0
 10
149.6360533780406
 20
73.491313865516346
 30
0.0
  0
VERTEX
  5
9C9
  8
0
 10
149.61602431986421
 20
73.454457631002001
 30
0.0
  0
VERTEX
  5
9CA
  8
0
 10
149.6061603065373
 20
73.428838225388958
 30
0.0
  0
VERTEX
  5
9CB
  8
0
 10
149.5964134754997
 20
73.398366729851205
 30
0.0
  0
VERTEX
  5
9CC
  8
0
 10
149.57731695667451
 20
73.322767669641337
 30
0.0
  0
VERTEX
  5
9CD
  8
0
 10
149.5588183029991
 20
73.227579177773961
 30
0.0
  0
VERTEX
  5
9CE
  8
0
 10
149.5409910711349
 20
73.112917144340571
 30
0.0
  0
VERTEX
  5
9CF
  8
0
 10
149.5238982992891
 20
72.979093147379899
 30
0.0
  0
VERTEX
  5
9D0
  8
0
 10
149.5075895274866
 20
72.826583860694285
 30
0.0
  0
VERTEX
  5
9D1
  8
0
 10
149.49973856228539
 20
72.743483622654225
 30
0.0
  0
VERTEX
  5
9D2
  8
0
 10
149.49209514163201
 20
72.655936029473807
 30
0.0
  0
VERTEX
  5
9D3
  8
0
 10
149.4774452426758
 20
72.467934709826835
 30
0.0
  0
VERTEX
  5
9D4
  8
0
 10
149.46366251228059
 20
72.263563804275606
 30
0.0
  0
VERTEX
  5
9D5
  8
0
 10
149.4507597029008
 20
72.043970223268914
 30
0.0
  0
VERTEX
  5
9D6
  8
0
 10
149.43874023954351
 20
71.810451219314572
 30
0.0
  0
VERTEX
  5
9D7
  8
0
 10
149.4276008097585
 20
71.564483312008363
 30
0.0
  0
VERTEX
  5
9D8
  8
0
 10
149.42235833398951
 20
71.437341735782411
 30
0.0
  0
VERTEX
  5
9D9
  8
0
 10
149.41733169516661
 20
71.307720778142169
 30
0.0
  0
VERTEX
  5
9DA
  8
0
 10
149.40788232447341
 20
71.040946387110665
 30
0.0
  0
VERTEX
  5
9DB
  8
0
 10
149.39902251418371
 20
70.758697334969753
 30
0.0
  0
VERTEX
  5
9DC
  8
0
 10
149.39480813761509
 20
70.611558397040682
 30
0.0
  0
SEQEND
  5
9DD
  8
0
  0
POLYLINE
  5
48E
  8
0
 66
     1
 10
0.0
 20
0.0
 30
0.0
  0
VERTEX
  5
9DE
  8
0
 10
149.39480813761509
 20
70.611558397040653
 30
0.0
  0
VERTEX
  5
9DF
  8
0
 10
149.3893476787708
 20
70.494247726996548
 30
0.0
  0
VERTEX
  5
9E0
  8
0
 10
149.3788696457905
 20
70.250601584929669
 30
0.0
  0
VERTEX
  5
9E1
  8
0
 10
149.3689918582987
 20
69.995289143201546
 30
0.0
  0
VERTEX
  5
9E2
  8
0
 10
149.3642805982891
 20
69.863399847427473
 30
0.0
  0
VERTEX
  5
9E3
  8
0
 10
149.3597219123676
 20
69.728765134065867
 30
0.0
  0
VERTEX
  5
9E4
  8
0
 10
149.35106331058901
 20
69.451488253696482
 30
0.0
  0
VERTEX
  5
9E5
  8
0
 10
149.34301617811079
 20
69.163907964431814
 30
0.0
  0
VERTEX
  5
9E6
  8
0
 10
149.3355780501206
 20
68.866453253754116
 30
0.0
  0
VERTEX
  5
9E7
  8
0
 10
149.32874435535371
 20
68.559507483601394
 30
0.0
  0
VERTEX
  5
9E8
  8
0
 10
149.32246868229251
 20
68.241200015957475
 30
0.0
  0
VERTEX
  5
9E9
  8
0
 10
149.3195348038291
 20
68.077394742732622
 30
0.0
  0
VERTEX
  5
9EA
  8
0
 10
149.31674126366769
 20
67.910619567879934
 30
0.0
  0
VERTEX
  5
9EB
  8
0
 10
149.3115863294056
 20
67.568552130731248
 30
0.0
  0
VERTEX
  5
9EC
  8
0
 10
149.30702361521881
 20
67.215780179165449
 30
0.0
  0
VERTEX
  5
9ED
  8
0
 10
149.30306983171531
 20
66.853084259142946
 30
0.0
  0
VERTEX
  5
9EE
  8
0
 10
149.2997403619226
 20
66.481294993946307
 30
0.0
  0
VERTEX
  5
9EF
  8
0
 10
149.29809631872649
 20
66.261139564300407
 30
0.0
  0
VERTEX
  5
9F0
  8
0
 10
149.29766749167001
 20
66.19786753834029
 30
0.0
  0
VERTEX
  5
9F1
  8
0
 10
149.29725683501931
 20
66.134431571883795
 30
0.0
  0
VERTEX
  5
9F2
  8
0
 10
149.2970583217658
 20
66.10265222711601
 30
0.0
  0
VERTEX
  5
9F3
  8
0
 10
149.2968643531679
 20
66.070832035752957
 30
0.0
  0
VERTEX
  5
9F4
  8
0
 10
149.296490055731
 20
66.007069295143566
 30
0.0
  0
VERTEX
  5
9F5
  8
0
 10
149.29613395761129
 20
65.943143713323693
 30
0.0
  0
VERTEX
  5
9F6
  8
0
 10
149.2959627394134
 20
65.911119970785819
 30
0.0
  0
VERTEX
  5
9F7
  8
0
 10
149.29579607906081
 20
65.879055654981045
 30
0.0
  0
VERTEX
  5
9F8
  8
0
 10
149.29547644574089
 20
65.814805489166289
 30
0.0
  0
VERTEX
  5
9F9
  8
0
 10
149.2951750887791
 20
65.750393591782256
 30
0.0
  0
VERTEX
  5
9FA
  8
0
 10
149.29503127516821
 20
65.718127113594974
 30
0.0
  0
VERTEX
  5
9FB
  8
0
 10
149.29489204482479
 20
65.685820347570754
 30
0.0
  0
VERTEX
  5
9FC
  8
0
 10
149.29462735610551
 20
65.621086151553783
 30
0.0
  0
VERTEX
  5
9FD
  8
0
 10
149.29438107048281
 20
65.556191409890474
 30
0.0
  0
VERTEX
  5
9FE
  8
0
 10
149.2941532415112
 20
65.491136540117466
 30
0.0
  0
VERTEX
  5
9FF
  8
0
 10
149.29394392849929
 20
65.425921970747396
 30
0.0
  0
VERTEX
  5
A00
  8
0
 10
149.29375319657669
 20
65.360548140209431
 30
0.0
  0
VERTEX
  5
A01
  8
0
 10
149.29366482048599
 20
65.32780164131222
 30
0.0
  0
VERTEX
  5
A02
  8
0
 10
149.29358111676581
 20
65.295015495123977
 30
0.0
  0
VERTEX
  5
A03
  8
0
 10
149.29342776606219
 20
65.229324487914511
 30
0.0
  0
VERTEX
  5
A04
  8
0
 10
149.29329322752341
 20
65.16347557377054
 30
0.0
  0
VERTEX
  5
A05
  8
0
 10
149.2931775903684
 20
65.097469206986403
 30
0.0
  0
VERTEX
  5
A06
  8
0
 10
149.29308095008921
 20
65.031305836712704
 30
0.0
  0
VERTEX
  5
A07
  8
0
 10
149.2930034085762
 20
64.964985902169389
 30
0.0
  0
VERTEX
  5
A08
  8
0
 10
149.29297183348149
 20
64.931767356550253
 30
0.0
  0
VERTEX
  5
A09
  8
0
 10
149.2929450742584
 20
64.898509827380011
 30
0.0
  0
VERTEX
  5
A0A
  8
0
 10
149.29290606225959
 20
64.831878015499186
 30
0.0
  0
VERTEX
  5
A0B
  8
0
 10
149.29288649457251
 20
64.765090842814658
 30
0.0
  0
VERTEX
  5
A0C
  8
0
 10
149.29288404239401
 20
64.731639104884167
 30
0.0
  0
SEQEND
  5
A0D
  8
0
  0
LINE
  5
48F
  8
0
 10
149.29288404239389
 20
64.731639104884167
 30
0.0
 11
149.29288404239389
 21
48.13471602796109
 31
0.0
  0
POLYLINE
  5
490
  8
0
 66
     1
 10
0.0
 20
0.0
 30
0.0
  0
VERTEX
  5
A0E
  8
0
 10
149.29288404239401
 20
48.134716027961069
 30
0.0
  0
VERTEX
  5
A0F
  8
0
 10
149.2871837853381
 20
47.970793990307108
 30
0.0
  0
VERTEX
  5
A10
  8
0
 10
149.27640555599339
 20
47.653132701017213
 30
0.0
  0
VERTEX
  5
A11
  8
0
 10
149.2665563862752
 20
47.353286485114751
 30
0.0
  0
VERTEX
  5
A12
  8
0
 10
149.2620132688055
 20
47.211639104884163
 30
0.0
  0
SEQEND
  5
A13
  8
0
  0
LINE
  5
491
  8
0
 10
165.22977322703389
 20
47.211639104884163
 30
0.0
 11
149.22977322703369
 21
47.211639104884163
 31
0.0
  0
POLYLINE
  5
496
  8
0
 66
     1
 10
0.0
 20
0.0
 30
0.0
  0
VERTEX
  5
A14
  8
0
 10
150.8060384043977
 20
83.566472563847753
 30
0.0
  0
VERTEX
  5
A15
  8
0
 10
150.33716594591809
 20
84.055923150056955
 30
0.0
  0
VERTEX
  5
A16
  8
0
 10
149.6351460711731
 20
84.788622253120565
 30
0.0
  0
VERTEX
  5
A17
  8
0
 10
149.27518442143941
 20
85.164253958415273
 30
0.0
  0
VERTEX
  5
A18
  8
0
 10
149.22977322703369
 20
85.211639104884284
 30
0.0
  0
SEQEND
  5
A19
  8
0
  0
LINE
  5
498
  8
0
 10
150.80603843763549
 20
83.566472529148314
 30
0.0
 11
150.80603843763549
 21
72.290772732993304
 31
0.0
  0
POLYLINE
  5
499
  8
0
 66
     1
 10
0.0
 20
0.0
 30
0.0
  0
VERTEX
  5
A1A
  8
0
 10
150.80603843763549
 20
72.290772732993304
 30
0.0
  0
VERTEX
  5
A1B
  8
0
 10
150.58284798098541
 20
72.593213369910302
 30
0.0
  0
VERTEX
  5
A1C
  8
0
 10
150.1832470674332
 20
73.081997645374898
 30
0.0
  0
VERTEX
  5
A1D
  8
0
 10
149.84957899992361
 20
73.409907999939264
 30
0.0
  0
VERTEX
  5
A1E
  8
0
 10
149.7085926297986
 20
73.511639104884154
 30
0.0
  0
SEQEND
  5
A1F
  8
0
  0
LINE
  5
49A
  8
0
 10
163.55463037539121
 20
72.211639104884171
 30
0.0
 11
150.90491607867631
 21
72.211639104884171
 31
0.0
  0
LINE
  5
49F
  8
0
 10
163.65350804966971
 20
83.566472563847455
 30
0.0
 11
163.65350804966971
 21
72.290772779282818
 31
0.0
  0
POLYLINE
  5
4A0
  8
0
 66
     1
 10
0.0
 20
0.0
 30
0.0
  0
VERTEX
  5
A20
  8
0
 10
163.65350804966971
 20
72.290772779282818
 30
0.0
  0
VERTEX
  5
A21
  8
0
 10
163.64301612359941
 20
72.277754353371563
 30
0.0
  0
VERTEX
  5
A22
  8
0
 10
163.61488154666179
 20
72.251461218944883
 30
0.0
  0
VERTEX
  5
A23
  8
0
 10
163.57712508306739
 20
72.224941104619674
 30
0.0
  0
VERTEX
  5
A24
  8
0
 10
163.55463037539121
 20
72.211639104884256
 30
0.0
  0
SEQEND
  5
A25
  8
0
  0
LINE
  5
4FA
  8
2
 10
159.2967732270337
 20
58.211639104884171
 30
0.0
 11
155.16277322703371
 21
58.211639104884171
 31
0.0
  0
LINE
  5
4FC
  8
2
 10
159.72977322703369
 20
46.211639104884171
 30
0.0
 11
159.72977322703369
 21
56.211639104884171
 31
0.0
  0
LINE
  5
4FD
  8
2
 10
159.72977322703369
 20
56.211639104884171
 30
0.0
 11
154.72977322703369
 21
56.211639104884171
 31
0.0
  0
LINE
  5
4FE
  8
2
 10
154.72977322703369
 20
46.211639104884171
 30
0.0
 11
154.72977322703369
 21
56.211639104884171
 31
0.0
  0
LINE
  5
517
  8
2
 10
96.368795211178366
 20
84.711639104884171
 30
0.0
 11
96.368795211178366
 21
85.147048870532174
 31
0.0
  0
LINE
  5
518
  8
2
 10
84.368795211178366
 20
85.147048870538129
 30
0.0
 11
84.368795211178366
 21
84.711639104884171
 31
0.0
  0
LINE
  5
519
  8
0
 10
95.168795211178363
 20
46.211639104884171
 30
0.0
 11
95.168795211178363
 21
46.411639104884173
 31
0.0
  0
LINE
  5
51A
  8
0
 10
85.568795211178369
 20
46.411639104884173
 30
0.0
 11
85.568795211178369
 21
46.211639104884171
 31
0.0
  0
LINE
  5
51B
  8
5
 10
96.008795211178366
 20
46.411639104884173
 30
0.0
 11
96.008795211178366
 21
47.211639104884163
 31
0.0
  0
LINE
  5
51D
  8
2
 10
92.435795211178345
 20
58.211639104884171
 30
0.0
 11
90.368795211178366
 21
59.405022111299132
 31
0.0
  0
LINE
  5
51E
  8
2
 10
90.368795211178366
 20
59.405022111299132
 30
0.0
 11
88.301795211178373
 21
58.211639104884171
 31
0.0
  0
LINE
  5
51F
  8
2
 10
92.435795211178373
 20
46.64463910488417
 30
0.0
 11
92.435795211178373
 21
58.211639104884171
 31
0.0
  0
LINE
  5
520
  8
2
 10
88.301795211178359
 20
58.211639104884171
 30
0.0
 11
88.301795211178359
 21
46.64463910488417
 31
0.0
  0
LINE
  5
521
  8
2
 10
92.868795211178366
 20
46.211639104884171
 30
0.0
 11
92.435795211178373
 21
46.64463910488417
 31
0.0
  0
LINE
  5
522
  8
2
 10
88.301795211178359
 20
46.64463910488417
 30
0.0
 11
87.868795211178366
 21
46.211639104884171
 31
0.0
  0
LINE
  5
523
  8
2
 10
96.368795211178366
 20
84.711639104884171
 30
0.0
 11
84.368795211178366
 21
84.711639104884171
 31
0.0
  0
LINE
  5
525
  8
0
 10
85.568795211178369
 20
46.211639104884171
 30
0.0
 11
95.168795211178363
 21
46.211639104884171
 31
0.0
  0
POLYLINE
  5
53F
  8
0
 66
     1
 10
0.0
 20
0.0
 30
0.0
  0
VERTEX
  5
A26
  8
0
 10
98.368795211178366
 20
64.731639104884181
 30
0.0
  0
VERTEX
  5
A27
  8
0
 10
98.368795211178366
 20
64.858371294268693
 30
0.0
  0
VERTEX
  5
A28
  8
0
 10
98.368795211178366
 20
65.11661075476907
 30
0.0
  0
VERTEX
  5
A29
  8
0
 10
98.368795211178366
 20
65.379313837869091
 30
0.0
  0
VERTEX
  5
A2A
  8
0
 10
98.368795211178366
 20
65.511639104884154
 30
0.0
  0
SEQEND
  5
A2B
  8
0
  0
POLYLINE
  5
540
  8
0
 66
     1
 10
0.0
 20
0.0
 30
0.0
  0
VERTEX
  5
A2C
  8
0
 10
82.368795211178366
 20
65.511639104884182
 30
0.0
  0
VERTEX
  5
A2D
  8
0
 10
82.368795211178366
 20
65.379313837869091
 30
0.0
  0
VERTEX
  5
A2E
  8
0
 10
82.368795211178366
 20
65.116610754769084
 30
0.0
  0
VERTEX
  5
A2F
  8
0
 10
82.368795211178366
 20
64.858371294268693
 30
0.0
  0
VERTEX
  5
A30
  8
0
 10
82.368795211178366
 20
64.731639104884181
 30
0.0
  0
SEQEND
  5
A31
  8
0
  0
POLYLINE
  5
541
  8
0
 66
     1
 10
0.0
 20
0.0
 30
0.0
  0
VERTEX
  5
A32
  8
0
 10
80.53246483318442
 20
70.611558397457316
 30
0.0
  0
VERTEX
  5
A33
  8
0
 10
80.616723377103227
 20
70.507977127220414
 30
0.0
  0
VERTEX
  5
A34
  8
0
 10
80.782779906550573
 20
70.292936034330296
 30
0.0
  0
VERTEX
  5
A35
  8
0
 10
80.944873914520201
 20
70.067425413245658
 30
0.0
  0
VERTEX
  5
A36
  8
0
 10
81.024185366105513
 20
69.950758599299533
 30
0.0
  0
VERTEX
  5
A37
  8
0
 10
81.102209493560366
 20
69.831492354916392
 30
0.0
  0
VERTEX
  5
A38
  8
0
 10
81.254011933674178
 20
69.585186782801273
 30
0.0
  0
VERTEX
  5
A39
  8
0
 10
81.399522541450253
 20
69.328558439552893
 30
0.0
  0
VERTEX
  5
A3A
  8
0
 10
81.53799278766175
 20
69.061654049830835
 30
0.0
  0
VERTEX
  5
A3B
  8
0
 10
81.668677666406566
 20
68.784514925909363
 30
0.0
  0
VERTEX
  5
A3C
  8
0
 10
81.790828180260078
 20
68.497175339108111
 30
0.0
  0
VERTEX
  5
A3D
  8
0
 10
81.848441400589124
 20
68.349753422742651
 30
0.0
  0
VERTEX
  5
A3E
  8
0
 10
81.903298176596493
 20
68.200740267746056
 30
0.0
  0
VERTEX
  5
A3F
  8
0
 10
82.00428881451657
 20
67.898946674800811
 30
0.0
  0
VERTEX
  5
A40
  8
0
 10
82.093446319908296
 20
67.592447901577785
 30
0.0
  0
VERTEX
  5
A41
  8
0
 10
82.170535812871577
 20
67.281623168058587
 30
0.0
  0
VERTEX
  5
A42
  8
0
 10
82.235329408237646
 20
66.966850335770161
 30
0.0
  0
VERTEX
  5
A43
  8
0
 10
82.287603951309777
 20
66.648506791652636
 30
0.0
  0
VERTEX
  5
A44
  8
0
 10
82.308977632751251
 20
66.488113944367996
 30
0.0
  0
VERTEX
  5
A45
  8
0
 10
82.327138980329835
 20
66.326969989867578
 30
0.0
  0
VERTEX
  5
A46
  8
0
 10
82.353714742656948
 20
66.002617796694494
 30
0.0
  0
VERTEX
  5
A47
  8
0
 10
82.367110142747421
 20
65.675828798346615
 30
0.0
  0
VERTEX
  5
A48
  8
0
 10
82.368795211178366
 20
65.511639104884182
 30
0.0
  0
SEQEND
  5
A49
  8
0
  0
LINE
  5
543
  8
0
 10
98.368795211178366
 20
48.13471602796109
 30
0.0
 11
98.368795211178366
 21
64.731639104884181
 31
0.0
  0
LINE
  5
544
  8
0
 10
82.368795211178366
 20
64.731639104884181
 30
0.0
 11
82.368795211178366
 21
48.13471602796109
 31
0.0
  0
POLYLINE
  5
547
  8
0
 66
     1
 10
0.0
 20
0.0
 30
0.0
  0
VERTEX
  5
A4A
  8
0
 10
97.445718288101446
 20
47.211639104884163
 30
0.0
  0
VERTEX
  5
A4B
  8
0
 10
97.596096903731066
 20
47.362017720513798
 30
0.0
  0
VERTEX
  5
A4C
  8
0
 10
97.901015180850166
 20
47.666935997632883
 30
0.0
  0
VERTEX
  5
A4D
  8
0
 10
98.211481519115694
 20
47.977402335898411
 30
0.0
  0
VERTEX
  5
A4E
  8
0
 10
98.368795211178366
 20
48.13471602796109
 30
0.0
  0
SEQEND
  5
A4F
  8
0
  0
LINE
  5
548
  8
0
 10
83.291872134255286
 20
47.211639104884163
 30
0.0
 11
97.445718288101446
 21
47.211639104884163
 31
0.0
  0
POLYLINE
  5
549
  8
0
 66
     1
 10
0.0
 20
0.0
 30
0.0
  0
VERTEX
  5
A50
  8
0
 10
82.368795211178366
 20
48.13471602796109
 30
0.0
  0
VERTEX
  5
A51
  8
0
 10
82.526108903240953
 20
47.97740233589851
 30
0.0
  0
VERTEX
  5
A52
  8
0
 10
82.836575241506395
 20
47.666935997633061
 30
0.0
  0
VERTEX
  5
A53
  8
0
 10
83.141493518625566
 20
47.362017720513897
 30
0.0
  0
VERTEX
  5
A54
  8
0
 10
83.291872134255286
 20
47.211639104884163
 30
0.0
  0
SEQEND
  5
A55
  8
0
  0
POLYLINE
  5
54F
  8
0
 66
     1
 10
0.0
 20
0.0
 30
0.0
  0
VERTEX
  5
A56
  8
0
 10
98.368795211178366
 20
65.511639104884154
 30
0.0
  0
VERTEX
  5
A57
  8
0
 10
98.370420362667446
 20
65.672883586054667
 30
0.0
  0
VERTEX
  5
A58
  8
0
 10
98.383352312171667
 20
65.994030757697033
 30
0.0
  0
VERTEX
  5
A59
  8
0
 10
98.409041266444305
 20
66.313086008484404
 30
0.0
  0
VERTEX
  5
A5A
  8
0
 10
98.426613363085394
 20
66.471715920468512
 30
0.0
  0
VERTEX
  5
A5B
  8
0
 10
98.447307427488354
 20
66.629687088134276
 30
0.0
  0
VERTEX
  5
A5C
  8
0
 10
98.497972330248331
 20
66.943472606737046
 30
0.0
  0
VERTEX
  5
A5D
  8
0
 10
98.560857288539154
 20
67.254081470132562
 30
0.0
  0
VERTEX
  5
A5E
  8
0
 10
98.635781815812052
 20
67.561152175612222
 30
0.0
  0
VERTEX
  5
A5F
  8
0
 10
98.722517252362593
 20
67.864176751028893
 30
0.0
  0
VERTEX
  5
A60
  8
0
 10
98.820491742366244
 20
68.16175509153814
 30
0.0
  0
VERTEX
  5
A61
  8
0
 10
98.873557300852255
 20
68.308317253618839
 30
0.0
  0
VERTEX
  5
A62
  8
0
 10
98.929278397636679
 20
68.453337522640581
 30
0.0
  0
VERTEX
  5
A63
  8
0
 10
99.048491200610968
 20
68.738580256016448
 30
0.0
  0
VERTEX
  5
A64
  8
0
 10
99.177726340392937
 20
69.017138854651762
 30
0.0
  0
VERTEX
  5
A65
  8
0
 10
99.316558361916947
 20
69.288669078543265
 30
0.0
  0
VERTEX
  5
A66
  8
0
 10
99.464535680891998
 20
69.552827090916225
 30
0.0
  0
VERTEX
  5
A67
  8
0
 10
99.620919175332745
 20
69.808867165490256
 30
0.0
  0
VERTEX
  5
A68
  8
0
 10
99.701347970887383
 20
69.932628507488076
 30
0.0
  0
VERTEX
  5
A69
  8
0
 10
99.782971586854217
 20
70.053326807632303
 30
0.0
  0
VERTEX
  5
A6A
  8
0
 10
99.94935915788875
 20
70.285614466961917
 30
0.0
  0
VERTEX
  5
A6B
  8
0
 10
100.11919399559859
 20
70.505884257680023
 30
0.0
  0
VERTEX
  5
A6C
  8
0
 10
100.2051255888276
 20
70.611558397040682
 30
0.0
  0
SEQEND
  5
A6D
  8
0
  0
POLYLINE
  5
550
  8
0
 66
     1
 10
0.0
 20
0.0
 30
0.0
  0
VERTEX
  5
A6E
  8
0
 10
60.006367391340341
 20
72.290772779282733
 30
0.0
  0
VERTEX
  5
A6F
  8
0
 10
59.916804060829392
 20
72.277753790200123
 30
0.0
  0
VERTEX
  5
A70
  8
0
 10
59.737288176186169
 20
72.251460374617153
 30
0.0
  0
VERTEX
  5
A71
  8
0
 10
59.558036316445907
 20
72.224940737155293
 30
0.0
  0
VERTEX
  5
A72
  8
0
 10
59.468795211178367
 20
72.211639104884171
 30
0.0
  0
SEQEND
  5
A73
  8
0
  0
LINE
  5
551
  8
0
 10
59.468795211178367
 20
72.211639104884171
 30
0.0
 11
59.368795211178373
 21
72.211639104884171
 31
0.0
  0
POLYLINE
  5
552
  8
0
 66
     1
 10
0.0
 20
0.0
 30
0.0
  0
VERTEX
  5
A74
  8
0
 10
59.368795211178373
 20
72.211639104884171
 30
0.0
  0
VERTEX
  5
A75
  8
0
 10
59.346632726749668
 20
72.211737341957473
 30
0.0
  0
VERTEX
  5
A76
  8
0
 10
59.302304959227001
 20
72.212523452019042
 30
0.0
  0
VERTEX
  5
A77
  8
0
 10
59.257995839678777
 20
72.214095611914473
 30
0.0
  0
VERTEX
  5
A78
  8
0
 10
59.235856702263121
 20
72.215176136433129
 30
0.0
  0
VERTEX
  5
A79
  8
0
 10
59.213732346150387
 20
72.216452637325219
 30
0.0
  0
VERTEX
  5
A7A
  8
0
 10
59.169541437692338
 20
72.219592168377631
 30
0.0
  0
VERTEX
  5
A7B
  8
0
 10
59.125449886917032
 20
72.223510681116579
 30
0.0
  0
VERTEX
  5
A7C
  8
0
 10
59.081484123167087
 20
72.228203513066703
 30
0.0
  0
VERTEX
  5
A7D
  8
0
 10
59.037670086579197
 20
72.233664901657022
 30
0.0
  0
VERTEX
  5
A7E
  8
0
 10
58.994033093186196
 20
72.23988803430322
 30
0.0
  0
VERTEX
  5
A7F
  8
0
 10
58.972288697592617
 20
72.243282853310234
 30
0.0
  0
VERTEX
  5
A80
  8
0
 10
58.950597711076647
 20
72.246865108975271
 30
0.0
  0
VERTEX
  5
A81
  8
0
 10
58.907387647526647
 20
72.254587404124692
 30
0.0
  0
VERTEX
  5
A82
  8
0
 10
58.864425657290987
 20
72.263045354767286
 30
0.0
  0
VERTEX
  5
A83
  8
0
 10
58.821733773851889
 20
72.272228564653119
 30
0.0
  0
VERTEX
  5
A84
  8
0
 10
58.77933381091043
 20
72.282125726119986
 30
0.0
  0
VERTEX
  5
A85
  8
0
 10
58.737247341836522
 20
72.29272461926675
 30
0.0
  0
VERTEX
  5
A86
  8
0
 10
58.716328312282322
 20
72.298283153963339
 30
0.0
  0
VERTEX
  5
A87
  8
0
 10
58.695495574086017
 20
72.304012140694866
 30
0.0
  0
VERTEX
  5
A88
  8
0
 10
58.654099236846683
 20
72.315974340299164
 30
0.0
  0
VERTEX
  5
A89
  8
0
 10
58.613078481146758
 20
72.328596464906795
 30
0.0
  0
VERTEX
  5
A8A
  8
0
 10
58.592715063566231
 20
72.335150181181319
 30
0.0
  0
VERTEX
  5
A8B
  8
0
 10
58.572452791740872
 20
72.341863007653785
 30
0.0
  0
VERTEX
  5
A8C
  8
0
 10
58.532240910005783
 20
72.355757762118856
 30
0.0
  0
VERTEX
  5
A8D
  8
0
 10
58.492460767026209
 20
72.370263880364917
 30
0.0
  0
VERTEX
  5
A8E
  8
0
 10
58.472737965123891
 20
72.377740775523336
 30
0.0
  0
VERTEX
  5
A8F
  8
0
 10
58.453129426024333
 20
72.38536393416635
 30
0.0
  0
VERTEX
  5
A90
  8
0
 10
58.414260611306467
 20
72.401040979366144
 30
0.0
  0
VERTEX
  5
A91
  8
0
 10
58.375862681921788
 20
72.417279718836696
 30
0.0
  0
VERTEX
  5
A92
  8
0
 10
58.337950140962263
 20
72.434061786501502
 30
0.0
  0
VERTEX
  5
A93
  8
0
 10
58.300537492841471
 20
72.451368004504019
 30
0.0
  0
VERTEX
  5
A94
  8
0
 10
58.263638725064162
 20
72.469178594373517
 30
0.0
  0
VERTEX
  5
A95
  8
0
 10
58.245386260301807
 20
72.478266693240641
 30
0.0
  0
VERTEX
  5
A96
  8
0
 10
58.22726724498856
 20
72.487473215745808
 30
0.0
  0
VERTEX
  5
A97
  8
0
 10
58.19143582582128
 20
72.506231007113684
 30
0.0
  0
VERTEX
  5
A98
  8
0
 10
58.156156560996848
 20
72.525430628071859
 30
0.0
  0
VERTEX
  5
A99
  8
0
 10
58.121440826108532
 20
72.54505030263141
 30
0.0
  0
VERTEX
  5
A9A
  8
0
 10
58.087299247583999
 20
72.565067863277832
 30
0.0
  0
VERTEX
  5
A9B
  8
0
 10
58.053741677335609
 20
72.585460795539504
 30
0.0
  0
VERTEX
  5
A9C
  8
0
 10
58.037184757547969
 20
72.595790906221936
 30
0.0
  0
VERTEX
  5
A9D
  8
0
 10
58.020777182957687
 20
72.606206276320876
 30
0.0
  0
VERTEX
  5
A9E
  8
0
 10
57.988414184939792
 20
72.627281116821521
 30
0.0
  0
VERTEX
  5
A9F
  8
0
 10
57.956660608483169
 20
72.648661677990944
 30
0.0
  0
VERTEX
  5
AA0
  8
0
 10
57.925523858365011
 20
72.670323891070211
 30
0.0
  0
VERTEX
  5
AA1
  8
0
 10
57.895010780809059
 20
72.692243291082164
 30
0.0
  0
VERTEX
  5
AA2
  8
0
 10
57.865127632469317
 20
72.714395050508415
 30
0.0
  0
VERTEX
  5
AA3
  8
0
 10
57.850424069569698
 20
72.725550215551664
 30
0.0
  0
VERTEX
  5
AA4
  8
0
 10
57.83588005580912
 20
72.736754012925829
 30
0.0
  0
VERTEX
  5
AA5
  8
0
 10
57.807273060232369
 20
72.759294726424002
 30
0.0
  0
VERTEX
  5
AA6
  8
0
 10
57.779311008364623
 20
72.781991476687367
 30
0.0
  0
VERTEX
  5
AA7
  8
0
 10
57.751997606924917
 20
72.804818319681658
 30
0.0
  0
VERTEX
  5
AA8
  8
0
 10
57.725335901672281
 20
72.827749113935184
 30
0.0
  0
VERTEX
  5
AA9
  8
0
 10
57.69919927298394
 20
72.850873293943764
 30
0.0
  0
VERTEX
  5
AAA
  8
0
 10
57.686258964547598
 20
72.862565883301613
 30
0.0
  0
VERTEX
  5
AAB
  8
0
 10
57.673404451199211
 20
72.874344852191555
 30
0.0
  0
VERTEX
  5
AAC
  8
0
 10
57.647955710670168
 20
72.898158635319973
 30
0.0
  0
VERTEX
  5
AAD
  8
0
 10
57.622858752109728
 20
72.922307978207243
 30
0.0
  0
VERTEX
  5
AAE
  8
0
 10
57.53786799711127
 20
73.009374279192073
 30
0.0
  0
VERTEX
  5
AAF
  8
0
 10
57.468668499418129
 20
73.086979608480306
 30
0.0
  0
VERTEX
  5
AB0
  8
0
 10
57.402967503320859
 20
73.167125776026253
 30
0.0
  0
VERTEX
  5
AB1
  8
0
 10
57.282470234111429
 20
73.334232814036511
 30
0.0
  0
VERTEX
  5
AB2
  8
0
 10
57.177047901425347
 20
73.509040364576137
 30
0.0
  0
VERTEX
  5
AB3
  8
0
 10
57.087153775923021
 20
73.689820940568268
 30
0.0
  0
VERTEX
  5
AB4
  8
0
 10
57.013002479201617
 20
73.874835302332158
 30
0.0
  0
VERTEX
  5
AB5
  8
0
 10
56.954586176734573
 20
74.062335833669579
 30
0.0
  0
VERTEX
  5
AB6
  8
0
 10
56.931222417584159
 20
74.156446457301954
 30
0.0
  0
VERTEX
  5
AB7
  8
0
 10
56.911694892314159
 20
74.250490513823294
 30
0.0
  0
VERTEX
  5
AB8
  8
0
 10
56.883875590803328
 20
74.437459455246852
 30
0.0
  0
VERTEX
  5
AB9
  8
0
 10
56.870424670131037
 20
74.62139144770174
 30
0.0
  0
VERTEX
  5
ABA
  8
0
 10
56.868795211178373
 20
74.711639104884171
 30
0.0
  0
SEQEND
  5
ABB
  8
0
  0
LINE
  5
553
  8
0
 10
56.868795211178451
 20
74.711639104884171
 30
0.0
 11
56.868795211178451
 21
80.980947374424758
 31
0.0
  0
POLYLINE
  5
554
  8
0
 66
     1
 10
0.0
 20
0.0
 30
0.0
  0
VERTEX
  5
ABC
  8
0
 10
56.868795211178373
 20
80.980947374424758
 30
0.0
  0
VERTEX
  5
ABD
  8
0
 10
56.870239004863421
 20
81.065899619157278
 30
0.0
  0
VERTEX
  5
ABE
  8
0
 10
56.882138696888262
 20
81.238899656714594
 30
0.0
  0
VERTEX
  5
ABF
  8
0
 10
56.906717519339693
 20
81.414737000107976
 30
0.0
  0
VERTEX
  5
AC0
  8
0
 10
56.923960806408147
 20
81.503235353658368
 30
0.0
  0
VERTEX
  5
AC1
  8
0
 10
56.944587927856432
 20
81.591863937867686
 30
0.0
  0
VERTEX
  5
AC2
  8
0
 10
56.9961643834963
 20
81.768743639668983
 30
0.0
  0
VERTEX
  5
AC3
  8
0
 10
57.06166834098866
 20
81.943841763674484
 30
0.0
  0
VERTEX
  5
AC4
  8
0
 10
57.141149848537637
 20
82.115670309023898
 30
0.0
  0
VERTEX
  5
AC5
  8
0
 10
57.23450377142818
 20
82.282792238534569
 30
0.0
  0
VERTEX
  5
AC6
  8
0
 10
57.341428178845561
 20
82.443747058663888
 30
0.0
  0
VERTEX
  5
AC7
  8
0
 10
57.399837393200691
 20
82.52146842622011
 30
0.0
  0
VERTEX
  5
AC8
  8
0
 10
57.461447811024108
 20
82.59712369374293
 30
0.0
  0
VERTEX
  5
AC9
  8
0
 10
57.593909041894669
 20
82.741566324136897
 30
0.0
  0
VERTEX
  5
ACA
  8
0
 10
57.738016755686402
 20
82.87582510903016
 30
0.0
  0
VERTEX
  5
ACB
  8
0
 10
57.829378727300913
 20
82.950768911815004
 30
0.0
  0
VERTEX
  5
ACC
  8
0
 10
57.856768706164068
 20
82.971870740135827
 30
0.0
  0
VERTEX
  5
ACD
  8
0
 10
57.884723655970667
 20
82.992795186517768
 30
0.0
  0
VERTEX
  5
ACE
  8
0
 10
57.898911592785737
 20
83.003184291400885
 30
0.0
  0
VERTEX
  5
ACF
  8
0
 10
57.913239028061682
 20
83.013521160979849
 30
0.0
  0
VERTEX
  5
AD0
  8
0
 10
57.942309785090373
 20
83.034027823203743
 30
0.0
  0
VERTEX
  5
AD1
  8
0
 10
57.971930417611929
 20
83.054294607402085
 30
0.0
  0
VERTEX
  5
AD2
  8
0
 10
58.002094964950281
 20
83.074301247270967
 30
0.0
  0
VERTEX
  5
AD3
  8
0
 10
58.0327970407793
 20
83.094027800885229
 30
0.0
  0
VERTEX
  5
AD4
  8
0
 10
58.064029863809651
 20
83.11345467530461
 30
0.0
  0
VERTEX
  5
AD5
  8
0
 10
58.079843079649429
 20
83.123049706860598
 30
0.0
  0
VERTEX
  5
AD6
  8
0
 10
58.095786245373773
 20
83.132562621856593
 30
0.0
  0
VERTEX
  5
AD7
  8
0
 10
58.128058433061511
 20
83.151332650689838
 30
0.0
  0
VERTEX
  5
AD8
  8
0
 10
58.160838054218793
 20
83.169746019104124
 30
0.0
  0
VERTEX
  5
AD9
  8
0
 10
58.194116130460593
 20
83.18778426403037
 30
0.0
  0
VERTEX
  5
ADA
  8
0
 10
58.227883097115729
 20
83.205429234990333
 30
0.0
  0
VERTEX
  5
ADB
  8
0
 10
58.262128826908217
 20
83.222663126683841
 30
0.0
  0
VERTEX
  5
ADC
  8
0
 10
58.279427916259749
 20
83.231120455936875
 30
0.0
  0
VERTEX
  5
ADD
  8
0
 10
58.296842658383802
 20
83.239468511044322
 30
0.0
  0
VERTEX
  5
ADE
  8
0
 10
58.332013429612658
 20
83.255828368545892
 30
0.0
  0
VERTEX
  5
ADF
  8
0
 10
58.367629517715557
 20
83.271726118483912
 30
0.0
  0
VERTEX
  5
AE0
  8
0
 10
58.385600808561712
 20
83.279496648785283
 30
0.0
  0
VERTEX
  5
AE1
  8
0
 10
58.40367888477072
 20
83.287145647882937
 30
0.0
  0
VERTEX
  5
AE2
  8
0
 10
58.4401491306579
 20
83.302071338614127
 30
0.0
  0
VERTEX
  5
AE3
  8
0
 10
58.477031624558428
 20
83.31648964669877
 30
0.0
  0
VERTEX
  5
AE4
  8
0
 10
58.495625117169517
 20
83.323504521417902
 30
0.0
  0
VERTEX
  5
AE5
  8
0
 10
58.514317831284998
 20
83.330387394355185
 30
0.0
  0
VERTEX
  5
AE6
  8
0
 10
58.551993822311942
 20
83.343749839961404
 30
0.0
  0
VERTEX
  5
AE7
  8
0
 10
58.590044962977508
 20
83.356562673863465
 30
0.0
  0
VERTEX
  5
AE8
  8
0
 10
58.628455957357033
 20
83.368812066833286
 30
0.0
  0
VERTEX
  5
AE9
  8
0
 10
58.667210894015398
 20
83.380484714394925
 30
0.0
  0
VERTEX
  5
AEA
  8
0
 10
58.706293298534639
 20
83.391567878723095
 30
0.0
  0
VERTEX
  5
AEB
  8
0
 10
58.725952013616578
 20
83.396884588705916
 30
0.0
  0
VERTEX
  5
AEC
  8
0
 10
58.745686193367497
 20
83.402049427606926
 30
0.0
  0
VERTEX
  5
AED
  8
0
 10
58.785372165546299
 20
83.411917869890615
 30
0.0
  0
VERTEX
  5
AEE
  8
0
 10
58.825333442738412
 20
83.421162386722699
 30
0.0
  0
VERTEX
  5
AEF
  8
0
 10
58.865551978083779
 20
83.429772857864648
 30
0.0
  0
VERTEX
  5
AF0
  8
0
 10
58.906009605024707
 20
83.437739893693944
 30
0.0
  0
VERTEX
  5
AF1
  8
0
 10
58.94668827670958
 20
83.445054867184254
 30
0.0
  0
VERTEX
  5
AF2
  8
0
 10
58.967104477423348
 20
83.448465267858467
 30
0.0
  0
VERTEX
  5
AF3
  8
0
 10
58.987568601233413
 20
83.451709660009925
 30
0.0
  0
VERTEX
  5
AF4
  8
0
 10
59.028630481024223
 20
83.457696848303627
 30
0.0
  0
VERTEX
  5
AF5
  8
0
 10
59.06985339311052
 20
83.463009780854236
 30
0.0
  0
VERTEX
  5
AF6
  8
0
 10
59.090518730029373
 20
83.46541154201492
 30
0.0
  0
SEQEND
  5
AF7
  8
0
  0
POLYLINE
  5
555
  8
0
 66
     1
 10
0.0
 20
0.0
 30
0.0
  0
VERTEX
  5
AF8
  8
0
 10
59.090518730029338
 20
83.465411542015204
 30
0.0
  0
VERTEX
  5
AF9
  8
0
 10
59.115253295399867
 20
83.468180868401021
 30
0.0
  0
VERTEX
  5
AFA
  8
0
 10
59.164928646961592
 20
83.47373590902032
 30
0.0
  0
VERTEX
  5
AFB
  8
0
 10
59.2148626426264
 20
83.479310856403345
 30
0.0
  0
VERTEX
  5
AFC
  8
0
 10
59.239920413999052
 20
83.482105058342427
 30
0.0
  0
VERTEX
  5
AFD
  8
0
 10
59.265035336048399
 20
83.484903349119335
 30
0.0
  0
VERTEX
  5
AFE
  8
0
 10
59.315426405191197
 20
83.490510997835415
 30
0.0
  0
VERTEX
  5
AFF
  8
0
 10
59.366015200435889
 20
83.496131391164965
 30
0.0
  0
VERTEX
  5
B00
  8
0
 10
59.416780793619829
 20
83.501762101554789
 30
0.0
  0
VERTEX
  5
B01
  8
0
 10
59.467702028040549
 20
83.507400691212524
 30
0.0
  0
VERTEX
  5
B02
  8
0
 10
59.518757569473621
 20
83.513044718077495
 30
0.0
  0
VERTEX
  5
B03
  8
0
 10
59.544329002629993
 20
83.515868007631354
 30
0.0
  0
VERTEX
  5
B04
  8
0
 10
59.56992595826533
 20
83.51869174183804
 30
0.0
  0
VERTEX
  5
B05
  8
0
 10
59.621185662572891
 20
83.524339330002178
 30
0.0
  0
VERTEX
  5
B06
  8
0
 10
59.672515132834498
 20
83.529985064028097
 30
0.0
  0
VERTEX
  5
B07
  8
0
 10
59.72389301657698
 20
83.535626562967479
 30
0.0
  0
VERTEX
  5
B08
  8
0
 10
59.775298399047067
 20
83.541261509680794
 30
0.0
  0
VERTEX
  5
B09
  8
0
 10
59.826709275922163
 20
83.546887483465227
 30
0.0
  0
VERTEX
  5
B0A
  8
0
 10
59.852409808618852
 20
83.549696343711901
 30
0.0
  0
VERTEX
  5
B0B
  8
0
 10
59.878103336147419
 20
83.552502046527707
 30
0.0
  0
VERTEX
  5
B0C
  8
0
 10
59.929458129734769
 20
83.558102762547847
 30
0.0
  0
VERTEX
  5
B0D
  8
0
 10
59.980751122172713
 20
83.563687202700692
 30
0.0
  0
VERTEX
  5
B0E
  8
0
 10
60.006367391340341
 20
83.566472563847753
 30
0.0
  0
SEQEND
  5
B0F
  8
0
  0
POLYLINE
  5
556
  8
0
 66
     1
 10
0.0
 20
0.0
 30
0.0
  0
VERTEX
  5
B10
  8
0
 10
120.73122335027161
 20
83.566472529148314
 30
0.0
  0
VERTEX
  5
B11
  8
0
 10
120.7568396108437
 20
83.563687168906654
 30
0.0
  0
VERTEX
  5
B12
  8
0
 10
120.8081325859465
 20
83.558102730585077
 30
0.0
  0
VERTEX
  5
B13
  8
0
 10
120.8594873620267
 20
83.552502016421258
 30
0.0
  0
VERTEX
  5
B14
  8
0
 10
120.8851808807448
 20
83.549696314542359
 30
0.0
  0
VERTEX
  5
B15
  8
0
 10
120.91088140459701
 20
83.546887455237865
 30
0.0
  0
VERTEX
  5
B16
  8
0
 10
120.9622922636933
 20
83.541261483352571
 30
0.0
  0
VERTEX
  5
B17
  8
0
 10
121.0136976282849
 20
83.535626538555903
 30
0.0
  0
VERTEX
  5
B18
  8
0
 10
121.0650754940753
 20
83.529985041548059
 30
0.0
  0
VERTEX
  5
B19
  8
0
 10
121.11640494633509
 20
83.524339309465745
 30
0.0
  0
VERTEX
  5
B1A
  8
0
 10
121.16766463261089
 20
83.518691723255301
 30
0.0
  0
VERTEX
  5
B1B
  8
0
 10
121.1932615792261
 20
83.515867990028482
 30
0.0
  0
VERTEX
  5
B1C
  8
0
 10
121.2188330033632
 20
83.513044701456053
 30
0.0
  0
VERTEX
  5
B1D
  8
0
 10
121.26988852677169
 20
83.507400676557495
 30
0.0
  0
VERTEX
  5
B1E
  8
0
 10
121.3208097432052
 20
83.501762088868645
 30
0.0
  0
VERTEX
  5
B1F
  8
0
 10
121.37157531846189
 20
83.496131380447864
 30
0.0
  0
VERTEX
  5
B20
  8
0
 10
121.4221640958618
 20
83.490510989084839
 30
0.0
  0
VERTEX
  5
B21
  8
0
 10
121.4725551472643
 20
83.484903342330142
 30
0.0
  0
VERTEX
  5
B22
  8
0
 10
121.4976700604895
 20
83.482105052531253
 30
0.0
  0
VERTEX
  5
B23
  8
0
 10
121.5227278230724
 20
83.479310851568016
 30
0.0
  0
VERTEX
  5
B24
  8
0
 10
121.5726618012711
 20
83.473735906128695
 30
0.0
  0
VERTEX
  5
B25
  8
0
 10
121.6223371355357
 20
83.468180867440594
 30
0.0
  0
VERTEX
  5
B26
  8
0
 10
121.6470716923274
 20
83.46541154201492
 30
0.0
  0
SEQEND
  5
B27
  8
0
  0
POLYLINE
  5
557
  8
0
 66
     1
 10
0.0
 20
0.0
 30
0.0
  0
VERTEX
  5
B28
  8
0
 10
121.6470716923274
 20
83.465411542014905
 30
0.0
  0
VERTEX
  5
B29
  8
0
 10
121.6677370292462
 20
83.463009780854208
 30
0.0
  0
VERTEX
  5
B2A
  8
0
 10
121.70895994133249
 20
83.457696848303613
 30
0.0
  0
VERTEX
  5
B2B
  8
0
 10
121.7500218211233
 20
83.451709660009897
 30
0.0
  0
VERTEX
  5
B2C
  8
0
 10
121.7704859449334
 20
83.448465267858424
 30
0.0
  0
VERTEX
  5
B2D
  8
0
 10
121.79090214564719
 20
83.445054867184226
 30
0.0
  0
VERTEX
  5
B2E
  8
0
 10
121.831580817332
 20
83.437739893693944
 30
0.0
  0
VERTEX
  5
B2F
  8
0
 10
121.8720384442729
 20
83.429772857864634
 30
0.0
  0
VERTEX
  5
B30
  8
0
 10
121.91225697961831
 20
83.421162386722699
 30
0.0
  0
VERTEX
  5
B31
  8
0
 10
121.9522182568104
 20
83.411917869890601
 30
0.0
  0
VERTEX
  5
B32
  8
0
 10
121.9919042289892
 20
83.402049427606897
 30
0.0
  0
VERTEX
  5
B33
  8
0
 10
122.0116384087401
 20
83.396884588705916
 30
0.0
  0
VERTEX
  5
B34
  8
0
 10
122.0312971238221
 20
83.39156787872308
 30
0.0
  0
VERTEX
  5
B35
  8
0
 10
122.07037952834131
 20
83.380484714394896
 30
0.0
  0
VERTEX
  5
B36
  8
0
 10
122.1091344649997
 20
83.368812066833286
 30
0.0
  0
VERTEX
  5
B37
  8
0
 10
122.1475454593792
 20
83.356562673863465
 30
0.0
  0
VERTEX
  5
B38
  8
0
 10
122.1855966000448
 20
83.343749839961404
 30
0.0
  0
VERTEX
  5
B39
  8
0
 10
122.22327259107171
 20
83.330387394355171
 30
0.0
  0
VERTEX
  5
B3A
  8
0
 10
122.24196530518719
 20
83.323504521417902
 30
0.0
  0
VERTEX
  5
B3B
  8
0
 10
122.2605587977983
 20
83.316489646698756
 30
0.0
  0
VERTEX
  5
B3C
  8
0
 10
122.2974412916988
 20
83.302071338614098
 30
0.0
  0
VERTEX
  5
B3D
  8
0
 10
122.333911537586
 20
83.287145647882937
 30
0.0
  0
VERTEX
  5
B3E
  8
0
 10
122.351989613795
 20
83.279496648785283
 30
0.0
  0
VERTEX
  5
B3F
  8
0
 10
122.3699609046412
 20
83.271726118483912
 30
0.0
  0
VERTEX
  5
B40
  8
0
 10
122.4055769927441
 20
83.255828368545878
 30
0.0
  0
VERTEX
  5
B41
  8
0
 10
122.44074776397289
 20
83.239468511044294
 30
0.0
  0
VERTEX
  5
B42
  8
0
 10
122.458162506097
 20
83.231120455936875
 30
0.0
  0
VERTEX
  5
B43
  8
0
 10
122.47546159544849
 20
83.222663126683841
 30
0.0
  0
VERTEX
  5
B44
  8
0
 10
122.509707325241
 20
83.205429234990305
 30
0.0
  0
VERTEX
  5
B45
  8
0
 10
122.5434742918961
 20
83.187784264030356
 30
0.0
  0
VERTEX
  5
B46
  8
0
 10
122.5767523681379
 20
83.16974601910411
 30
0.0
  0
VERTEX
  5
B47
  8
0
 10
122.60953198929521
 20
83.151332650689824
 30
0.0
  0
VERTEX
  5
B48
  8
0
 10
122.641804176983
 20
83.132562621856579
 30
0.0
  0
VERTEX
  5
B49
  8
0
 10
122.6577473427073
 20
83.123049706860598
 30
0.0
  0
VERTEX
  5
B4A
  8
0
 10
122.67356055854709
 20
83.11345467530461
 30
0.0
  0
VERTEX
  5
B4B
  8
0
 10
122.7047933815774
 20
83.094027800885229
 30
0.0
  0
VERTEX
  5
B4C
  8
0
 10
122.7354954574064
 20
83.074301247270938
 30
0.0
  0
VERTEX
  5
B4D
  8
0
 10
122.7656600047448
 20
83.054294607402056
 30
0.0
  0
VERTEX
  5
B4E
  8
0
 10
122.7952806372664
 20
83.034027823203743
 30
0.0
  0
VERTEX
  5
B4F
  8
0
 10
122.82435139429499
 20
83.01352116097982
 30
0.0
  0
VERTEX
  5
B50
  8
0
 10
122.83867882957099
 20
83.003184291400871
 30
0.0
  0
VERTEX
  5
B51
  8
0
 10
122.8528667663861
 20
82.992795186517768
 30
0.0
  0
VERTEX
  5
B52
  8
0
 10
122.8808217161927
 20
82.971870740135813
 30
0.0
  0
VERTEX
  5
B53
  8
0
 10
122.9082116950558
 20
82.950768911814976
 30
0.0
  0
VERTEX
  5
B54
  8
0
 10
122.9995736666703
 20
82.87582510903016
 30
0.0
  0
VERTEX
  5
B55
  8
0
 10
123.143681380462
 20
82.741566324136897
 30
0.0
  0
VERTEX
  5
B56
  8
0
 10
123.2761426113326
 20
82.59712369374293
 30
0.0
  0
VERTEX
  5
B57
  8
0
 10
123.337753029156
 20
82.52146842622011
 30
0.0
  0
VERTEX
  5
B58
  8
0
 10
123.3961622435111
 20
82.443747058663917
 30
0.0
  0
VERTEX
  5
B59
  8
0
 10
123.50308665092849
 20
82.282792238534569
 30
0.0
  0
VERTEX
  5
B5A
  8
0
 10
123.59644057381909
 20
82.115670309023898
 30
0.0
  0
VERTEX
  5
B5B
  8
0
 10
123.6759220813681
 20
81.943841763674484
 30
0.0
  0
VERTEX
  5
B5C
  8
0
 10
123.7414260388604
 20
81.768743639668998
 30
0.0
  0
VERTEX
  5
B5D
  8
0
 10
123.7930024945003
 20
81.591863937867686
 30
0.0
  0
VERTEX
  5
B5E
  8
0
 10
123.8136296159485
 20
81.503235353658368
 30
0.0
  0
VERTEX
  5
B5F
  8
0
 10
123.830872903017
 20
81.414737000107976
 30
0.0
  0
VERTEX
  5
B60
  8
0
 10
123.8554517254685
 20
81.238899656714665
 30
0.0
  0
VERTEX
  5
B61
  8
0
 10
123.8673514174933
 20
81.065899619157307
 30
0.0
  0
VERTEX
  5
B62
  8
0
 10
123.86879521117829
 20
80.980947374424787
 30
0.0
  0
SEQEND
  5
B63
  8
0
  0
LINE
  5
558
  8
0
 10
123.86879521117829
 20
74.711639104884171
 30
0.0
 11
123.86879521117829
 21
80.980947374424787
 31
0.0
  0
POLYLINE
  5
559
  8
0
 66
     1
 10
0.0
 20
0.0
 30
0.0
  0
VERTEX
  5
B64
  8
0
 10
123.86879521117829
 20
74.711639104884171
 30
0.0
  0
VERTEX
  5
B65
  8
0
 10
123.8671657522257
 20
74.621391447701626
 30
0.0
  0
VERTEX
  5
B66
  8
0
 10
123.8537148315534
 20
74.437459455246824
 30
0.0
  0
VERTEX
  5
B67
  8
0
 10
123.8258955300425
 20
74.250490513823294
 30
0.0
  0
VERTEX
  5
B68
  8
0
 10
123.80636800477249
 20
74.156446457301954
 30
0.0
  0
VERTEX
  5
B69
  8
0
 10
123.7830042456221
 20
74.062335833669579
 30
0.0
  0
VERTEX
  5
B6A
  8
0
 10
123.7245879431551
 20
73.874835302332144
 30
0.0
  0
VERTEX
  5
B6B
  8
0
 10
123.6504366464337
 20
73.689820940568268
 30
0.0
  0
VERTEX
  5
B6C
  8
0
 10
123.56054252093131
 20
73.509040364576137
 30
0.0
  0
VERTEX
  5
B6D
  8
0
 10
123.4551201882453
 20
73.334232814036511
 30
0.0
  0
VERTEX
  5
B6E
  8
0
 10
123.33462291903579
 20
73.167125776026253
 30
0.0
  0
VERTEX
  5
B6F
  8
0
 10
123.2689219229386
 20
73.086979608480306
 30
0.0
  0
VERTEX
  5
B70
  8
0
 10
123.1997224252454
 20
73.009374279192073
 30
0.0
  0
VERTEX
  5
B71
  8
0
 10
123.114731670247
 20
72.922307978207243
 30
0.0
  0
VERTEX
  5
B72
  8
0
 10
123.0896347116865
 20
72.898158635319973
 30
0.0
  0
VERTEX
  5
B73
  8
0
 10
123.0641859711575
 20
72.874344852191555
 30
0.0
  0
VERTEX
  5
B74
  8
0
 10
123.0513314578091
 20
72.862565883301613
 30
0.0
  0
VERTEX
  5
B75
  8
0
 10
123.0383911493728
 20
72.850873293943764
 30
0.0
  0
VERTEX
  5
B76
  8
0
 10
123.01225452068439
 20
72.827749113935198
 30
0.0
  0
VERTEX
  5
B77
  8
0
 10
122.9855928154318
 20
72.804818319681658
 30
0.0
  0
VERTEX
  5
B78
  8
0
 10
122.9582794139921
 20
72.781991476687352
 30
0.0
  0
VERTEX
  5
B79
  8
0
 10
122.9303173621243
 20
72.759294726424002
 30
0.0
  0
VERTEX
  5
B7A
  8
0
 10
122.9017103665476
 20
72.736754012925829
 30
0.0
  0
VERTEX
  5
B7B
  8
0
 10
122.88716635278701
 20
72.725550215551664
 30
0.0
  0
VERTEX
  5
B7C
  8
0
 10
122.87246278988739
 20
72.714395050508415
 30
0.0
  0
VERTEX
  5
B7D
  8
0
 10
122.8425796415476
 20
72.692243291082164
 30
0.0
  0
VERTEX
  5
B7E
  8
0
 10
122.81206656399171
 20
72.670323891070211
 30
0.0
  0
VERTEX
  5
B7F
  8
0
 10
122.7809298138735
 20
72.648661677990944
 30
0.0
  0
VERTEX
  5
B80
  8
0
 10
122.7491762374169
 20
72.627281116821521
 30
0.0
  0
VERTEX
  5
B81
  8
0
 10
122.716813239399
 20
72.606206276320876
 30
0.0
  0
VERTEX
  5
B82
  8
0
 10
122.7004056648087
 20
72.595790906221922
 30
0.0
  0
VERTEX
  5
B83
  8
0
 10
122.68384874502109
 20
72.585460795539504
 30
0.0
  0
VERTEX
  5
B84
  8
0
 10
122.6502911747727
 20
72.565067863277832
 30
0.0
  0
VERTEX
  5
B85
  8
0
 10
122.61614959624821
 20
72.54505030263141
 30
0.0
  0
VERTEX
  5
B86
  8
0
 10
122.5814338613598
 20
72.525430628071859
 30
0.0
  0
VERTEX
  5
B87
  8
0
 10
122.5461545965354
 20
72.506231007113684
 30
0.0
  0
VERTEX
  5
B88
  8
0
 10
122.51032317736809
 20
72.487473215745823
 30
0.0
  0
VERTEX
  5
B89
  8
0
 10
122.4922041620549
 20
72.478266693240641
 30
0.0
  0
VERTEX
  5
B8A
  8
0
 10
122.47395169729251
 20
72.469178594373517
 30
0.0
  0
VERTEX
  5
B8B
  8
0
 10
122.4370529295152
 20
72.451368004504033
 30
0.0
  0
VERTEX
  5
B8C
  8
0
 10
122.3996402813944
 20
72.434061786501502
 30
0.0
  0
VERTEX
  5
B8D
  8
0
 10
122.3617277404349
 20
72.417279718836696
 30
0.0
  0
VERTEX
  5
B8E
  8
0
 10
122.3233298110502
 20
72.401040979366144
 30
0.0
  0
VERTEX
  5
B8F
  8
0
 10
122.2844609963324
 20
72.38536393416635
 30
0.0
  0
VERTEX
  5
B90
  8
0
 10
122.26485245723281
 20
72.377740775523336
 30
0.0
  0
VERTEX
  5
B91
  8
0
 10
122.2451296553305
 20
72.370263880364931
 30
0.0
  0
VERTEX
  5
B92
  8
0
 10
122.20534951235091
 20
72.35575776211887
 30
0.0
  0
VERTEX
  5
B93
  8
0
 10
122.1651376306158
 20
72.341863007653785
 30
0.0
  0
VERTEX
  5
B94
  8
0
 10
122.1448753587905
 20
72.335150181181319
 30
0.0
  0
VERTEX
  5
B95
  8
0
 10
122.1245119412099
 20
72.328596464906795
 30
0.0
  0
VERTEX
  5
B96
  8
0
 10
122.08349118551
 20
72.315974340299164
 30
0.0
  0
VERTEX
  5
B97
  8
0
 10
122.04209484827069
 20
72.304012140694866
 30
0.0
  0
VERTEX
  5
B98
  8
0
 10
122.0212621100744
 20
72.298283153963339
 30
0.0
  0
VERTEX
  5
B99
  8
0
 10
122.0003430805202
 20
72.29272461926675
 30
0.0
  0
VERTEX
  5
B9A
  8
0
 10
121.9582566114463
 20
72.282125726119986
 30
0.0
  0
VERTEX
  5
B9B
  8
0
 10
121.9158566485048
 20
72.272228564653133
 30
0.0
  0
VERTEX
  5
B9C
  8
0
 10
121.8731647650657
 20
72.263045354767286
 30
0.0
  0
VERTEX
  5
B9D
  8
0
 10
121.83020277483
 20
72.254587404124706
 30
0.0
  0
VERTEX
  5
B9E
  8
0
 10
121.78699271128011
 20
72.246865108975271
 30
0.0
  0
VERTEX
  5
B9F
  8
0
 10
121.7653017247641
 20
72.243282853310248
 30
0.0
  0
VERTEX
  5
BA0
  8
0
 10
121.7435573291705
 20
72.23988803430322
 30
0.0
  0
VERTEX
  5
BA1
  8
0
 10
121.69992033577751
 20
72.233664901657022
 30
0.0
  0
VERTEX
  5
BA2
  8
0
 10
121.6561062991896
 20
72.228203513066703
 30
0.0
  0
VERTEX
  5
BA3
  8
0
 10
121.61214053543971
 20
72.223510681116593
 30
0.0
  0
VERTEX
  5
BA4
  8
0
 10
121.5680489846644
 20
72.219592168377645
 30
0.0
  0
VERTEX
  5
BA5
  8
0
 10
121.5238580762063
 20
72.216452637325219
 30
0.0
  0
VERTEX
  5
BA6
  8
0
 10
121.5017337200936
 20
72.215176136433129
 30
0.0
  0
VERTEX
  5
BA7
  8
0
 10
121.4795945826779
 20
72.214095611914473
 30
0.0
  0
VERTEX
  5
BA8
  8
0
 10
121.4352854631297
 20
72.212523452019056
 30
0.0
  0
VERTEX
  5
BA9
  8
0
 10
121.3909576956071
 20
72.211737341957473
 30
0.0
  0
VERTEX
  5
BAA
  8
0
 10
121.36879521117829
 20
72.211639104884171
 30
0.0
  0
SEQEND
  5
BAB
  8
0
  0
LINE
  5
55A
  8
0
 10
121.36879521117829
 20
72.211639104884171
 30
0.0
 11
121.2687952111783
 21
72.211639104884171
 31
0.0
  0
POLYLINE
  5
55B
  8
0
 66
     1
 10
0.0
 20
0.0
 30
0.0
  0
VERTEX
  5
BAC
  8
0
 10
121.2687952111783
 20
72.211639104884256
 30
0.0
  0
VERTEX
  5
BAD
  8
0
 10
121.1795541591006
 20
72.224940729246853
 30
0.0
  0
VERTEX
  5
BAE
  8
0
 10
121.00030240638471
 20
72.251460351032506
 30
0.0
  0
VERTEX
  5
BAF
  8
0
 10
120.8207866282546
 20
72.277753751330195
 30
0.0
  0
VERTEX
  5
BB0
  8
0
 10
120.73122335027161
 20
72.290772732993304
 30
0.0
  0
SEQEND
  5
BB1
  8
0
  0
LINE
  5
569
  8
0
 10
107.11879521117839
 20
73.511639104884154
 30
0.0
 11
106.36879521117829
 21
73.511639104884154
 31
0.0
  0
POLYLINE
  5
56A
  8
0
 66
     1
 10
0.0
 20
0.0
 30
0.0
  0
VERTEX
  5
BB2
  8
0
 10
106.36879521117829
 20
73.511639104884154
 30
0.0
  0
VERTEX
  5
BB3
  8
0
 10
106.1801303310816
 20
73.50941414316938
 30
0.0
  0
VERTEX
  5
BB4
  8
0
 10
105.7988910836887
 20
73.491313865516346
 30
0.0
  0
VERTEX
  5
BB5
  8
0
 10
105.41400001787289
 20
73.454457631002001
 30
0.0
  0
VERTEX
  5
BB6
  8
0
 10
105.2207716546786
 20
73.428838225388958
 30
0.0
  0
VERTEX
  5
BB7
  8
0
 10
105.0273305751995
 20
73.398366729851205
 30
0.0
  0
VERTEX
  5
BB8
  8
0
 10
104.64071230088889
 20
73.322767669641337
 30
0.0
  0
VERTEX
  5
BB9
  8
0
 10
104.25591357900549
 20
73.227579177773961
 30
0.0
  0
VERTEX
  5
BBA
  8
0
 10
103.8746877221399
 20
73.112917144340571
 30
0.0
  0
VERTEX
  5
BBB
  8
0
 10
103.4987551203061
 20
72.979093147379899
 30
0.0
  0
VERTEX
  5
BBC
  8
0
 10
103.1297238597805
 20
72.826583860694285
 30
0.0
  0
VERTEX
  5
BBD
  8
0
 10
102.9482068303878
 20
72.743483622654225
 30
0.0
  0
VERTEX
  5
BBE
  8
0
 10
102.7689311230079
 20
72.655936029473807
 30
0.0
  0
VERTEX
  5
BBF
  8
0
 10
102.4178521014063
 20
72.467934709826835
 30
0.0
  0
VERTEX
  5
BC0
  8
0
 10
102.07793132919051
 20
72.263563804275606
 30
0.0
  0
VERTEX
  5
BC1
  8
0
 10
101.75050005389549
 20
72.043970223268914
 30
0.0
  0
VERTEX
  5
BC2
  8
0
 10
101.4367605451298
 20
71.810451219314572
 30
0.0
  0
VERTEX
  5
BC3
  8
0
 10
101.1378223567006
 20
71.564483312008363
 30
0.0
  0
VERTEX
  5
BC4
  8
0
 10
100.9942209647691
 20
71.437341735782411
 30
0.0
  0
VERTEX
  5
BC5
  8
0
 10
100.8546826591059
 20
71.307720778142169
 30
0.0
  0
VERTEX
  5
BC6
  8
0
 10
100.587207109392
 20
71.040946387110665
 30
0.0
  0
VERTEX
  5
BC7
  8
0
 10
100.32988968698849
 20
70.758697334969753
 30
0.0
  0
VERTEX
  5
BC8
  8
0
 10
100.2051255888276
 20
70.611558397040682
 30
0.0
  0
SEQEND
  5
BC9
  8
0
  0
POLYLINE
  5
571
  8
0
 66
     1
 10
0.0
 20
0.0
 30
0.0
  0
VERTEX
  5
BCA
  8
0
 10
80.532464833188556
 20
70.611558397452313
 30
0.0
  0
VERTEX
  5
BCB
  8
0
 10
80.407700735029778
 20
70.758697335359301
 30
0.0
  0
VERTEX
  5
BCC
  8
0
 10
80.150383312633124
 20
71.040946387457353
 30
0.0
  0
VERTEX
  5
BCD
  8
0
 10
79.882907762923963
 20
71.307720778453103
 30
0.0
  0
VERTEX
  5
BCE
  8
0
 10
79.743369457261849
 20
71.437341736077883
 30
0.0
  0
VERTEX
  5
BCF
  8
0
 10
79.599768065332285
 20
71.564483312288218
 30
0.0
  0
VERTEX
  5
BD0
  8
0
 10
79.30082987690956
 20
71.810451219563078
 30
0.0
  0
VERTEX
  5
BD1
  8
0
 10
78.987090368153673
 20
72.04397022348634
 30
0.0
  0
VERTEX
  5
BD2
  8
0
 10
78.659659092871721
 20
72.263563804462763
 30
0.0
  0
VERTEX
  5
BD3
  8
0
 10
78.319738320671973
 20
72.467934709984988
 30
0.0
  0
VERTEX
  5
BD4
  8
0
 10
77.968659299089254
 20
72.65593602960459
 30
0.0
  0
VERTEX
  5
BD5
  8
0
 10
77.789383591719812
 20
72.743483622772047
 30
0.0
  0
VERTEX
  5
BD6
  8
0
 10
77.607866562338131
 20
72.826583860799701
 30
0.0
  0
VERTEX
  5
BD7
  8
0
 10
77.238835301836247
 20
72.979093147462308
 30
0.0
  0
VERTEX
  5
BD8
  8
0
 10
76.862902700027988
 20
73.112917144402545
 30
0.0
  0
VERTEX
  5
BD9
  8
0
 10
76.481676843189533
 20
73.227579177818242
 30
0.0
  0
VERTEX
  5
BDA
  8
0
 10
76.096878121334612
 20
73.322767669670824
 30
0.0
  0
VERTEX
  5
BDB
  8
0
 10
75.710259847053294
 20
73.398366729868883
 30
0.0
  0
VERTEX
  5
BDC
  8
0
 10
75.516818767589072
 20
73.428838225401876
 30
0.0
  0
VERTEX
  5
BDD
  8
0
 10
75.323590404409813
 20
73.454457631010911
 30
0.0
  0
VERTEX
  5
BDE
  8
0
 10
74.938699338623934
 20
73.491313865519516
 30
0.0
  0
VERTEX
  5
BDF
  8
0
 10
74.557460091260566
 20
73.509414143169735
 30
0.0
  0
VERTEX
  5
BE0
  8
0
 10
74.368795211178366
 20
73.511639104884182
 30
0.0
  0
SEQEND
  5
BE1
  8
0
  0
LINE
  5
572
  8
0
 10
74.368795211178366
 20
73.511639104884182
 30
0.0
 11
73.618795211178721
 21
73.511639104884182
 31
0.0
  0
POLYLINE
  5
573
  8
0
 66
     1
 10
0.0
 20
0.0
 30
0.0
  0
VERTEX
  5
BE2
  8
0
 10
73.618795211178721
 20
73.511639104884466
 30
0.0
  0
VERTEX
  5
BE3
  8
0
 10
71.313990877548193
 20
73.409908002885771
 30
0.0
  0
VERTEX
  5
BE4
  8
0
 10
66.741861948497586
 20
73.081997660124031
 30
0.0
  0
VERTEX
  5
BE5
  8
0
 10
62.232585123871132
 20
72.593213403941093
 30
0.0
  0
VERTEX
  5
BE6
  8
0
 10
60.006367391340341
 20
72.290772779282733
 30
0.0
  0
SEQEND
  5
BE7
  8
0
  0
POLYLINE
  5
575
  8
0
 66
     1
 10
0.0
 20
0.0
 30
0.0
  0
VERTEX
  5
BE8
  8
0
 10
60.006367391340341
 20
83.566472563847753
 30
0.0
  0
VERTEX
  5
BE9
  8
0
 10
61.630165367647521
 20
83.738187315812866
 30
0.0
  0
VERTEX
  5
BEA
  8
0
 10
64.909480886872032
 20
84.055923152524315
 30
0.0
  0
VERTEX
  5
BEB
  8
0
 10
68.226908592149726
 20
84.337926441417778
 30
0.0
  0
VERTEX
  5
BEC
  8
0
 10
69.898337168799543
 20
84.465025074679943
 30
0.0
  0
VERTEX
  5
BED
  8
0
 10
71.577401142388354
 20
84.582613902475416
 30
0.0
  0
VERTEX
  5
BEE
  8
0
 10
74.955926404344964
 20
84.788622257714167
 30
0.0
  0
VERTEX
  5
BEF
  8
0
 10
78.357385911396847
 20
84.954806513519813
 30
0.0
  0
VERTEX
  5
BF0
  8
0
 10
81.776641025662713
 20
85.080246974208777
 30
0.0
  0
VERTEX
  5
BF1
  8
0
 10
85.208542745868129
 20
85.164253961009592
 30
0.0
  0
VERTEX
  5
BF2
  8
0
 10
88.647921169478067
 20
85.206369647171528
 30
0.0
  0
VERTEX
  5
BF3
  8
0
 10
90.368795380941378
 20
85.211639104884284
 30
0.0
  0
VERTEX
  5
BF4
  8
0
 10
92.089669592355236
 20
85.206369645092494
 30
0.0
  0
VERTEX
  5
BF5
  8
0
 10
95.529048015483113
 20
85.16425395478322
 30
0.0
  0
VERTEX
  5
BF6
  8
0
 10
98.960949734695646
 20
85.080246963868717
 30
0.0
  0
VERTEX
  5
BF7
  8
0
 10
102.38020484745979
 20
84.95480649912281
 30
0.0
  0
VERTEX
  5
BF8
  8
0
 10
105.7816643525025
 20
84.788622239339531
 30
0.0
  0
VERTEX
  5
BF9
  8
0
 10
109.16018961194401
 20
84.582613880225153
 30
0.0
  0
VERTEX
  5
BFA
  8
0
 10
110.8392535840877
 20
84.465025050536951
 30
0.0
  0
VERTEX
  5
BFB
  8
0
 10
112.51068215916921
 20
84.337926415415609
 30
0.0
  0
VERTEX
  5
BFC
  8
0
 10
115.8281098609359
 20
84.055923122915544
 30
0.0
  0
VERTEX
  5
BFD
  8
0
 10
119.1074253761529
 20
83.738187282764386
 30
0.0
  0
VERTEX
  5
BFE
  8
0
 10
120.7312233502717
 20
83.566472529148314
 30
0.0
  0
SEQEND
  5
BFF
  8
0
  0
POLYLINE
  5
577
  8
0
 66
     1
 10
0.0
 20
0.0
 30
0.0
  0
VERTEX
  5
C00
  8
0
 10
120.7312233502717
 20
72.290772732993304
 30
0.0
  0
VERTEX
  5
C01
  8
0
 10
118.50500556699831
 20
72.593213369910302
 30
0.0
  0
VERTEX
  5
C02
  8
0
 10
113.9957286375115
 20
73.081997645374898
 30
0.0
  0
VERTEX
  5
C03
  8
0
 10
109.42359960002079
 20
73.409907999939264
 30
0.0
  0
VERTEX
  5
C04
  8
0
 10
107.11879521117839
 20
73.511639104884154
 30
0.0
  0
SEQEND
  5
C05
  8
0
  0
POLYLINE
  5
585
  8
0
 66
     1
 10
0.0
 20
0.0
 30
0.0
  0
VERTEX
  5
C06
  8
0
 10
84.550368082865646
 20
46.411639104884173
 30
0.0
  0
VERTEX
  5
C07
  8
0
 10
84.526967217042355
 20
46.436325767067537
 30
0.0
  0
VERTEX
  5
C08
  8
0
 10
84.479869867672647
 20
46.486072718867547
 30
0.0
  0
VERTEX
  5
C09
  8
0
 10
84.432373369064308
 20
46.536323111535168
 30
0.0
  0
VERTEX
  5
C0A
  8
0
 10
84.408473542843126
 20
46.561639104884158
 30
0.0
  0
SEQEND
  5
C0B
  8
0
  0
POLYLINE
  5
590
  8
0
 66
     1
 10
0.0
 20
0.0
 30
0.0
  0
VERTEX
  5
C0C
  8
0
 10
96.329116879513606
 20
46.561639104884172
 30
0.0
  0
VERTEX
  5
C0D
  8
0
 10
96.305217053292495
 20
46.536323111535253
 30
0.0
  0
VERTEX
  5
C0E
  8
0
 10
96.257720554685179
 20
46.486072718868712
 30
0.0
  0
VERTEX
  5
C0F
  8
0
 10
96.210623205315528
 20
46.436325767068752
 30
0.0
  0
VERTEX
  5
C10
  8
0
 10
96.187222339491086
 20
46.411639104884173
 30
0.0
  0
SEQEND
  5
C11
  8
0
  0
LINE
  5
5A1
  8
5
 10
84.750257113940918
 20
46.411639104884173
 30
0.0
 11
84.750257113940918
 21
47.211639104884163
 31
0.0
  0
LINE
  5
5A3
  8
0
 10
84.408473542843126
 20
47.211639104884163
 30
0.0
 11
84.408473542843126
 21
46.561639104884179
 31
0.0
  0
LINE
  5
5A8
  8
5
 10
85.257219292291651
 20
46.411639104884173
 30
0.0
 11
85.257219292291651
 21
47.211639104884163
 31
0.0
  0
LINE
  5
5AC
  8
5
 10
85.748777681388447
 20
46.411639104884173
 30
0.0
 11
85.748777681388447
 21
47.211639104884163
 31
0.0
  0
LINE
  5
5AE
  8
5
 10
86.380712965286236
 20
46.411639104884173
 30
0.0
 11
86.380712965286236
 21
47.211639104884163
 31
0.0
  0
LINE
  5
5B2
  8
5
 10
87.133824110158457
 20
46.411639104884173
 30
0.0
 11
87.133824110158457
 21
47.211639104884163
 31
0.0
  0
LINE
  5
5B3
  8
5
 10
87.985228214960813
 20
46.411639104884173
 30
0.0
 11
87.985228214960813
 21
47.211639104884163
 31
0.0
  0
LINE
  5
5B7
  8
5
 10
88.909055796800146
 20
46.411639104884173
 30
0.0
 11
88.909055796800146
 21
47.211639104884163
 31
0.0
  0
LINE
  5
5B8
  8
5
 10
89.877236822081571
 20
46.411639104884173
 30
0.0
 11
89.877236822081571
 21
47.211639104884163
 31
0.0
  0
LINE
  5
5BC
  8
5
 10
90.860353600275161
 20
46.411639104884173
 30
0.0
 11
90.860353600275161
 21
47.211639104884163
 31
0.0
  0
LINE
  5
5BE
  8
5
 10
91.828534625556571
 20
46.411639104884173
 30
0.0
 11
91.828534625556571
 21
47.211639104884163
 31
0.0
  0
LINE
  5
5BF
  8
0
 10
96.1872223394911
 20
46.411639104884173
 30
0.0
 11
84.550368082865617
 21
46.411639104884173
 31
0.0
  0
LINE
  5
5C3
  8
5
 10
92.752362207395905
 20
46.411639104884173
 30
0.0
 11
92.752362207395905
 21
47.211639104884163
 31
0.0
  0
LINE
  5
5C4
  8
5
 10
93.603766312198275
 20
46.411639104884173
 30
0.0
 11
93.603766312198275
 21
47.211639104884163
 31
0.0
  0
LINE
  5
5C8
  8
5
 10
94.356877457070496
 20
46.411639104884173
 30
0.0
 11
94.356877457070496
 21
47.211639104884163
 31
0.0
  0
LINE
  5
5C9
  8
5
 10
94.988812740968285
 20
46.411639104884173
 30
0.0
 11
94.988812740968285
 21
47.211639104884163
 31
0.0
  0
LINE
  5
5CD
  8
5
 10
95.480371130065066
 20
46.411639104884173
 30
0.0
 11
95.480371130065066
 21
47.211639104884163
 31
0.0
  0
LINE
  5
5D1
  8
0
 10
96.329116879513606
 20
46.561639104884172
 30
0.0
 11
96.329116879513606
 21
47.211639104884163
 31
0.0
  0
LINE
  5
5D3
  8
0
 10
95.987333308415799
 20
46.411639104884173
 30
0.0
 11
96.1872223394911
 21
46.411639104884173
 31
0.0
  0
LINE
  5
5D4
  8
2
 10
92.435795211178373
 20
58.211639104884171
 30
0.0
 11
88.301795211178359
 21
58.211639104884171
 31
0.0
  0
LINE
  5
5D6
  8
2
 10
92.435795211178373
 20
46.64463910488417
 30
0.0
 11
88.301795211178359
 21
46.64463910488417
 31
0.0
  0
LINE
  5
5D7
  8
2
 10
92.868795211178366
 20
46.211639104884171
 30
0.0
 11
92.868795211178366
 21
56.211639104884171
 31
0.0
  0
LINE
  5
5D8
  8
2
 10
92.868795211178366
 20
56.211639104884171
 30
0.0
 11
87.868795211178366
 21
56.211639104884171
 31
0.0
  0
LINE
  5
5D9
  8
2
 10
87.868795211178366
 20
46.211639104884171
 30
0.0
 11
87.868795211178366
 21
56.211639104884171
 31
0.0
  0
LINE
  5
5DA
  8
1
 10
90.368795211178366
 20
93.692952128647775
 30
0.0
 11
90.368795211178366
 21
37.730326081120573
 31
0.0
  0
LINE
  5
618
  8
2
 10
159.2967732270337
 20
46.64463910488417
 30
0.0
 11
155.16277322703371
 21
46.64463910488417
 31
0.0
  0
LINE
  5
619
  8
0
 10
162.84831132427121
 20
46.411639104884173
 30
0.0
 11
163.04820035534641
 21
46.411639104884173
 31
0.0
  0
LINE
  5
61A
  8
0
 10
163.19009489536899
 20
46.561639104884172
 30
0.0
 11
163.19009489536899
 21
47.211639104884163
 31
0.0
  0
LINE
  5
61C
  8
5
 10
162.34134914592039
 20
46.411639104884173
 30
0.0
 11
162.34134914592039
 21
47.211639104884163
 31
0.0
  0
LINE
  5
61D
  8
5
 10
161.84979075682361
 20
46.411639104884173
 30
0.0
 11
161.84979075682361
 21
47.211639104884163
 31
0.0
  0
LINE
  5
61E
  8
5
 10
161.21785547292581
 20
46.411639104884173
 30
0.0
 11
161.21785547292581
 21
47.211639104884163
 31
0.0
  0
LINE
  5
61F
  8
5
 10
160.4647443280536
 20
46.411639104884173
 30
0.0
 11
160.4647443280536
 21
47.211639104884163
 31
0.0
  0
LINE
  5
620
  8
5
 10
159.61334022325121
 20
46.411639104884173
 30
0.0
 11
159.61334022325121
 21
47.211639104884163
 31
0.0
  0
LINE
  5
623
  8
0
 10
163.04820035534641
 20
46.411639104884173
 30
0.0
 11
151.411346098721
 21
46.411639104884173
 31
0.0
  0
LINE
  5
624
  8
5
 10
158.68951264141199
 20
46.411639104884173
 30
0.0
 11
158.68951264141199
 21
47.211639104884163
 31
0.0
  0
LINE
  5
626
  8
5
 10
157.7213316161305
 20
46.411639104884173
 30
0.0
 11
157.7213316161305
 21
47.211639104884163
 31
0.0
  0
LINE
  5
627
  8
5
 10
156.73821483793691
 20
46.411639104884173
 30
0.0
 11
156.73821483793691
 21
47.211639104884163
 31
0.0
  0
LINE
  5
628
  8
5
 10
155.7700338126555
 20
46.411639104884173
 30
0.0
 11
155.7700338126555
 21
47.211639104884163
 31
0.0
  0
LINE
  5
629
  8
5
 10
154.84620623081619
 20
46.411639104884173
 30
0.0
 11
154.84620623081619
 21
47.211639104884163
 31
0.0
  0
LINE
  5
62A
  8
5
 10
153.99480212601381
 20
46.411639104884173
 30
0.0
 11
153.99480212601381
 21
47.211639104884163
 31
0.0
  0
LINE
  5
62C
  8
5
 10
153.2416909811416
 20
46.411639104884173
 30
0.0
 11
153.2416909811416
 21
47.211639104884163
 31
0.0
  0
LINE
  5
62E
  8
5
 10
152.6097556972438
 20
46.411639104884173
 30
0.0
 11
152.6097556972438
 21
47.211639104884163
 31
0.0
  0
LINE
  5
62F
  8
5
 10
152.11819730814699
 20
46.411639104884173
 30
0.0
 11
152.11819730814699
 21
47.211639104884163
 31
0.0
  0
LINE
  5
630
  8
0
 10
151.26945155869851
 20
47.211639104884163
 30
0.0
 11
151.26945155869851
 21
46.561639104884179
 31
0.0
  0
LINE
  5
632
  8
5
 10
151.61123512979631
 20
46.411639104884173
 30
0.0
 11
151.61123512979631
 21
47.211639104884163
 31
0.0
  0
POLYLINE
  5
635
  8
0
 66
     1
 10
0.0
 20
0.0
 30
0.0
  0
VERTEX
  5
C12
  8
0
 10
163.19009489536899
 20
46.561639104884172
 30
0.0
  0
VERTEX
  5
C13
  8
0
 10
163.16619506914779
 20
46.536323111535253
 30
0.0
  0
VERTEX
  5
C14
  8
0
 10
163.11869857054049
 20
46.486072718868712
 30
0.0
  0
VERTEX
  5
C15
  8
0
 10
163.07160122117091
 20
46.436325767068752
 30
0.0
  0
VERTEX
  5
C16
  8
0
 10
163.04820035534641
 20
46.411639104884173
 30
0.0
  0
SEQEND
  5
C17
  8
0
  0
POLYLINE
  5
638
  8
0
 66
     1
 10
0.0
 20
0.0
 30
0.0
  0
VERTEX
  5
C18
  8
0
 10
151.411346098721
 20
46.411639104884173
 30
0.0
  0
VERTEX
  5
C19
  8
0
 10
151.38794523289769
 20
46.436325767067537
 30
0.0
  0
VERTEX
  5
C1A
  8
0
 10
151.340847883528
 20
46.486072718867547
 30
0.0
  0
VERTEX
  5
C1B
  8
0
 10
151.2933513849197
 20
46.536323111535168
 30
0.0
  0
VERTEX
  5
C1C
  8
0
 10
151.26945155869851
 20
46.561639104884158
 30
0.0
  0
SEQEND
  5
C1D
  8
0
  0
LINE
  5
639
  8
5
 10
162.8697732270337
 20
46.411639104884173
 30
0.0
 11
162.8697732270337
 21
47.211639104884163
 31
0.0
  0
LINE
  5
63C
  8
0
 10
163.65350804966971
 20
83.566472563847455
 30
0.0
 11
165.229773227034
 21
85.211639104884284
 31
0.0
  0
LINE
  5
648
  8
1
 10
157.22977322703369
 20
39.545244012703741
 30
0.0
 11
157.22977322703369
 21
94.762591624529236
 31
0.0
  0
CIRCLE
  5
678
  8
0
 10
90.368795211178366
 20
123.79260716552911
 30
0.0
 40
6.0000000000000062
  0
TEXT
  5
749
  8
0
 62
     3
 10
0.0
 20
0.0
 30
0.0
 40
10.0
  1
ATH67N-M5
  7
STANDARD1
  0
ENDSEC
  0
EOF
