  0
SECTION
  2
HEADER
  9
$ACADVER
  1
AC1009
  9
$INSBASE
 10
0.0
 20
0.0
 30
0.0
  9
$EXTMIN
 10
-0.0204638472032742
 20
-2.960436562073669
 30
0.0
  9
$EXTMAX
 10
257.98400273860841
 20
270.127963416032
 30
0.0000000002055771
  9
$LIMMIN
 10
0.0
 20
0.0
  9
$LIMMAX
 10
750.0
 20
540.0
  9
$ORTHOMODE
 70
     1
  9
$REGENMODE
 70
     1
  9
$FILLMODE
 70
     1
  9
$QTEXTMODE
 70
     0
  9
$MIRRTEXT
 70
     0
  9
$DRAGMODE
 70
     2
  9
$LTSCALE
 40
20.0
  9
$OSMODE
 70
  3071
  9
$ATTMODE
 70
     1
  9
$TEXTSIZE
 40
0.2
  9
$TRACEWID
 40
0.05
  9
$TEXTSTYLE
  7
STANDARD
  9
$CLAYER
  8
0
  9
$CELTYPE
  6
BYLAYER
  9
$CECOLOR
 62
   256
  9
$DIMSCALE
 40
1.0
  9
$DIMASZ
 40
3.0
  9
$DIMEXO
 40
2.0
  9
$DIMDLI
 40
0.38
  9
$DIMRND
 40
0.0
  9
$DIMDLE
 40
0.0
  9
$DIMEXE
 40
2.0
  9
$DIMTP
 40
0.0
  9
$DIMTM
 40
0.0
  9
$DIMTXT
 40
3.2000000000000002
  9
$DIMCEN
 40
0.0
  9
$DIMTSZ
 40
0.0
  9
$DIMTOL
 70
     0
  9
$DIMLIM
 70
     0
  9
$DIMTIH
 70
     0
  9
$DIMTOH
 70
     0
  9
$DIMSE1
 70
     0
  9
$DIMSE2
 70
     0
  9
$DIMTAD
 70
     1
  9
$DIMZIN
 70
     0
  9
$DIMBLK
  1

  9
$DIMASO
 70
     0
  9
$DIMSHO
 70
     0
  9
$DIMPOST
  1

  9
$DIMAPOST
  1

  9
$DIMALT
 70
     0
  9
$DIMALTD
 70
     2
  9
$DIMALTF
 40
25.399999999999999
  9
$DIMLFAC
 40
1.0
  9
$DIMTOFL
 70
     0
  9
$DIMTVP
 40
1.6000000000000001
  9
$DIMTIX
 70
     1
  9
$DIMSOXD
 70
     0
  9
$DIMSAH
 70
     0
  9
$DIMBLK1
  1

  9
$DIMBLK2
  1

  9
$DIMSTYLE
  2
STANDARD
  9
$DIMCLRD
 70
     0
  9
$DIMCLRE
 70
     0
  9
$DIMCLRT
 70
     0
  9
$DIMTFAC
 40
1.0
  9
$DIMGAP
 40
0.09
  9
$LUNITS
 70
     2
  9
$LUPREC
 70
     4
  9
$SKETCHINC
 40
0.1
  9
$FILLETRAD
 40
0.0
  9
$AUNITS
 70
     0
  9
$AUPREC
 70
     4
  9
$MENU
  1
E:\r13\win\SUPPORT\ACAD
  9
$ELEVATION
 40
0.0
  9
$PELEVATION
 40
0.0
  9
$THICKNESS
 40
0.0
  9
$LIMCHECK
 70
     0
  9
$BLIPMODE
 70
     0
  9
$CHAMFERA
 40
0.0
  9
$CHAMFERB
 40
0.0
  9
$SKPOLY
 70
     0
  9
$TDCREATE
 40
2449840.6227546302
  9
$TDUPDATE
 40
2456597.5636695488
  9
$TDINDWG
 40
0.05407875
  9
$TDUSRTIMER
 40
2456440.1791745489
  9
$USRTIMER
 70
     1
  9
$ANGBASE
 50
0.0
  9
$ANGDIR
 70
     0
  9
$PDMODE
 70
     0
  9
$PDSIZE
 40
0.0
  9
$PLINEWID
 40
0.0
  9
$COORDS
 70
     1
  9
$SPLFRAME
 70
     0
  9
$SPLINETYPE
 70
     6
  9
$SPLINESEGS
 70
     8
  9
$ATTDIA
 70
     0
  9
$ATTREQ
 70
     1
  9
$HANDLING
 70
     1
  9
$HANDSEED
  5
2103
  9
$SURFTAB1
 70
     6
  9
$SURFTAB2
 70
     6
  9
$SURFTYPE
 70
     6
  9
$SURFU
 70
     6
  9
$SURFV
 70
     6
  9
$UCSNAME
  2

  9
$UCSORG
 10
0.0
 20
0.0
 30
0.0
  9
$UCSXDIR
 10
1.0
 20
0.0
 30
0.0
  9
$UCSYDIR
 10
0.0
 20
1.0
 30
0.0
  9
$PUCSNAME
  2

  9
$PUCSORG
 10
0.0
 20
0.0
 30
0.0
  9
$PUCSXDIR
 10
1.0
 20
0.0
 30
0.0
  9
$PUCSYDIR
 10
0.0
 20
1.0
 30
0.0
  9
$USERI1
 70
     0
  9
$USERI2
 70
     1
  9
$USERI3
 70
     0
  9
$USERI4
 70
     0
  9
$USERI5
 70
     0
  9
$USERR1
 40
0.0
  9
$USERR2
 40
0.0
  9
$USERR3
 40
0.0
  9
$USERR4
 40
0.0
  9
$USERR5
 40
0.0
  9
$WORLDVIEW
 70
     1
  9
$SHADEDGE
 70
     3
  9
$SHADEDIF
 70
    70
  9
$TILEMODE
 70
     1
  9
$MAXACTVP
 70
    16
  9
$PLIMCHECK
 70
     0
  9
$PEXTMIN
 10
1.0000000000000000E+020
 20
1.0000000000000000E+020
 30
1.0000000000000000E+020
  9
$PEXTMAX
 10
-1.0000000000000000E+020
 20
-1.0000000000000000E+020
 30
-1.0000000000000000E+020
  9
$PLIMMIN
 10
0.0
 20
0.0
  9
$PLIMMAX
 10
12.0
 20
9.0
  9
$UNITMODE
 70
     0
  9
$VISRETAIN
 70
     0
  9
$PLINEGEN
 70
     0
  9
$PSLTSCALE
 70
     0
  0
ENDSEC
  0
SECTION
  2
TABLES
  0
TABLE
  2
VPORT
 70
     1
  0
VPORT
  2
*ACTIVE
 70
     0
 10
0.0
 20
0.0
 11
1.0
 21
1.0
 12
390.03402345615979
 22
268.50860658393782
 13
0.0
 23
0.0
 14
20.0
 24
20.0
 15
20.0
 25
20.0
 16
0.0
 26
0.0
 36
1.0
 17
0.0
 27
0.0
 37
0.0
 40
547.85258761088789
 41
1.831871345029239
 42
50.0
 43
0.0
 44
0.0
 50
0.0
 51
0.0
 71
    16
 72
   100
 73
     1
 74
     0
 75
     0
 76
     0
 77
     0
 78
     2
  0
ENDTAB
  0
TABLE
  2
LTYPE
 70
     3
  0
LTYPE
  2
CONTINUOUS
 70
     0
  3
Solid Line
 72
    65
 73
     0
 40
0.0
  0
LTYPE
  2
PHANTOM2
 70
     0
  3
___ _ _ ___ _ _ ___ _ _ ___ _ _
 72
    65
 73
     6
 40
1.25
 49
0.625
 49
-0.125
 49
0.125
 49
-0.125
 49
0.125
 49
-0.125
  0
LTYPE
  2
CENTER
 70
     0
  3
____ _ ____ _ ____ _ ____ _ ____ _ ____ _ ____
 72
    65
 73
     4
 40
2.0
 49
1.25
 49
-0.25
 49
0.25
 49
-0.25
  0
ENDTAB
  0
TABLE
  2
LAYER
 70
     3
  0
LAYER
  2
0
 70
     0
 62
     7
  6
CONTINUOUS
  0
LAYER
  2
1
 70
     0
 62
     1
  6
CENTER
  0
LAYER
  2
3
 70
     0
 62
     3
  6
CONTINUOUS
  0
ENDTAB
  0
TABLE
  2
STYLE
 70
     3
  0
STYLE
  2
STANDARD
 70
     0
 40
0.0
 41
1.0
 50
0.0
 71
     0
 42
0.2
  3
TXT
  4
BIGFONT
  0
STYLE
  2
ANNOTATIVE
 70
     0
 40
0.0
 41
1.0
 50
0.0
 71
     0
 42
0.2
  3
txt
  4

  0
STYLE
  2
STANDARD1
 70
     0
 40
0.0
 41
1.0
 50
0.0
 71
     0
 42
3.0
  3
txt
  4

  0
ENDTAB
  0
TABLE
  2
VIEW
 70
     1
  0
VIEW
  2
ALL
 70
     0
 40
540.0
 10
441.98319299999991
 20
270.0
 41
0.0
 11
0.0
 21
0.0
 31
1.0
 12
0.0
 22
0.0
 32
0.0
 42
0.0
 43
0.0
 44
0.0
 50
0.0
 71
     0
  0
ENDTAB
  0
TABLE
  2
UCS
 70
     0
  0
ENDTAB
  0
TABLE
  2
APPID
 70
     7
  0
APPID
  2
ACAD
 70
     0
  0
APPID
  2
ACADANNOTATIVE
 70
     0
  0
APPID
  2
ACAD_NAV_VCDISPLAY
 70
     0
  0
APPID
  2
ACAD_EXEMPT_FROM_CAD_STANDARDS
 70
     0
  0
APPID
  2
ACAD_DSTYLE_DIMJAG
 70
     0
  0
APPID
  2
ACAD_DSTYLE_DIMTALN
 70
     0
  0
APPID
  2
ACAD_MLEADERVER
 70
     0
  0
ENDTAB
  0
TABLE
  2
DIMSTYLE
 70
     2
  0
DIMSTYLE
  2
STANDARD
 70
     0
  3

  4

  5

  6

  7

 40
1.0
 41
0.18
 42
0.0625
 43
0.38
 44
0.18
 45
0.0
 46
0.0
 47
0.0
 48
0.0
140
0.18
141
0.09
142
0.0
143
25.399999999999999
144
1.0
145
0.0
146
1.0
147
0.09
 71
     0
 72
     0
 73
     1
 74
     1
 75
     0
 76
     0
 77
     0
 78
     0
170
     0
171
     2
172
     0
173
     0
174
     0
175
     0
176
     0
177
     0
178
     0
  0
DIMSTYLE
  2
ANNOTATIVE
 70
     0
  3

  4

  5

  6

  7

 40
1.0
 41
0.18
 42
0.0625
 43
0.38
 44
0.18
 45
0.0
 46
0.0
 47
0.0
 48
0.0
140
0.18
141
0.09
142
0.0
143
25.399999999999999
144
1.0
145
0.0
146
1.0
147
0.09
 71
     0
 72
     0
 73
     1
 74
     1
 75
     0
 76
     0
 77
     0
 78
     0
170
     0
171
     2
172
     0
173
     0
174
     0
175
     0
176
     0
177
     0
178
     0
  0
ENDTAB
  0
ENDSEC
  0
SECTION
  2
BLOCKS
  0
BLOCK
  8
0
  2
$MODEL_SPACE
 70
     0
 10
0.0
 20
0.0
 30
0.0
  3
$MODEL_SPACE
  1

  0
ENDBLK
  5
2014
  8
0
  0
BLOCK
 67
     1
  8
0
  2
$PAPER_SPACE
 70
     0
 10
0.0
 20
0.0
 30
0.0
  3
$PAPER_SPACE
  1

  0
ENDBLK
  5
2010
 67
     1
  8
0
  0
ENDSEC
  0
SECTION
  2
ENTITIES
  0
CIRCLE
  5
C83
  8
0
 10
98.576719208912948
 20
252.12796409808411
 30
0.0000000000023075
 40
4.0000000000000142
  0
LINE
  5
C84
  8
0
 10
96.076719264792303
 20
253.57133981500129
 30
0.0000000000023075
 11
96.076719264792303
 21
250.6845883811668
 31
0.0000000000023075
  0
LINE
  5
C85
  8
0
 10
98.576719208912948
 20
255.01471553191851
 30
0.0000000000023075
 11
96.076719264792303
 21
253.57133981500129
 31
0.0000000000023075
  0
LINE
  5
C86
  8
0
 10
96.076719264792303
 20
250.6845883811668
 30
0.0000000000023075
 11
98.576719208912948
 21
249.24121266424959
 31
0.0000000000023075
  0
LINE
  5
C87
  8
0
 10
101.07671915303359
 20
250.6845883811668
 30
0.0000000000023075
 11
101.07671915303359
 21
253.57133981500129
 31
0.0000000000023075
  0
LINE
  5
C88
  8
0
 10
98.576719208912948
 20
249.24121266424959
 30
0.0000000000023075
 11
101.07671915303359
 21
250.6845883811668
 31
0.0000000000023075
  0
LINE
  5
C89
  8
0
 10
101.07671915303359
 20
253.57133981500129
 30
0.0000000000023075
 11
98.576719208912948
 21
255.01471553191851
 31
0.0000000000023075
  0
ARC
  5
C8A
  8
0
 10
98.576719208912948
 20
252.12796409808411
 30
0.0000000000023075
 40
2.5
 50
300.0000000000008
 51
0.0
  0
ARC
  5
C8B
  8
0
 10
98.576719208912948
 20
252.12796409808411
 30
0.0000000000023075
 40
2.5000000000000071
 50
180.0
 51
240.0000000000004
  0
ARC
  5
C8C
  8
0
 10
98.576719208912948
 20
252.12796409808411
 30
0.0000000000023075
 40
2.5000000000000071
 50
240.0000000000004
 51
300.00000000000028
  0
ARC
  5
C8D
  8
0
 10
98.576719208912948
 20
252.12796409808411
 30
0.0000000000023075
 40
2.5
 50
119.9999999999999
 51
180.0
  0
ARC
  5
C8E
  8
0
 10
98.576719208912948
 20
252.12796409808411
 30
0.0000000000023075
 40
2.4999999999999831
 50
60.000000000000341
 51
119.9999999999999
  0
ARC
  5
C8F
  8
0
 10
98.576719208912948
 20
252.12796409808411
 30
0.0000000000023075
 40
2.5
 50
0.0
 51
60.000000000000099
  0
ARC
  5
C94
  8
0
 10
168.57682809297239
 20
143.68439783525591
 30
0.0000000000023075
 40
100.00002089412079
 50
84.208056060955016
 51
91.655336625219135
  0
ARC
  5
C95
  8
0
 10
168.5768276588594
 20
360.57154238140538
 30
0.0000000000023075
 40
100.0000328970573
 50
268.34466382235797
 51
275.79194349146951
  0
LINE
  5
C96
  8
0
 10
165.68812195892821
 20
243.64268691473021
 30
0.0000000000023075
 11
161.27304200764181
 21
243.50365163021101
 31
0.0000000000023075
  0
LINE
  5
C97
  8
0
 10
161.27304200764181
 20
260.75227656595712
 30
0.0000000000023075
 11
165.68812195892821
 21
260.61324128143792
 31
0.0000000000023075
  0
ARC
  5
C98
  8
0
 10
179.57671960787471
 20
252.12796409808411
 30
0.0000000000023075
 40
9.0000005606477949
 50
264.20805267125252
 51
95.791947328748208
  0
ARC
  5
C9B
  8
0
 10
98.571956770205787
 20
252.12796409808411
 30
0.0000000000023075
 40
12.50337816639157
 50
315.1952494168749
 51
44.804750583125717
  0
LINE
  5
C9C
  8
0
 10
105.8627211370636
 20
241.9709871076823
 30
0.0000000000023075
 11
107.44325750257261
 21
243.316920522678
 31
0.0000000000023075
  0
LINE
  5
C9D
  8
0
 10
107.44325750257261
 20
260.9390076734901
 30
0.0000000000023075
 11
105.8627211370636
 21
262.28494108848582
 31
0.0000000000023075
  0
ARC
  5
CA0
  8
0
 10
98.577150130186155
 20
252.12796409808411
 30
0.0000000000023075
 40
12.499749056673251
 50
54.34823236870762
 51
305.65176763129318
  0
ARC
  5
CA1
  8
0
 10
98.576719214164768
 20
252.12796409808411
 30
0.0000000000023075
 40
15.999999947972221
 50
56.542675934217321
 51
303.45732406578333
  0
LINE
  5
CA3
  8
0
 10
103.5767190971542
 20
249.24121266424959
 30
0.0000000000023075
 11
103.5767190971542
 21
255.01471553191851
 31
0.0000000000023075
  0
LINE
  5
CA4
  8
0
 10
93.576719320671685
 20
255.01471553191851
 30
0.0000000000023075
 11
93.576719320671685
 21
249.24121266424959
 31
0.0000000000023075
  0
ARC
  5
CAE
  8
0
 10
98.576719208912948
 20
252.12796409808411
 30
0.0000000000023075
 40
12.5
 50
56.812007725294677
 51
270.00000000000068
  0
ARC
  5
CB0
  8
0
 10
98.576719208912948
 20
252.12796409808411
 30
0.0000000000023075
 40
12.500000000000011
 50
313.98994685183749
 51
330.37232332761869
  0
LINE
  5
CB1
  8
0
 10
100.0740528454203
 20
239.7179687880755
 30
0.0000000000023075
 11
98.576719208912948
 21
239.62796391181951
 31
0.0000000000023075
  0
ARC
  5
CB2
  8
0
 10
98.576719208912948
 20
252.12796409808411
 30
0.0000000000023075
 40
4.999999999999992
 50
119.9999999999999
 51
180.0
  0
ARC
  5
CB3
  8
0
 10
98.576719208912948
 20
252.12796409808411
 30
0.0000000000023075
 40
5.0000000000000151
 50
300.0000000000008
 51
0.0
  0
ARC
  5
CB4
  8
0
 10
98.576719208912948
 20
252.12796409808411
 30
0.0000000000023075
 40
5.0000000000000151
 50
240.00000000000071
 51
300.0000000000008
  0
ARC
  5
CB5
  8
0
 10
98.576719208912948
 20
252.12796409808411
 30
0.0000000000023075
 40
4.999999999999992
 50
60.000000000000071
 51
119.9999999999999
  0
ARC
  5
CB6
  8
0
 10
98.576719208912948
 20
252.12796409808411
 30
0.0000000000023075
 40
5.0000000000000151
 50
180.0
 51
240.00000000000071
  0
ARC
  5
CB7
  8
0
 10
98.576719208912948
 20
252.12796409808411
 30
0.0000000000023075
 40
5.0
 50
0.0
 51
60.000000000000071
  0
ARC
  5
CC7
  8
0
 10
44.978681748101813
 20
175.62038070763569
 30
0.0000000000023075
 40
5.5034142618087971
 50
4.8050183274985612
 51
71.029768185303539
  0
ARC
  5
CC8
  8
0
 10
49.462440721386173
 20
139.7360433855963
 30
0.0000000000023075
 40
1.0
 50
270.0000000000008
 51
0.0
  0
ARC
  5
CCB
  8
0
 10
-132.21889967651461
 20
123.3315174286524
 30
0.0000000000023075
 40
187.37592744792869
 50
17.99319536005596
 51
20.85343667741304
  0
LINE
  5
CCC
  8
0
 10
38.217426472970111
 20
193.7360434153986
 30
0.0000000000023075
 11
30.710179088332509
 21
193.7360434153986
 31
0.0000000000023075
  0
LINE
  5
CD3
  8
0
 10
46.962440907650688
 20
178.59272717627999
 30
0.0000000000023075
 11
46.962440907650688
 21
179.23604383263111
 31
0.0000000000023075
  0
ARC
  5
CD4
  8
0
 10
24.462440721386191
 20
179.2360433855963
 30
0.0000000000023075
 40
2.5000000000000031
 50
90.0
 51
180.0
  0
ARC
  5
CD5
  8
0
 10
44.462440721386173
 20
179.2360433855963
 30
0.0000000000023075
 40
2.5000000000000071
 50
0.0
 51
90.0
  0
LINE
  5
CD6
  8
0
 10
26.46244034140657
 20
137.236043409345
 30
0.0000000000023075
 11
26.962440889024251
 21
136.7360433855963
 31
0.0000000000023075
  0
LINE
  5
CD7
  8
0
 10
41.96244055374811
 20
136.7360433855963
 30
0.0000000000023075
 11
42.462441101365769
 21
137.236043409345
 31
0.0000000000023075
  0
LINE
  5
CD8
  8
0
 10
42.462441101365769
 20
137.236043409345
 30
0.0000000000023075
 11
42.462441101365769
 21
138.73604348059121
 31
0.0000000000023075
  0
LINE
  5
CD9
  8
0
 10
26.46244034140657
 20
138.73604348059121
 30
0.0000000000023075
 11
26.46244034140657
 21
137.236043409345
 31
0.0000000000023075
  0
LINE
  5
D7A
  8
0
 10
49.46244038611006
 20
138.73604348059121
 30
0.0000000000023075
 11
19.462441056662311
 21
138.73604348059121
 31
0.0000000000023075
  0
LINE
  5
D83
  8
0
 10
38.217426472970111
 20
193.7104581216287
 30
0.0000000000023075
 11
38.2067923989825
 21
193.72221141252041
 31
0.0000000000023075
  0
LINE
  5
D84
  8
0
 10
30.719238994338369
 20
193.72873067054269
 30
0.0000000000023075
 11
30.710179088332509
 21
193.72425659689421
 31
0.0000000000023075
  0
ARC
  5
D85
  8
0
 10
31.036276212197151
 20
188.5198947119413
 30
-0.0000000000037929
 40
5.2184753176695891
210
0.0000000000004122
220
-0.0000000000011461
230
1.0
 50
93.483026398494474
 51
163.14091768301131
  0
ARC
  5
D86
  8
0
 10
37.902278899838343
 20
188.52812675545991
 30
0.0000000000023075
 40
5.2030033534365581
 50
16.815996346860899
 51
86.644762064713731
  0
LINE
  5
D88
  8
0
 10
44.462440497868762
 20
181.73604517373559
 30
0.0000000000023075
 11
24.462440944903602
 21
181.73604517373559
 31
0.0000000000023075
  0
LINE
  5
D89
  8
0
 10
41.96244055374811
 20
136.7360433855963
 30
0.0000000000023075
 11
26.962440889024251
 21
136.7360433855963
 31
0.0000000000023075
  0
LINE
  5
D8A
  8
0
 10
26.46244034140657
 20
137.236043409345
 30
0.0000000000023075
 11
42.462441101365769
 21
137.236043409345
 31
0.0000000000023075
  0
LINE
  5
D8B
  8
1
 10
34.462440721386052
 20
195.7360434153986
 30
0.0000000000023075
 11
34.462440721386052
 21
94.736043385596304
 31
0.0000000000023075
  0
LINE
  5
E51
  8
0
 10
250.98396992625129
 20
180.471175006957
 30
0.0000000000023075
 11
250.98396992625129
 21
188.4431099811506
 31
0.0000000000023075
  0
LINE
  5
E52
  8
0
 10
232.98397070111159
 20
188.4431099811506
 30
0.0000000000023075
 11
232.98397070111159
 21
180.4714357772778
 31
0.0000000000023075
  0
ARC
  5
E53
  8
0
 10
238.18089720639631
 20
188.29476779375031
 30
0.0000000000023075
 40
5.1990432298542251
 50
131.7358172914137
 51
178.36498091175019
  0
ARC
  5
E54
  8
0
 10
245.784676595804
 20
188.2936736721708
 30
0.0000000000023075
 40
5.2014404107395924
 50
1.6463224470394691
 51
48.248929355607793
  0
LINE
  5
E56
  8
0
 10
245.73623194673479
 20
193.7360434153986
 30
0.0000000000023075
 11
238.22898456209731
 21
193.7360434153986
 31
0.0000000000023075
  0
ARC
  5
E59
  8
0
 10
131.579135391232
 20
141.56404054630369
 30
0.0000000000023075
 40
128.219623392817
 50
17.90366367846234
 51
21.369106491357329
  0
ARC
  5
E5A
  8
0
 10
369.47837423990791
 20
135.46737645716371
 30
0.0000000000023075
 40
146.35687192505659
 50
158.8459570885133
 51
161.88188326093831
  0
LINE
  5
E5D
  8
0
 10
225.98396955372249
 20
176.08069314751151
 30
0.0000000000023075
 11
225.98396955372249
 21
139.73604341167319
 31
0.0000000000023075
  0
LINE
  5
E5E
  8
0
 10
257.98397107364087
 20
139.73604341167319
 30
0.0000000000023075
 11
257.98397107364087
 21
176.08181073460099
 31
0.0000000000023075
  0
ARC
  5
E5F
  8
0
 10
226.98397031368171
 20
139.7360433855963
 30
0.0000000000023075
 40
1.0000000000000271
 50
180.0
 51
270.0
  0
ARC
  5
E60
  8
0
 10
256.98397031368182
 20
139.7360433855963
 30
0.0000000000023075
 40
1.0
 50
270.0
 51
0.0
  0
ARC
  5
E61
  8
0
 10
252.503499420639
 20
175.62303134115061
 30
0.0000000000023075
 40
5.4998410773954181
 50
4.806101838995338
 51
71.053366725002761
  0
ARC
  5
E62
  8
0
 10
231.46772928696601
 20
175.62038070763569
 30
0.0000000000023075
 40
5.503414261808798
 50
108.9702318146966
 51
175.1949816725008
  0
LINE
  5
E63
  8
0
 10
249.98397069366121
 20
137.23604340934489
 30
0.0000000000023075
 11
249.98397069366121
 21
138.73604348059109
 31
0.0000000000023075
  0
LINE
  5
E64
  8
0
 10
233.9839699337021
 20
138.73604348059109
 30
0.0000000000023075
 11
233.9839699337021
 21
137.23604340934489
 31
0.0000000000023075
  0
LINE
  5
E65
  8
0
 10
233.9839699337021
 20
137.23604340934489
 30
0.0000000000023075
 11
234.4839704813198
 21
136.73604338559619
 31
0.0000000000023075
  0
LINE
  5
E66
  8
0
 10
249.4839701460437
 20
136.73604338559619
 30
0.0000000000023075
 11
249.98397069366121
 21
137.23604340934489
 31
0.0000000000023075
  0
LINE
  5
E76
  8
0
 10
238.22898456209731
 20
193.7104581216287
 30
0.0000000000023075
 11
238.2396186360848
 21
193.72221141252041
 31
0.0000000000023075
  0
LINE
  5
E77
  8
0
 10
245.72717204072899
 20
193.72873067054269
 30
0.0000000000023075
 11
245.73623194673479
 21
193.72425659689421
 31
0.0000000000023075
  0
LINE
  5
E78
  8
0
 10
250.48397077561759
 20
171.21785192880151
 30
0.0000000000023075
 11
250.46965541632321
 21
171.5652576008749
 31
0.0000000000023075
  0
LINE
  5
E79
  8
0
 10
250.48397077561759
 20
171.21785192880151
 30
0.0000000000023075
 11
250.48397077561759
 21
169.5036223450613
 31
0.0000000000023075
  0
LINE
  5
E7A
  8
0
 10
233.48396985174551
 20
169.5036223450613
 30
0.0000000000023075
 11
233.48396985174551
 21
171.21783330234999
 31
0.0000000000023075
  0
ARC
  5
E7D
  8
0
 10
245.4839703136816
 20
152.23604338559619
 30
0.0000000000023075
 40
4.9999999999999769
 50
311.4096221092716
 51
0.0000000000003257
  0
LINE
  5
E7E
  8
0
 10
250.48397077561759
 20
169.5036223450613
 30
0.0000000000023075
 11
250.48397077561759
 21
152.23604313227651
 31
0.0000000000023075
  0
LINE
  5
E7F
  8
0
 10
239.8839703885599
 20
147.23604324403519
 30
0.0000000000023075
 11
238.48397020564821
 21
147.23604324403519
 31
0.0000000000023075
  0
LINE
  5
E80
  8
0
 10
245.48397042171499
 20
147.23604324403519
 30
0.0000000000023075
 11
244.08397023880329
 21
147.23604324403519
 31
0.0000000000023075
  0
ARC
  5
E81
  8
0
 10
241.98397031368151
 20
108.70168867475211
 30
0.0000000000023075
 40
38.591533809331011
 50
86.880647625387056
 51
93.119352374612873
  0
ARC
  5
E82
  8
0
 10
245.48391215066479
 20
152.23619746219231
 30
0.0000000000023075
 40
5.0001542184966112
 50
270.00066771645402
 51
311.40894966964368
  0
ARC
  5
E83
  8
0
 10
238.4840284766982
 20
152.23619746219231
 30
0.0000000000023075
 40
5.0001542184966761
 50
228.5910503303586
 51
269.99933228354831
  0
ARC
  5
E84
  8
0
 10
238.4839703136816
 20
152.23604338559619
 30
0.0000000000023075
 40
5.0
 50
179.9999999999996
 51
228.59037789072951
  0
LINE
  5
E85
  8
0
 10
233.48396985174551
 20
152.23604313227651
 30
0.0000000000023075
 11
233.48396985174551
 21
169.5036223450613
 31
0.0000000000023075
  0
LINE
  5
E88
  8
0
 10
249.74230459274199
 20
138.73604348059109
 30
0.0000000000023075
 11
245.8279313644156
 21
138.73604348059109
 31
0.0000000000023075
  0
LINE
  5
E89
  8
0
 10
238.1400092629477
 20
138.73604348059109
 30
0.0000000000023075
 11
234.22563603462129
 21
138.73604348059109
 31
0.0000000000023075
  0
LINE
  5
E8A
  8
0
 10
245.8279313644156
 20
138.73604348059109
 30
0.0000000000023075
 11
238.1400092629477
 21
138.73604348059109
 31
0.0000000000023075
  0
LINE
  5
E8B
  8
0
 10
252.6570471593871
 20
138.73604348059109
 30
0.0000000000023075
 11
249.74230459274199
 21
138.73604348059109
 31
0.0000000000023075
  0
LINE
  5
E8C
  8
0
 10
234.22563603462129
 20
138.73604348059109
 30
0.0000000000023075
 11
231.3108934679762
 21
138.73604348059109
 31
0.0000000000023075
  0
LINE
  5
E8F
  8
0
 10
231.3108934679762
 20
138.73604348059109
 30
0.0000000000023075
 11
226.98397064895789
 21
138.73604348059109
 31
0.0000000000023075
  0
LINE
  5
E90
  8
0
 10
256.98396997840558
 20
138.73604348059109
 30
0.0000000000023075
 11
252.6570471593871
 21
138.73604348059109
 31
0.0000000000023075
  0
LINE
  5
E93
  8
0
 10
233.9839699337021
 20
137.23604340934489
 30
0.0000000000023075
 11
249.98397069366121
 21
137.23604340934489
 31
0.0000000000023075
  0
LINE
  5
E94
  8
0
 10
249.4839701460437
 20
136.73604338559619
 30
0.0000000000023075
 11
234.4839704813198
 21
136.73604338559619
 31
0.0000000000023075
  0
ARC
  5
E9F
  8
0
 10
85.076726302632096
 20
171.04844726562851
 30
0.0000000000023075
 40
2.5000059910373129
 50
111.8003600217337
 51
179.9998960099885
  0
ARC
  5
EA2
  8
0
 10
83.576719208912976
 20
139.7360433855963
 30
0.0000000000023075
 40
1.0000000000000131
 50
180.0
 51
270.0000000000008
  0
ARC
  5
EA5
  8
0
 10
182.57670807924509
 20
187.025329583912
 30
0.0000000000023075
 40
6.0000147059609432
 50
0.0001254845193945
 51
82.541511341172765
  0
LINE
  5
EA6
  8
0
 10
188.57672278519169
 20
180.3625194648217
 30
0.0000000000023075
 11
188.57672278519169
 21
187.02730222734931
 31
0.0000000000023075
  0
ARC
  5
EA7
  8
0
 10
184.57671761531719
 20
180.3626833938809
 30
0.0000000000023075
 40
4.0000051698814572
 50
255.62392444147039
 51
359.99989304515537
  0
LINE
  5
EA8
  8
0
 10
86.07671902264849
 20
179.23604383263111
 30
0.0000000000023075
 11
86.07671902264849
 21
174.13318215999121
 31
0.0000000000023075
  0
ARC
  5
EA9
  8
0
 10
88.576719208912976
 20
179.23604338559639
 30
0.0000000000023075
 40
2.5
 50
90.0
 51
180.0
  0
LINE
  5
EAA
  8
0
 10
106.5767195888926
 20
137.23604340934509
 30
0.0000000000023075
 11
106.5767195888926
 21
138.73604348059121
 31
0.0000000000023075
  0
LINE
  5
EAB
  8
0
 10
90.576718828933409
 20
138.73604348059121
 30
0.0000000000023075
 11
90.576718828933409
 21
137.23604340934509
 31
0.0000000000023075
  0
LINE
  5
EAC
  8
0
 10
90.576718828933409
 20
137.23604340934509
 30
0.0000000000023075
 11
91.076719376551068
 21
136.7360433855963
 31
0.0000000000023075
  0
LINE
  5
EAD
  8
0
 10
106.0767190412749
 20
136.7360433855963
 30
0.0000000000023075
 11
106.5767195888926
 21
137.23604340934509
 31
0.0000000000023075
  0
ARC
  5
EE5
  8
0
 10
198.5313951873552
 20
-112.60144868360121
 30
0.0000000000023075
 40
307.99832900402419
 50
107.6272369469557
 51
111.80048736076169
  0
LINE
  5
EEC
  8
0
 10
109.1164260053207
 20
138.73604348059121
 30
0.0000000000023075
 11
83.576719544189132
 21
138.73604348059121
 31
0.0000000000023075
  0
LINE
  5
EEF
  8
0
 10
111.0549217903186
 20
182.71336390766621
 30
0.0000000000023075
 11
110.9870227866937
 21
182.6932361641835
 31
0.0000000000023075
  0
ARC
  5
EF0
  8
0
 10
198.53211479462999
 20
-112.6037914648612
 30
0.0000000000023075
 40
308.00078097761468
 50
97.077207424169714
 51
106.499973817041
  0
LINE
  5
EF1
  8
0
 10
114.475604414301
 20
138.73604348059121
 30
0.0000000000023075
 11
109.1164260053207
 21
138.73604348059121
 31
0.0000000000023075
  0
LINE
  5
EF2
  8
0
 10
110.9870227866937
 20
182.6932361641835
 30
0.0000000000023075
 11
111.0549227216412
 21
182.71336390766621
 31
0.0000000000023075
  0
LINE
  5
EF3
  8
0
 10
124.7243865274955
 20
186.4227919200373
 30
0.0000000000023075
 11
124.7512700849344
 21
186.4294303873491
 31
0.0000000000023075
  0
ARC
  5
EF6
  8
0
 10
171.6748377767386
 20
103.7535848969522
 30
0.0000000000023075
 40
89.982359513049218
 50
82.541316786778765
 51
84.938045854219013
  0
ARC
  5
EF7
  8
0
 10
164.94637817186421
 20
103.7645578953075
 30
0.0000000000023075
 40
75.07352426257448
 50
75.625866767721092
 51
79.6513472965175
  0
ARC
  5
EF8
  8
0
 10
171.6735642519721
 20
103.81035385441071
 30
0.0000000000023075
 40
89.925924547547297
 50
84.934046215701656
 51
94.108667170907594
  0
ARC
  5
EF9
  8
0
 10
164.96211791897139
 20
103.836782564329
 30
0.0000000000023075
 40
74.999647074164244
 50
79.653264375678575
 51
89.516650168127555
  0
LINE
  5
EFC
  8
0
 10
160.58435131545559
 20
193.05034040603161
 30
0.0000000000023075
 11
165.2305221998264
 21
193.50516482386109
 31
0.0000000000023075
  0
LINE
  5
F04
  8
0
 10
98.576719208913005
 20
181.73604517373559
 30
0.0000000000023075
 11
107.9624717005659
 21
181.73604517373559
 31
0.0000000000023075
  0
LINE
  5
F05
  8
0
 10
88.576719432430423
 20
181.73604517373559
 30
0.0000000000023075
 11
98.576719208913005
 21
181.73604517373559
 31
0.0000000000023075
  0
LINE
  5
F06
  8
0
 10
90.576718828933409
 20
137.23604340934509
 30
0.0000000000023075
 11
106.5767195888926
 21
137.23604340934509
 31
0.0000000000023075
  0
LINE
  5
F07
  8
0
 10
106.0767190412749
 20
136.7360433855963
 30
0.0000000000023075
 11
91.076719376551068
 21
136.7360433855963
 31
0.0000000000023075
  0
LINE
  5
F08
  8
1
 10
98.576719208913005
 20
183.7360451737357
 30
0.0000000000023075
 11
98.576719208913005
 21
94.736043385596346
 31
0.0000000000023075
  0
ARC
  5
F94
  8
0
 10
23.942911614428731
 20
175.62303134115061
 30
0.0000000000023075
 40
5.499841077395307
 50
108.9466332749968
 51
175.19389816100511
  0
ARC
  5
F95
  8
0
 10
19.462440721386191
 20
139.7360433855963
 30
0.0000000000023075
 40
1.0
 50
180.0
 51
270.0000000000008
  0
LINE
  5
F97
  8
0
 10
21.962440535121669
 20
179.23604383263111
 30
0.0000000000023075
 11
21.962440535121669
 21
178.72660293373579
 31
0.0000000000023075
  0
ARC
  5
1369
  8
0
 10
108.743060052502
 20
28.9670919447837
 30
0.0000000000023075
 40
1.9872958535503991
 50
112.73250252158159
 51
122.4266625732353
  0
CIRCLE
  5
1373
  8
0
 10
100.826719208913
 20
52.378626390348671
 30
0.0000000000023075
 40
0.5999999999999996
  0
LINE
  5
1374
  8
0
 10
99.576719256410442
 20
51.756675203896442
 30
0.0000000000023075
 11
99.576719256410442
 21
53.869793971634792
 31
0.0000000000023075
  0
ARC
  5
1375
  8
0
 10
98.576719208913005
 20
43.819420819736393
 30
0.0000000000023075
 40
10.1
 50
95.682159036330773
 51
84.317840963669184
  0
LINE
  5
1376
  8
0
 10
97.576719161415554
 20
53.869793971634792
 30
0.0000000000023075
 11
97.576719161415554
 21
51.756675203896442
 31
0.0000000000023075
  0
CIRCLE
  5
1377
  8
0
 10
96.326719208913005
 20
52.378626390348671
 30
0.0000000000023075
 40
0.6000000000000008
  0
ARC
  5
1378
  8
0
 10
116.84554511535811
 20
25.319420819736418
 30
0.0000000000023075
 40
10.000000000000011
 50
102.4418819114633
 51
134.6397729586032
  0
ARC
  5
1379
  8
0
 10
113.6149238753777
 20
39.97662779398221
 30
0.0000000000023075
 40
5.0090186651514843
 50
282.4060399998383
 51
359.98663951828092
  0
ARC
  5
137A
  8
0
 10
98.576719208913005
 20
43.819420819736393
 30
0.0000000000023075
 40
15.99999999999998
 50
45.360227041396897
 51
314.63977295860388
  0
CIRCLE
  5
137B
  8
0
 10
98.576719208913005
 20
43.819420819736401
 30
0.0000000000023075
 40
10.75
  0
ARC
  5
137C
  8
0
 10
113.6148929446309
 20
47.662188973278226
 30
0.0000000000023075
 40
5.0090496017589423
 50
0.0136448988491307
 51
77.593675583033146
  0
ARC
  5
137D
  8
0
 10
116.84554511535811
 20
62.319420819736408
 30
0.0000000000023075
 40
10.000000000000011
 50
225.36022704139759
 51
257.55811808854082
  0
ARC
  5
137E
  8
0
 10
116.8455449415047
 20
25.31939112143716
 30
0.0000000000023075
 40
10.00002923636322
 50
90.000001411129887
 51
102.4418457662661
  0
ARC
  5
137F
  8
0
 10
116.8455455466362
 20
62.319456069480701
 30
0.0000000000023075
 40
10.00003478780836
 50
257.55815770086679
 51
269.99999512173559
  0
LINE
  5
1380
  8
0
 10
127.0767192238141
 20
35.319420357800368
 30
0.0000000000023075
 11
116.8455446952153
 21
35.319420357800382
 31
0.0000000000023075
  0
LINE
  5
1381
  8
0
 10
116.8455446952153
 20
52.319421281672362
 30
0.0000000000023075
 11
127.0767192238141
 21
52.319421281672362
 31
0.0000000000023075
  0
ARC
  5
138B
  8
0
 10
112.91092674221071
 20
65.511135007606043
 30
0.0000000000023075
 40
9.9999994725146273
 50
236.54268272073389
 51
264.73075149544542
  0
ARC
  5
138C
  8
0
 10
112.9109267716979
 20
22.127706547961321
 30
0.0000000000023075
 40
9.9999995587733608
 50
95.269248628641421
 51
123.45731715518021
  0
LINE
  5
1392
  8
0
 10
137.8948486291934
 20
34.077030455327787
 30
0.0000000000023075
 11
131.30916123028291
 21
33.645860699570953
 31
0.0000000000023075
  0
LINE
  5
1393
  8
0
 10
131.3128976964523
 20
53.992722032225892
 30
0.0000000000023075
 11
137.894856079774
 21
53.561810252822198
 31
0.0000000000023075
  0
LINE
  5
1394
  8
0
 10
140.8868006312419
 20
34.256018546975412
 30
0.0000000000023075
 11
137.8948486291934
 21
34.077030455327787
 31
0.0000000000023075
  0
LINE
  5
1395
  8
0
 10
137.894856079774
 20
53.561810252822198
 30
0.0000000000023075
 11
140.88580597873221
 21
53.382880834496767
 31
0.0000000000023075
  0
ARC
  5
1398
  8
0
 10
179.57671888983171
 20
43.819420819736251
 30
0.0000000000023075
 40
9.0000004881854441
 50
264.20805721912041
 51
95.791942780880305
  0
ARC
  5
1399
  8
0
 10
168.57683318639661
 20
-64.624004407255583
 30
0.0000000000023075
 40
99.9998800642758
 50
84.20805080955634
 51
91.655341876617754
  0
ARC
  5
139A
  8
0
 10
168.57682907417339
 20
152.26295991331889
 30
0.0000000000023075
 40
99.999993764557587
 50
268.34466236314961
 51
275.79194495067782
  0
CIRCLE
  5
139B
  8
0
 10
98.576719208913005
 20
43.819420819736401
 30
0.0000000000023075
 40
7.499999999999992
  0
CIRCLE
  5
139C
  8
0
 10
98.576719208913005
 20
43.819420819736401
 30
0.0000000000023075
 40
8.0
  0
CIRCLE
  5
139D
  8
0
 10
98.576719208913005
 20
43.819420819736401
 30
0.0000000000023075
 40
5.0000000000000142
  0
LINE
  5
139F
  8
0
 10
111.992565251248
 20
263.86193749688869
 30
0.0
 11
117.238188430028
 21
263.39448061965709
 31
0.0
  0
LINE
  5
13A0
  8
0
 10
117.238188430028
 20
263.39448061965709
 30
0.0
 11
122.7998345040847
 21
262.93448643021588
 31
0.0
  0
LINE
  5
13A1
  8
0
 10
122.7998345040847
 20
262.93448643021588
 30
0.0
 11
128.13511890109069
 21
262.52761581175332
 31
0.0
  0
LINE
  5
13A2
  8
0
 10
128.13511890109069
 20
262.52761581175332
 30
0.0
 11
133.7230115079451
 21
262.13754625253682
 31
0.0
  0
LINE
  5
13A3
  8
0
 10
133.7230115079451
 20
262.13754625253682
 30
0.0
 11
139.09703706140999
 21
261.79716740928887
 31
0.0
  0
LINE
  5
13A4
  8
0
 10
139.09703706140999
 20
261.79716740928887
 30
0.0
 11
143.0528110706378
 21
261.5683712550283
 31
0.0
  0
LINE
  5
13A5
  8
0
 10
143.0528110706378
 20
261.5683712550283
 30
0.0
 11
147.41432507272251
 21
261.33746844910388
 31
0.0
  0
LINE
  5
13A6
  8
0
 10
147.41432507272251
 20
261.33746844910388
 30
0.0
 11
151.30820338364131
 21
261.15023815267091
 31
0.0
  0
LINE
  5
13A7
  8
0
 10
151.30820338364131
 20
261.15023815267091
 30
0.0
 11
153.87242127891071
 21
261.03668012850289
 31
0.0
  0
LINE
  5
13A8
  8
0
 10
153.87242127891071
 20
261.03668012850289
 30
0.0
 11
157.11362500424869
 21
260.90420135490899
 31
0.0
  0
LINE
  5
13A9
  8
0
 10
157.11362500424869
 20
260.90420135490899
 30
0.0
 11
159.74612374539859
 21
260.80568698428868
 31
0.0
  0
LINE
  5
13AA
  8
0
 10
159.74612374539859
 20
260.80568698428868
 30
0.0
 11
161.27304200764181
 21
260.75227656595712
 31
0.0
  0
LINE
  5
13AB
  8
0
 10
161.27304200764181
 20
243.50365163021101
 30
0.0
 11
159.9342211031485
 21
243.45696908615841
 31
0.0
  0
LINE
  5
13AC
  8
0
 10
159.9342211031485
 20
243.45696908615841
 30
0.0
 11
157.68600840802679
 21
243.3738392331482
 31
0.0
  0
LINE
  5
13AD
  8
0
 10
157.68600840802679
 20
243.3738392331482
 30
0.0
 11
154.66398213739879
 21
243.2527412214161
 31
0.0
  0
LINE
  5
13AE
  8
0
 10
154.66398213739879
 20
243.2527412214161
 30
0.0
 11
152.21107964153771
 21
243.14655647807129
 31
0.0
  0
LINE
  5
13AF
  8
0
 10
152.21107964153771
 20
243.14655647807129
 30
0.0
 11
150.53251226182471
 21
243.0698145666004
 31
0.0
  0
LINE
  5
13B0
  8
0
 10
150.53251226182471
 20
243.0698145666004
 30
0.0
 11
149.07275353308211
 21
243.00038260601769
 31
0.0
  0
LINE
  5
13B1
  8
0
 10
149.07275353308211
 20
243.00038260601769
 30
0.0
 11
147.22756509418971
 21
242.90903103731881
 31
0.0
  0
LINE
  5
13B2
  8
0
 10
147.22756509418971
 20
242.90903103731881
 30
0.0
 11
145.35347585316191
 21
242.81214741252671
 31
0.0
  0
LINE
  5
13B3
  8
0
 10
145.35347585316191
 20
242.81214741252671
 30
0.0
 11
139.24396623607171
 21
242.46758879356389
 31
0.0
  0
LINE
  5
13B4
  8
0
 10
139.24396623607171
 20
242.46758879356389
 30
0.0
 11
133.3100221001674
 21
242.09081386410011
 31
0.0
  0
LINE
  5
13B5
  8
0
 10
133.3100221001674
 20
242.09081386410011
 30
0.0
 11
126.1197927289773
 21
241.578578997481
 31
0.0
  0
LINE
  5
13B6
  8
0
 10
126.1197927289773
 20
241.578578997481
 30
0.0
 11
118.9261025630999
 21
241.00492433838849
 31
0.0
  0
LINE
  5
13B7
  8
0
 10
118.9261025630999
 20
241.00492433838849
 30
0.0
 11
111.992565251248
 21
240.39399069927941
 31
0.0
  0
LINE
  5
13B8
  8
0
 10
111.992565251248
 20
240.39399069927941
 30
0.0
 11
109.6214207702447
 21
239.8797208928348
 31
0.0
  0
LINE
  5
13B9
  8
0
 10
109.6214207702447
 20
239.8797208928348
 30
0.0
 11
107.3977707767058
 21
238.77921705328231
 31
0.0
  0
LINE
  5
13BA
  8
0
 10
107.3977707767058
 20
265.47671114288568
 30
0.0
 11
109.63320852007161
 21
264.37210948400502
 31
0.0
  0
LINE
  5
13BB
  8
0
 10
109.63320852007161
 20
264.37210948400502
 30
0.0
 11
111.992565251248
 21
263.86193749688869
 31
0.0
  0
LINE
  5
13BC
  8
0
 10
93.576719320671685
 20
249.24121266424959
 30
0.0
 11
94.386443763332494
 21
248.7737180684538
 31
0.0
  0
LINE
  5
13BD
  8
0
 10
94.386443763332494
 20
248.7737180684538
 30
0.0
 11
96.082291833417557
 21
247.79461980991371
 31
0.0
  0
LINE
  5
13BE
  8
0
 10
96.082291833417557
 20
247.79461980991371
 30
0.0
 11
97.725114819886215
 21
246.84613528855439
 31
0.0
  0
LINE
  5
13BF
  8
0
 10
97.725114819886215
 20
246.84613528855439
 30
0.0
 11
98.576719208912948
 21
246.35446123041521
 31
0.0
  0
LINE
  5
13C0
  8
0
 10
103.5767190971542
 20
255.01471553191851
 30
0.0
 11
102.72576593543781
 21
255.50601356856831
 31
0.0
  0
LINE
  5
13C1
  8
0
 10
102.72576593543781
 20
255.50601356856831
 30
0.0
 11
101.083955762269
 21
256.45391321935062
 31
0.0
  0
LINE
  5
13C2
  8
0
 10
101.083955762269
 20
256.45391321935062
 30
0.0
 11
99.389262182930509
 21
257.43234488375788
 31
0.0
  0
LINE
  5
13C3
  8
0
 10
99.389262182930509
 20
257.43234488375788
 30
0.0
 11
98.576719208912948
 21
257.90146696575289
 31
0.0
  0
LINE
  5
13C4
  8
0
 10
98.576719208912948
 20
246.35446123041521
 30
0.0
 11
99.308121402109066
 21
246.77673685558449
 31
0.0
  0
LINE
  5
13C5
  8
0
 10
99.308121402109066
 20
246.77673685558449
 30
0.0
 11
100.9101020519752
 21
247.70164075501569
 31
0.0
  0
LINE
  5
13C6
  8
0
 10
100.9101020519752
 20
247.70164075501569
 30
0.0
 11
102.1854915072341
 21
248.43798722334509
 31
0.0
  0
LINE
  5
13C7
  8
0
 10
102.1854915072341
 20
248.43798722334509
 30
0.0
 11
103.5767190971542
 21
249.24121266424959
 31
0.0
  0
LINE
  5
13C8
  8
0
 10
98.576719208912948
 20
257.90146696575289
 30
0.0
 11
97.237842774311133
 21
257.12846596919297
 31
0.0
  0
LINE
  5
13C9
  8
0
 10
97.237842774311133
 20
257.12846596919297
 30
0.0
 11
95.913369243325704
 21
256.36378075190191
 31
0.0
  0
LINE
  5
13CA
  8
0
 10
95.913369243325704
 20
256.36378075190191
 30
0.0
 11
94.322659808503516
 21
255.4453844689609
 31
0.0
  0
LINE
  5
13CB
  8
0
 10
94.322659808503516
 20
255.4453844689609
 30
0.0
 11
93.576719320671685
 21
255.01471553191851
 31
0.0
  0
LINE
  5
13CC
  8
0
 10
106.68063935573591
 20
261.64513179295068
 30
0.0
 11
107.41555438126809
 21
260.9667992704392
 31
0.0
  0
LINE
  5
13CD
  8
0
 10
107.41555438126809
 20
260.9667992704392
 30
0.0
 11
107.8284981542397
 21
260.53359271221171
 31
0.0
  0
LINE
  5
13D6
  8
0
 10
46.767869926684583
 20
180.82482426557061
 30
0.0
 11
46.203453056209753
 21
181.03095202836511
 31
0.0
  0
LINE
  5
13D8
  8
0
 10
26.042086034708511
 20
190.0333507278871
 30
0.0
 11
25.860541462593591
 21
189.42061870488641
 31
0.0
  0
LINE
  5
13D9
  8
0
 10
25.860541462593591
 20
189.42061870488641
 30
0.0
 11
25.66780053048663
 21
188.850042066903
 31
0.0
  0
LINE
  5
13DA
  8
0
 10
25.66780053048663
 20
188.850042066903
 30
0.0
 11
25.476941801302971
 21
188.32285388502601
 31
0.0
  0
LINE
  5
13DB
  8
0
 10
25.476941801302971
 20
188.32285388502601
 30
0.0
 11
25.299371182613921
 21
187.8489261785459
 31
0.0
  0
LINE
  5
13DC
  8
0
 10
25.299371182613921
 20
187.8489261785459
 30
0.0
 11
25.14454718648728
 21
187.44194938930991
 31
0.0
  0
LINE
  5
13DD
  8
0
 10
25.14454718648728
 20
187.44194938930991
 30
0.0
 11
25.004488378458589
 21
187.07578688058371
 31
0.0
  0
LINE
  5
13DE
  8
0
 10
25.004488378458589
 20
187.07578688058371
 30
0.0
 11
24.773371368342008
 21
186.47124677094931
 31
0.0
  0
LINE
  5
13DF
  8
0
 10
24.773371368342008
 20
186.47124677094931
 30
0.0
 11
24.455111436241271
 21
185.6299272099447
 31
0.0
  0
LINE
  5
13E0
  8
0
 10
24.455111436241271
 20
185.6299272099447
 30
0.0
 11
24.037900343232771
 21
184.496224514575
 31
0.0
  0
LINE
  5
13E1
  8
0
 10
24.037900343232771
 20
184.496224514575
 30
0.0
 11
23.50927699326817
 21
182.9870051065397
 31
0.0
  0
LINE
  5
13E2
  8
0
 10
23.50927699326817
 20
182.9870051065397
 30
0.0
 11
22.932190016498751
 21
181.21299375932639
 31
0.0000000000023075
  0
LINE
  5
14A0
  8
0
 10
46.962440907650688
 20
178.59272717627999
 30
0.0000000000023075
 11
46.937181576781981
 21
178.4589147487593
 31
0.0
  0
LINE
  5
14A1
  8
0
 10
46.937181576781981
 20
178.4589147487593
 30
0.0
 11
46.616369820826769
 21
177.70799680742741
 31
0.0
  0
LINE
  5
14A2
  8
0
 10
46.616369820826769
 20
177.70799680742741
 30
0.0
 11
45.903346463733428
 21
176.95104017052171
 31
0.0
  0
LINE
  5
14A3
  8
0
 10
45.903346463733428
 20
176.95104017052171
 30
0.0
 11
44.822152666443117
 21
176.23205541762829
 31
0.0
  0
LINE
  5
14A4
  8
0
 10
44.822152666443117
 20
176.23205541762829
 30
0.0
 11
43.409719094329603
 21
175.5846968213034
 31
0.0
  0
LINE
  5
14A5
  8
0
 10
43.409719094329603
 20
175.5846968213034
 30
0.0
 11
41.694438978725209
 21
175.02662598285201
 31
0.0
  0
LINE
  5
14A6
  8
0
 10
41.694438978725209
 20
175.02662598285201
 30
0.0
 11
39.825199134343407
 21
174.60534407886979
 31
0.0
  0
LINE
  5
14A7
  8
0
 10
39.825199134343407
 20
174.60534407886979
 30
0.0
 11
37.777174692296548
 21
174.3085800031136
 31
0.0
  0
LINE
  5
14A8
  8
0
 10
37.777174692296548
 20
174.3085800031136
 30
0.0
 11
35.760437799313223
 21
174.1606002965878
 31
0.0
  0
LINE
  5
14A9
  8
0
 10
35.760437799313223
 20
174.1606002965878
 30
0.0
 11
33.70394268741191
 21
174.1425065616082
 31
0.0
  0
LINE
  5
14AA
  8
0
 10
33.70394268741191
 20
174.1425065616082
 30
0.0
 11
31.756147239052812
 21
174.2500892201376
 31
0.0
  0
LINE
  5
14AB
  8
0
 10
31.756147239052812
 20
174.2500892201376
 30
0.0
 11
29.883618894660021
 21
174.47270139250281
 31
0.0
  0
LINE
  5
14AC
  8
0
 10
29.883618894660021
 20
174.47270139250281
 30
0.0
 11
28.125620875203161
 21
174.8045837799024
 31
0.0
  0
LINE
  5
14AD
  8
0
 10
28.125620875203161
 20
174.8045837799024
 30
0.0
 11
26.535369418257019
 21
175.2292370716047
 31
0.0
  0
LINE
  5
14AE
  8
0
 10
26.535369418257019
 20
175.2292370716047
 30
0.0
 11
25.08681170611932
 21
175.75815751347059
 31
0.0
  0
LINE
  5
14AF
  8
0
 10
25.08681170611932
 20
175.75815751347059
 30
0.0
 11
23.889798633449811
 21
176.3526356140089
 31
0.0
  0
LINE
  5
14B0
  8
0
 10
23.889798633449811
 20
176.3526356140089
 30
0.0
 11
22.920072972470049
 21
177.0367292979669
 31
0.0
  0
LINE
  5
14B1
  8
0
 10
22.920072972470049
 20
177.0367292979669
 30
0.0
 11
22.279373332553629
 21
177.751914254756
 31
0.0
  0
LINE
  5
14B2
  8
0
 10
22.279373332553629
 20
177.751914254756
 30
0.0
 11
21.962440535121669
 21
178.72660293373579
 31
0.0
  0
LINE
  5
14B3
  8
0
 10
232.98397070111159
 20
180.4714357772778
 30
0.0000000000023075
 11
233.26075231970671
 21
179.5471167484236
 31
0.0
  0
LINE
  5
14B4
  8
0
 10
233.26075231970671
 20
179.5471167484236
 30
0.0
 11
233.57513608725191
 21
178.84977220687389
 31
0.0
  0
LINE
  5
14B5
  8
0
 10
233.57513608725191
 20
178.84977220687389
 30
0.0
 11
234.5854762600494
 21
177.78075917753691
 31
0.0
  0
LINE
  5
14B6
  8
0
 10
234.5854762600494
 20
177.78075917753691
 30
0.0
 11
235.8354881064725
 21
177.1391375282717
 31
0.0
  0
LINE
  5
14B7
  8
0
 10
235.8354881064725
 20
177.1391375282717
 30
0.0
 11
237.19367865787271
 21
176.77523254546639
 31
0.0
  0
LINE
  5
14B8
  8
0
 10
237.19367865787271
 20
176.77523254546639
 30
0.0
 11
238.61988439538899
 21
176.5506012657595
 31
0.0
  0
LINE
  5
14B9
  8
0
 10
238.61988439538899
 20
176.5506012657595
 30
0.0
 11
240.5706788770614
 21
176.4027444938134
 31
0.0
  0
LINE
  5
14BA
  8
0
 10
240.5706788770614
 20
176.4027444938134
 30
0.0
 11
242.1469512258183
 21
176.37762858662131
 31
0.0
  0
LINE
  5
14BB
  8
0
 10
242.1469512258183
 20
176.37762858662131
 30
0.0
 11
244.36380636261231
 21
176.44029914531231
 31
0.0
  0
LINE
  5
14BC
  8
0
 10
244.36380636261231
 20
176.44029914531231
 30
0.0
 11
245.63826728926429
 21
176.5662027815294
 31
0.0
  0
LINE
  5
14BD
  8
0
 10
245.63826728926429
 20
176.5662027815294
 30
0.0
 11
246.91168932558421
 21
176.78161396774769
 31
0.0
  0
LINE
  5
14BE
  8
0
 10
246.91168932558421
 20
176.78161396774769
 30
0.0
 11
248.0734755875302
 21
177.08933039698121
 31
0.0
  0
LINE
  5
14BF
  8
0
 10
248.0734755875302
 20
177.08933039698121
 30
0.0
 11
249.23718223662499
 21
177.64628737363341
 31
0.0
  0
LINE
  5
14C0
  8
0
 10
249.23718223662499
 20
177.64628737363341
 30
0.0
 11
249.812092318548
 21
178.10206174048901
 31
0.0
  0
LINE
  5
14C1
  8
0
 10
249.812092318548
 20
178.10206174048901
 30
0.0
 11
250.3195485690369
 21
178.71082260403151
 31
0.0
  0
LINE
  5
14C2
  8
0
 10
250.3195485690369
 20
178.71082260403151
 30
0.0
 11
250.68455251248011
 21
179.4635696629
 31
0.0
  0
LINE
  5
14C3
  8
0
 10
250.68455251248011
 20
179.4635696629
 30
0.0
 11
250.98396992625129
 21
180.471175006957
 31
0.0000000000023075
  0
LINE
  5
14C4
  8
0
 10
238.24423403793401
 20
193.73529835733891
 30
0.0
 11
236.56829694600231
 21
193.3554938355397
 31
0.0
  0
LINE
  5
14C5
  8
0
 10
236.56829694600231
 20
193.3554938355397
 30
0.0
 11
234.72062094451309
 21
192.1750275710535
 31
0.0
  0
LINE
  5
14C6
  8
0
 10
249.24731968284971
 20
192.1750275710535
 30
0.0
 11
247.39964368136049
 21
193.3554938355397
 31
0.0
  0
LINE
  5
14C7
  8
0
 10
247.39964368136049
 20
193.3554938355397
 30
0.0
 11
245.72370658942879
 21
193.73529835733891
 31
0.0
  0
LINE
  5
14C9
  8
0
 10
230.37824934662731
 20
180.98099216017241
 30
0.0000000000023075
 11
229.67854110838331
 21
180.82482426557061
 31
0.0
  0
LINE
  5
14CA
  8
0
 10
254.28922536165859
 20
180.82489877137661
 30
0.0
 11
253.5896912807361
 21
180.98099216017241
 31
0.0000000000023075
  0
LINE
  5
14D3
  8
0
 10
232.98404148162729
 20
188.34904640111441
 30
0.0
 11
232.98578212351919
 21
188.35115119013309
 31
0.0
  0
LINE
  5
154B
  8
0
 10
110.9870227866937
 20
182.6932361641835
 30
0.0
 11
109.6330660277177
 21
182.287887326808
 31
0.0
  0
LINE
  5
154C
  8
0
 10
109.6330660277177
 20
182.287887326808
 30
0.0
 11
108.3802825653125
 21
181.9078779140425
 31
0.0
  0
LINE
  5
154D
  8
0
 10
108.3802825653125
 20
181.9078779140425
 30
0.0
 11
108.2962232523729
 21
181.8821398833704
 31
0.0
  0
LINE
  5
154E
  8
0
 10
105.26242366741791
 20
180.93537970575809
 30
0.0
 11
108.0097977885176
 21
181.7942230323267
 31
0.0
  0
LINE
  5
154F
  8
0
 10
108.0097977885176
 20
181.7942230323267
 30
0.0
 11
108.2970726185609
 21
181.88240065369129
 31
0.0
  0
LINE
  5
1555
  8
0
 10
22.726072892242151
 20
181.03513552937031
 30
0.0
 11
22.157185673409192
 21
180.82489877137661
 31
0.0
  0
LINE
  5
1574
  8
0
 10
111.992565251248
 20
55.553394218541001
 30
0.0000000000023075
 11
117.98882138665211
 21
55.021715199209062
 31
0.0000000000023075
  0
LINE
  5
1575
  8
0
 10
117.98882138665211
 20
55.021715199209062
 30
0.0000000000023075
 11
124.4582536512185
 21
54.495865327871613
 31
0.0000000000023075
  0
LINE
  5
1576
  8
0
 10
124.4582536512185
 20
54.495865327871613
 30
0.0000000000023075
 11
131.31255124445451
 21
53.992746246612839
 31
0.0000000000023075
  0
LINE
  5
1577
  8
0
 10
131.30915377970231
 20
33.645859768248371
 30
0.0000000000023075
 11
124.3990382992793
 21
33.138387685275852
 31
0.0000000000023075
  0
LINE
  5
1578
  8
0
 10
124.3990382992793
 20
33.138387685275852
 30
0.0000000000023075
 11
117.9411823743154
 21
32.613070530451139
 31
0.0000000000023075
  0
LINE
  5
1579
  8
0
 10
117.9411823743154
 20
32.613070530451139
 30
0.0000000000023075
 11
111.992565251248
 21
32.085447420931672
 31
0.0000000000023075
  0
LINE
  5
157A
  8
0
 10
165.68812195892829
 20
35.334143636382358
 30
0.0000000000023075
 11
160.70773665543101
 21
35.175653954602033
 31
0.0000000000023075
  0
LINE
  5
157B
  8
0
 10
160.70773665543101
 20
35.175653954602033
 30
0.0000000000023075
 11
155.79616491432679
 21
34.990823676443839
 31
0.0000000000023075
  0
LINE
  5
157C
  8
0
 10
155.79616491432679
 20
34.990823676443839
 30
0.0000000000023075
 11
150.54721598263279
 21
34.761958604312682
 31
0.0000000000023075
  0
LINE
  5
157D
  8
0
 10
150.54721598263279
 20
34.761958604312682
 30
0.0000000000023075
 11
145.70651043887631
 21
34.522170981026427
 31
0.0000000000023075
  0
LINE
  5
157E
  8
0
 10
145.70651043887631
 20
34.522170981026427
 30
0.0000000000023075
 11
140.8860630237628
 21
34.255975706136972
 31
0.0000000000023075
  0
LINE
  5
157F
  8
0
 10
140.88580597873221
 20
53.382880834496767
 30
0.0000000000023075
 11
146.93932448263661
 21
53.052985889471287
 31
0.0000000000023075
  0
LINE
  5
1580
  8
0
 10
146.93932448263661
 20
53.052985889471287
 30
0.0000000000023075
 11
153.1388706409503
 21
52.759833482659602
 31
0.0000000000023075
  0
LINE
  5
1581
  8
0
 10
153.1388706409503
 20
52.759833482659602
 30
0.0000000000023075
 11
159.384934499221
 21
52.510178496695303
 31
0.0000000000023075
  0
LINE
  5
1582
  8
0
 10
159.384934499221
 20
52.510178496695303
 30
0.0000000000023075
 11
165.68812195892829
 21
52.304698003090152
 31
0.0000000000023075
  0
LINE
  5
1584
  8
1
 10
98.571956770205787
 20
270.127963416032
 30
0.0000000000023075
 11
98.571956770205787
 21
234.1279647801361
 31
0.0000000000023075
  0
LINE
  5
1585
  8
1
 10
80.576719667546058
 20
252.1241629498989
 30
0.0000000000023075
 11
190.5767030008052
 21
252.1473983334964
 31
0.0000000000023075
  0
LINE
  5
158A
  8
1
 10
190.57671937801709
 20
43.819420819736393
 30
0.0000000000023075
 11
80.576719208912976
 21
43.819420819736393
 31
0.0000000000023075
  0
LINE
  5
158C
  8
1
 10
241.98397031368151
 20
195.7360434153986
 30
0.0000000000023075
 11
241.98397031368151
 21
94.736043832631054
 31
0.0000000000023075
  0
LINE
  5
158D
  8
1
 10
250.98397031368151
 20
159.73604338559619
 30
0.0000000000023075
 11
232.9839703136816
 21
159.73604338559619
 31
0.0000000000023075
  0
LINE
  5
1596
  8
1
 10
98.576719208913005
 20
61.819420819736393
 30
0.0000000000023075
 11
98.576719208913005
 21
25.819420819736418
 31
0.0000000000023075
  0
LINE
  5
1597
  8
1
 10
133.77671920891299
 20
48.71941144542734
 30
0.0000000000023075
 11
133.77671920891299
 21
38.919420819736388
 31
0.0000000000023075
  0
LINE
  5
159D
  8
0
 10
118.62394240434659
 20
48.09433232395665
 30
0.0000000000023075
 11
118.62394240434659
 21
39.975459769002548
 31
0.0000000000023075
  0
LINE
  5
15C3
  8
0
 10
93.576719208913005
 20
98.236043385596346
 30
0.0000000000023075
 11
103.576719208913
 21
98.236043385596346
 31
0.0000000000023075
  0
LINE
  5
15C4
  8
0
 10
102.076719208913
 20
96.736043385596346
 30
0.0000000000023075
 11
103.576719208913
 21
98.236043385596346
 31
0.0000000000023075
  0
LINE
  5
15C5
  8
0
 10
103.576719208913
 20
136.7360433855963
 30
0.0000000000023075
 11
103.576719208913
 21
98.236043385596346
 31
0.0000000000023075
  0
LINE
  5
15C6
  8
3
 10
102.76471920891299
 20
136.7360433855963
 30
0.0000000000023075
 11
102.76471920891299
 21
97.42404338559632
 31
0.0000000000023075
  0
LINE
  5
15C7
  8
0
 10
93.576719208913005
 20
98.236043385596346
 30
0.0000000000023075
 11
95.076719208913005
 21
96.736043385596346
 31
0.0000000000023075
  0
LINE
  5
15C8
  8
0
 10
93.576719208913005
 20
98.236043385596346
 30
0.0000000000023075
 11
93.576719208912948
 21
136.7360433855963
 31
0.0000000000023075
  0
LINE
  5
15C9
  8
3
 10
94.388719208912775
 20
136.7360433855963
 30
0.0000000000023075
 11
94.388719208912775
 21
97.424043385596505
 31
0.0000000000023075
  0
LINE
  5
15CA
  8
0
 10
102.076719208913
 20
96.736043385596346
 30
0.0000000000023075
 11
95.076719208913005
 21
96.736043385596346
 31
0.0000000000023075
  0
LINE
  5
15F3
  8
0
 10
29.462440721386042
 20
98.236043385596275
 30
0.0000000000023075
 11
39.462440721386081
 21
98.236043385596275
 31
0.0000000000023075
  0
LINE
  5
15F4
  8
0
 10
37.962440721386081
 20
96.736043385596275
 30
0.0000000000023075
 11
39.462440721386081
 21
98.236043385596275
 31
0.0000000000023075
  0
LINE
  5
15F5
  8
0
 10
39.462440721386081
 20
136.7360433855963
 30
0.0000000000023075
 11
39.462440721386081
 21
98.236043385596275
 31
0.0000000000023075
  0
LINE
  5
15F6
  8
3
 10
38.650440721386047
 20
136.7360433855963
 30
0.0000000000023075
 11
38.650440721386047
 21
97.424043385596278
 31
0.0000000000023075
  0
LINE
  5
15F7
  8
0
 10
37.962440721386081
 20
96.736043385596275
 30
0.0000000000023075
 11
30.962440721386042
 21
96.736043385596275
 31
0.0000000000023075
  0
LINE
  5
15F8
  8
0
 10
29.462440721386042
 20
98.236043385596275
 30
0.0000000000023075
 11
30.962440721386042
 21
96.736043385596275
 31
0.0000000000023075
  0
LINE
  5
15F9
  8
0
 10
29.462440721386042
 20
98.236043385596275
 30
0.0000000000023075
 11
29.46244072138601
 21
136.73604338559619
 31
0.0000000000023075
  0
LINE
  5
15FA
  8
3
 10
30.274440721385851
 20
136.7360433855963
 30
0.0000000000023075
 11
30.274440721385851
 21
97.424043385596434
 31
0.0000000000023075
  0
LINE
  5
1623
  8
0
 10
236.98397031368151
 20
98.236043385596261
 30
0.0000000000023075
 11
246.9839703136816
 21
98.236043385596261
 31
0.0000000000023075
  0
LINE
  5
1624
  8
0
 10
245.4839703136816
 20
96.736043385596275
 30
0.0000000000023075
 11
246.9839703136816
 21
98.236043385596261
 31
0.0000000000023075
  0
LINE
  5
1625
  8
0
 10
246.9839703136816
 20
136.73604338559619
 30
0.0000000000023075
 11
246.9839703136816
 21
98.236043385596261
 31
0.0000000000023075
  0
LINE
  5
1626
  8
3
 10
246.1719703136815
 20
136.73604338559619
 30
0.0000000000023075
 11
246.1719703136815
 21
97.424043385596249
 31
0.0000000000023075
  0
LINE
  5
1627
  8
0
 10
245.4839703136816
 20
96.736043385596275
 30
0.0000000000023075
 11
238.48397031368151
 21
96.736043385596275
 31
0.0000000000023075
  0
LINE
  5
1628
  8
0
 10
236.98397031368151
 20
98.236043385596261
 30
0.0000000000023075
 11
238.48397031368151
 21
96.736043385596275
 31
0.0000000000023075
  0
LINE
  5
1629
  8
0
 10
236.98397031368151
 20
98.236043385596261
 30
0.0000000000023075
 11
236.98397031368151
 21
136.73604338559619
 31
0.0000000000023075
  0
LINE
  5
162A
  8
3
 10
237.79597031368129
 20
136.73604338559619
 30
0.0000000000023075
 11
237.79597031368129
 21
97.424043385596434
 31
0.0000000000023075
  0
CIRCLE
  5
164A
  8
3
  6
CONTINUOUS
 10
98.576719208913005
 20
43.819420819736393
 30
0.0000000000023075
 40
4.1880000000001996
  0
LINE
  5
1BE7
  8
0
 10
18.462752885812051
 20
176.08249246272561
 30
0.0000000000023075
 11
18.462752885812051
 21
139.7367251397979
 31
0.0000000000023075
  0
LINE
  5
1BE8
  8
0
 10
50.462754405730493
 20
139.7367251397979
 30
0.0000000000023075
 11
50.462754405730493
 21
176.0813748756361
 31
0.0000000000023075
  0
LINE
  5
1C6E
  8
0
 10
238.98397028760439
 20
158.00399205777171
 30
0.0000000000023075
 11
241.9839703136814
 21
156.2719425478887
 31
0.0000000000023075
  0
LINE
  5
1C6F
  8
0
 10
241.9839703136814
 20
156.2719425478887
 30
0.0000000000023075
 11
244.9839703397584
 21
158.00399205777171
 31
0.0000000000023075
  0
LINE
  5
1C70
  8
0
 10
244.9839703397584
 20
158.00399205777171
 30
0.0000000000023075
 11
244.9839703397584
 21
161.46809480282781
 31
0.0000000000023075
  0
LINE
  5
1C71
  8
0
 10
244.9839703397584
 20
161.46809480282781
 30
0.0000000000023075
 11
241.9839703136814
 21
163.20014431271071
 31
0.0000000000023075
  0
LINE
  5
1C72
  8
0
 10
241.9839703136814
 20
163.20014431271071
 30
0.0000000000023075
 11
238.98397028760439
 21
161.46809480282781
 31
0.0000000000023075
  0
LINE
  5
1C73
  8
0
 10
238.98397028760439
 20
161.46809480282781
 30
0.0000000000023075
 11
238.98397028760439
 21
158.00399205777171
 31
0.0000000000023075
  0
LINE
  5
1C8D
  8
0
 10
82.576720311598905
 20
171.04845180305961
 30
0.0000000000023075
 11
82.576720311598933
 21
139.73440800923231
 31
0.0000000000023075
  0
ARC
  5
1CC0
  8
0
 10
165.13641102754201
 20
101.4242818223168
 30
0.0000000000023075
 40
77.410836340461969
 50
89.660712478402431
 51
107.45489205591549
  0
ARC
  5
1CC4
  8
0
 10
164.96211791897139
 20
103.836782564329
 30
0.0000000000023075
 40
74.999647074164244
 50
79.653264375678546
 51
89.516650168127526
  0
ARC
  5
1CC5
  8
0
 10
117.6294973950674
 20
139.7360433855963
 30
0.0000000000023075
 40
1.0000000000000111
 50
270.0
 51
353.95767158094583
  0
LINE
  5
1CC6
  8
0
 10
117.6294966482688
 20
138.73604348059121
 30
0.0000000000023075
 11
114.475604414301
 21
138.73604348059121
 31
0.0000000000023075
  0
ARC
  5
1CC8
  8
0
 10
144.3047225333965
 20
168.95697745164469
 30
0.0000000000023075
 40
6.7501741519913159
 50
110.7186159709951
 51
175.35495384142371
  0
ARC
  5
1CC9
  8
0
 10
127.08535851208769
 20
138.72456082302381
 30
0.0000000000023075
 40
8.5140393334659681
 50
91.404192275936083
 51
139.25568682752191
  0
LINE
  5
1CCA
  8
0
 10
135.5767193460037
 20
147.2360432440353
 30
0.0000000000023075
 11
126.87671922381421
 21
147.2360432440353
 31
0.0000000000023075
  0
LINE
  5
1CCB
  8
0
 10
137.57671967382919
 20
169.5036223450613
 30
0.0000000000023075
 11
137.57671967382919
 21
152.23604313227659
 31
0.0000000000023075
  0
LINE
  5
1CCC
  8
0
 10
137.57671967382919
 20
152.23604313227659
 30
0.0000000000023075
 11
137.57671967382919
 21
149.2360435718609
 31
0.0000000000023075
  0
ARC
  5
1CCD
  8
0
 10
135.57671764591109
 20
149.2360452719534
 30
0.0000000000023075
 40
2.000002027918879
 50
270.0000487040171
 51
359.99995129598449
  0
LINE
  5
1CD4
  8
0
 10
132.52672021027101
 20
44.541108678194981
 30
0.0000000000023075
 11
132.52672021027101
 21
43.097732961277771
 31
0.0000000000023075
  0
LINE
  5
1CD5
  8
0
 10
132.52672021027101
 20
43.097732961277771
 30
0.0000000000023075
 11
133.77671901817811
 21
42.376045102819148
 31
0.0000000000023075
  0
LINE
  5
1CD6
  8
0
 10
133.77671901817811
 20
42.376045102819148
 30
0.0000000000023075
 11
135.02671782608519
 21
43.097732961277771
 31
0.0000000000023075
  0
LINE
  5
1CD7
  8
0
 10
135.02671782608519
 20
43.097732961277771
 30
0.0000000000023075
 11
135.02671782608519
 21
44.541108678194981
 31
0.0000000000023075
  0
LINE
  5
1CD8
  8
0
 10
135.02671782608519
 20
44.541108678194981
 30
0.0000000000023075
 11
133.77671901817811
 21
45.262796536653589
 31
0.0000000000023075
  0
LINE
  5
1CD9
  8
0
 10
133.77671901817811
 20
45.262796536653589
 30
0.0000000000023075
 11
132.52672021027101
 21
44.541108678194981
 31
0.0000000000023075
  0
LINE
  5
1CE9
  8
0
 10
136.57671764727129
 20
35.319420357800368
 30
0.0000000000023075
 11
126.87671922381421
 21
35.319420357800368
 31
0.0000000000023075
  0
LINE
  5
1CEA
  8
0
 10
137.57671967382919
 20
49.965171923495191
 30
0.0000000000023075
 11
137.57671967382919
 21
37.673669715977567
 31
0.0000000000023075
  0
LINE
  5
1CEB
  8
0
 10
126.87671922381421
 20
52.319421281672362
 30
0.0000000000023075
 11
136.57671764727129
 21
52.319421281672362
 31
0.0000000000023075
  0
LINE
  5
1CEC
  8
0
 10
137.57671967382919
 20
37.673669715977567
 30
0.0000000000023075
 11
137.57671967382919
 21
36.319420987374421
 31
0.0000000000023075
  0
ARC
  5
1CED
  8
0
 10
136.576719208913
 20
36.319420819736379
 30
0.0000000000023075
 40
1.0
 50
270.0
 51
0.0
  0
ARC
  5
1CEE
  8
0
 10
136.576719208913
 20
51.319420819736379
 30
0.0000000000023075
 40
1.0
 50
0.0
 51
90.0
  0
LINE
  5
1CEF
  8
0
 10
137.57671967382919
 20
51.319420652098287
 30
0.0000000000023075
 11
137.57671967382919
 21
49.965171923495191
 31
0.0000000000023075
  0
LINE
  5
1E33
  8
0
 10
120.6348690086175
 20
144.28154298234111
 30
0.0000000000002684
 11
119.16893747385041
 21
141.85325021985301
 31
0.0000000000002684
  0
LINE
  5
1E34
  8
0
 10
119.16893747385041
 20
141.85325021985301
 30
0.0000000000002684
 11
118.62394240434659
 21
139.63078021201619
 31
0.0000000000002684
  0
CIRCLE
  5
1E5F
  8
3
 10
133.77671920891291
 20
43.81941613258185
 30
0.0000000000023075
 40
2.0670000000001991
  0
CIRCLE
  5
1E60
  8
0
 10
133.77671920891291
 20
43.81941613258185
 30
0.0000000000023075
 40
2.5000000000000071
  0
CIRCLE
  5
1E61
  8
0
 10
133.77671920891291
 20
43.81941613258185
 30
0.0000000000023075
 40
2.899995312845475
  0
CIRCLE
  5
1E62
  8
3
 10
241.98397031368151
 20
159.7360433855963
 30
0.0000000000023075
 40
5.917499999999988
  0
CIRCLE
  5
1E63
  8
0
 10
241.98397031368151
 20
159.7360433855963
 30
0.0000000000023075
 40
7.0
  0
POLYLINE
  5
1EDB
  8
0
  6
CONTINUOUS
 62
     7
 66
     1
 10
0.0
 20
0.0
 30
0.0
 70
   128
  0
VERTEX
  5
20B5
  8
0
  6
CONTINUOUS
 62
     7
 10
107.8597050896648
 20
178.63755771929101
 30
0.0
  0
VERTEX
  5
20B6
  8
0
  6
CONTINUOUS
 62
     7
 10
107.7267206079129
 20
179.11566147619561
 30
0.0
  0
VERTEX
  5
20B7
  8
0
  6
CONTINUOUS
 62
     7
 10
107.5292038536433
 20
179.60768291765521
 30
0.0
  0
VERTEX
  5
20B8
  8
0
  6
CONTINUOUS
 62
     7
 10
107.2700400641922
 20
180.0771700780995
 30
0.0
  0
VERTEX
  5
20B9
  8
0
  6
CONTINUOUS
 62
     7
 10
106.9627017519239
 20
180.48343906217889
 30
0.0
  0
VERTEX
  5
20BA
  8
0
  6
CONTINUOUS
 62
     7
 10
106.6297758175794
 20
180.79157644921611
 30
0.0
  0
VERTEX
  5
20BB
  8
0
  6
CONTINUOUS
 62
     7
 10
106.297775617874
 20
180.98171154075931
 30
0.0
  0
VERTEX
  5
20BC
  8
0
  6
CONTINUOUS
 62
     7
 10
105.9905318348471
 20
181.0528981130725
 30
0.0
  0
VERTEX
  5
20BD
  8
0
  6
CONTINUOUS
 62
     7
 10
105.72435798037679
 20
181.02017516309101
 30
0.0
  0
SEQEND
  5
20BE
  8
0
  6
CONTINUOUS
 62
     7
  0
LINE
  5
1EDC
  8
0
  6
CONTINUOUS
 62
     7
 10
107.9520140579704
 20
153.39259529525111
 30
0.0000000000023075
 11
107.8597050896648
 21
153.3445725780137
 31
0.0000000000023075
  0
LINE
  5
1EDD
  8
0
  6
CONTINUOUS
 62
     7
 10
110.28100781056909
 20
153.66177918428261
 30
0.0000000000023075
 11
110.28100781056909
 21
139.8208388690062
 31
0.0000000000023075
  0
LINE
  5
1EDE
  8
0
  6
CONTINUOUS
 62
     7
 10
107.8597050896648
 20
153.3445725780137
 30
0.0000000000023075
 11
107.8597050896648
 21
178.63755771929101
 31
0.0000000000023075
  0
ARC
  5
1EDF
  8
0
  6
CONTINUOUS
 62
     7
 10
109.3982249749165
 20
139.69426732569821
 30
0.0000000000023075
 40
0.8918104565983636
 50
281.65325782461508
 51
8.1593402923003442
  0
ARC
  5
1EE0
  8
0
  6
CONTINUOUS
 62
     7
 10
-167.3610325689562
 20
456.28874375063248
 30
0.0000000000023075
 40
409.52202233967631
 50
312.7040795792463
 51
313.25862695887002
  0
ARC
  5
1EE1
  8
0
  6
CONTINUOUS
 62
     7
 10
86.555507554921917
 20
183.16892788995261
 30
0.0000000000023075
 40
36.631541769629742
 50
305.76529197281661
 51
310.57393552204059
  0
LINE
  5
1EE2
  8
0
  6
CONTINUOUS
 62
     7
 10
107.95169833961759
 20
153.39260833376721
 30
0.0000000000023075
 11
107.9654074079159
 21
153.44543481284461
 31
0.0000000000023075
  0
ARC
  5
1EE3
  8
0
  6
CONTINUOUS
 62
     7
 10
115.4409724651245
 20
154.1975488064889
 30
0.0000000000023075
 40
5.1877051115439201
 50
167.22343783383599
 51
185.92789513310061
  0
ARC
  5
1EE4
  8
0
  6
CONTINUOUS
 62
     7
 10
168.75058657041609
 20
101.2730159835068
 30
0.0000000000023075
 40
79.352207509582087
 50
117.3880537963018
 51
132.8393354076062
  0
POLYLINE
  5
1EE5
  8
0
  6
CONTINUOUS
 62
     7
 66
     1
 10
0.0
 20
0.0
 30
0.0
 70
   128
  0
VERTEX
  5
20BF
  8
0
  6
CONTINUOUS
 62
     7
 10
113.2814003891114
 20
158.04704377466521
 30
0.0
  0
VERTEX
  5
20C0
  8
0
  6
CONTINUOUS
 62
     7
 10
113.2814441612724
 20
158.04708475285841
 30
0.0
  0
VERTEX
  5
20C1
  8
0
  6
CONTINUOUS
 62
     7
 10
114.7954598805669
 20
159.45907222145871
 30
0.0
  0
SEQEND
  5
20C2
  8
0
  6
CONTINUOUS
 62
     7
  0
ARC
  5
1EE6
  8
0
  6
CONTINUOUS
 62
     7
 10
149.7263029678852
 20
138.9708875291596
 30
0.0000000000023075
 40
37.130319265734038
 50
102.141736966397
 51
118.0818690815055
  0
LINE
  5
1F00
  8
1
 10
139.57671967382919
 20
159.73604338559619
 30
0.0000000000023075
 11
129.57671967382919
 21
159.73604338559619
 31
0.0000000000023075
  0
TEXT
  5
2096
  8
0
 62
     3
 10
0.0
 20
0.0
 30
0.0
 40
10.0
  1
ATCL10X40-OG
  7
STANDARD1
  0
ENDSEC
  0
EOF
