  0
SECTION
  2
HEADER
  9
$ACADVER
  1
AC1009
  9
$INSBASE
 10
0.0
 20
0.0
 30
0.0
  9
$EXTMIN
 10
-0.0204638472032742
 20
-2.960436562073669
 30
0.0
  9
$EXTMAX
 10
257.98400273860841
 20
250.60756630411871
 30
0.0000000001832048
  9
$LIMMIN
 10
0.0
 20
0.0
  9
$LIMMAX
 10
750.0
 20
540.0
  9
$ORTHOMODE
 70
     1
  9
$REGENMODE
 70
     1
  9
$FILLMODE
 70
     1
  9
$QTEXTMODE
 70
     0
  9
$MIRRTEXT
 70
     0
  9
$DRAGMODE
 70
     2
  9
$LTSCALE
 40
20.0
  9
$OSMODE
 70
  3071
  9
$ATTMODE
 70
     1
  9
$TEXTSIZE
 40
0.2
  9
$TRACEWID
 40
0.05
  9
$TEXTSTYLE
  7
STANDARD
  9
$CLAYER
  8
0
  9
$CELTYPE
  6
BYLAYER
  9
$CECOLOR
 62
   256
  9
$DIMSCALE
 40
1.0
  9
$DIMASZ
 40
3.0
  9
$DIMEXO
 40
2.0
  9
$DIMDLI
 40
0.38
  9
$DIMRND
 40
0.0
  9
$DIMDLE
 40
0.0
  9
$DIMEXE
 40
2.0
  9
$DIMTP
 40
0.0
  9
$DIMTM
 40
0.0
  9
$DIMTXT
 40
3.2000000000000002
  9
$DIMCEN
 40
0.0
  9
$DIMTSZ
 40
0.0
  9
$DIMTOL
 70
     0
  9
$DIMLIM
 70
     0
  9
$DIMTIH
 70
     0
  9
$DIMTOH
 70
     0
  9
$DIMSE1
 70
     0
  9
$DIMSE2
 70
     0
  9
$DIMTAD
 70
     1
  9
$DIMZIN
 70
     0
  9
$DIMBLK
  1

  9
$DIMASO
 70
     0
  9
$DIMSHO
 70
     0
  9
$DIMPOST
  1

  9
$DIMAPOST
  1

  9
$DIMALT
 70
     0
  9
$DIMALTD
 70
     2
  9
$DIMALTF
 40
25.399999999999999
  9
$DIMLFAC
 40
1.0
  9
$DIMTOFL
 70
     0
  9
$DIMTVP
 40
1.6000000000000001
  9
$DIMTIX
 70
     1
  9
$DIMSOXD
 70
     0
  9
$DIMSAH
 70
     0
  9
$DIMBLK1
  1

  9
$DIMBLK2
  1

  9
$DIMSTYLE
  2
STANDARD
  9
$DIMCLRD
 70
     0
  9
$DIMCLRE
 70
     0
  9
$DIMCLRT
 70
     0
  9
$DIMTFAC
 40
1.0
  9
$DIMGAP
 40
0.09
  9
$LUNITS
 70
     2
  9
$LUPREC
 70
     4
  9
$SKETCHINC
 40
0.1
  9
$FILLETRAD
 40
0.0
  9
$AUNITS
 70
     0
  9
$AUPREC
 70
     4
  9
$MENU
  1
E:\r13\win\SUPPORT\ACAD
  9
$ELEVATION
 40
0.0
  9
$PELEVATION
 40
0.0
  9
$THICKNESS
 40
0.0
  9
$LIMCHECK
 70
     0
  9
$BLIPMODE
 70
     0
  9
$CHAMFERA
 40
0.0
  9
$CHAMFERB
 40
0.0
  9
$SKPOLY
 70
     0
  9
$TDCREATE
 40
2449840.6227546302
  9
$TDUPDATE
 40
2456602.613765521
  9
$TDINDWG
 40
0.0970100694
  9
$TDUSRTIMER
 40
2456598.3861853699
  9
$USRTIMER
 70
     1
  9
$ANGBASE
 50
0.0
  9
$ANGDIR
 70
     0
  9
$PDMODE
 70
     0
  9
$PDSIZE
 40
0.0
  9
$PLINEWID
 40
0.0
  9
$COORDS
 70
     1
  9
$SPLFRAME
 70
     0
  9
$SPLINETYPE
 70
     6
  9
$SPLINESEGS
 70
     8
  9
$ATTDIA
 70
     0
  9
$ATTREQ
 70
     1
  9
$HANDLING
 70
     1
  9
$HANDSEED
  5
2158
  9
$SURFTAB1
 70
     6
  9
$SURFTAB2
 70
     6
  9
$SURFTYPE
 70
     6
  9
$SURFU
 70
     6
  9
$SURFV
 70
     6
  9
$UCSNAME
  2

  9
$UCSORG
 10
0.0
 20
0.0
 30
0.0
  9
$UCSXDIR
 10
1.0
 20
0.0
 30
0.0
  9
$UCSYDIR
 10
0.0
 20
1.0
 30
0.0
  9
$PUCSNAME
  2

  9
$PUCSORG
 10
0.0
 20
0.0
 30
0.0
  9
$PUCSXDIR
 10
1.0
 20
0.0
 30
0.0
  9
$PUCSYDIR
 10
0.0
 20
1.0
 30
0.0
  9
$USERI1
 70
     0
  9
$USERI2
 70
     1
  9
$USERI3
 70
     0
  9
$USERI4
 70
     0
  9
$USERI5
 70
     0
  9
$USERR1
 40
0.0
  9
$USERR2
 40
0.0
  9
$USERR3
 40
0.0
  9
$USERR4
 40
0.0
  9
$USERR5
 40
0.0
  9
$WORLDVIEW
 70
     1
  9
$SHADEDGE
 70
     3
  9
$SHADEDIF
 70
    70
  9
$TILEMODE
 70
     1
  9
$MAXACTVP
 70
    16
  9
$PLIMCHECK
 70
     0
  9
$PEXTMIN
 10
1.0000000000000000E+020
 20
1.0000000000000000E+020
 30
1.0000000000000000E+020
  9
$PEXTMAX
 10
-1.0000000000000000E+020
 20
-1.0000000000000000E+020
 30
-1.0000000000000000E+020
  9
$PLIMMIN
 10
0.0
 20
0.0
  9
$PLIMMAX
 10
12.0
 20
9.0
  9
$UNITMODE
 70
     0
  9
$VISRETAIN
 70
     0
  9
$PLINEGEN
 70
     0
  9
$PSLTSCALE
 70
     0
  0
ENDSEC
  0
SECTION
  2
TABLES
  0
TABLE
  2
VPORT
 70
     1
  0
VPORT
  2
*ACTIVE
 70
     0
 10
0.0
 20
0.0
 11
1.0
 21
1.0
 12
666.05468140695575
 22
164.072052768871
 13
0.0
 23
0.0
 14
20.0
 24
20.0
 15
20.0
 25
20.0
 16
0.0
 26
0.0
 36
1.0
 17
0.0
 27
0.0
 37
0.0
 40
823.59566340784261
 41
1.831871345029239
 42
50.0
 43
0.0
 44
0.0
 50
0.0
 51
0.0
 71
    16
 72
   100
 73
     1
 74
     0
 75
     0
 76
     0
 77
     0
 78
     2
  0
ENDTAB
  0
TABLE
  2
LTYPE
 70
     3
  0
LTYPE
  2
CONTINUOUS
 70
     0
  3
Solid Line
 72
    65
 73
     0
 40
0.0
  0
LTYPE
  2
PHANTOM2
 70
     0
  3
___ _ _ ___ _ _ ___ _ _ ___ _ _
 72
    65
 73
     6
 40
1.25
 49
0.625
 49
-0.125
 49
0.125
 49
-0.125
 49
0.125
 49
-0.125
  0
LTYPE
  2
CENTER
 70
     0
  3
____ _ ____ _ ____ _ ____ _ ____ _ ____ _ ____
 72
    65
 73
     4
 40
2.0
 49
1.25
 49
-0.25
 49
0.25
 49
-0.25
  0
ENDTAB
  0
TABLE
  2
LAYER
 70
     3
  0
LAYER
  2
0
 70
     0
 62
     7
  6
CONTINUOUS
  0
LAYER
  2
1
 70
     0
 62
     1
  6
CENTER
  0
LAYER
  2
3
 70
     0
 62
     3
  6
CONTINUOUS
  0
ENDTAB
  0
TABLE
  2
STYLE
 70
     3
  0
STYLE
  2
STANDARD
 70
     0
 40
0.0
 41
1.0
 50
0.0
 71
     0
 42
0.2
  3
TXT
  4
BIGFONT
  0
STYLE
  2
ANNOTATIVE
 70
     0
 40
0.0
 41
1.0
 50
0.0
 71
     0
 42
0.2
  3
txt
  4

  0
STYLE
  2
STANDARD1
 70
     0
 40
0.0
 41
1.0
 50
0.0
 71
     0
 42
3.0
  3
txt
  4

  0
ENDTAB
  0
TABLE
  2
VIEW
 70
     1
  0
VIEW
  2
ALL
 70
     0
 40
540.0
 10
441.98319299999991
 20
270.0
 41
0.0
 11
0.0
 21
0.0
 31
1.0
 12
0.0
 22
0.0
 32
0.0
 42
0.0
 43
0.0
 44
0.0
 50
0.0
 71
     0
  0
ENDTAB
  0
TABLE
  2
UCS
 70
     0
  0
ENDTAB
  0
TABLE
  2
APPID
 70
     7
  0
APPID
  2
ACAD
 70
     0
  0
APPID
  2
ACADANNOTATIVE
 70
     0
  0
APPID
  2
ACAD_NAV_VCDISPLAY
 70
     0
  0
APPID
  2
ACAD_EXEMPT_FROM_CAD_STANDARDS
 70
     0
  0
APPID
  2
ACAD_DSTYLE_DIMJAG
 70
     0
  0
APPID
  2
ACAD_DSTYLE_DIMTALN
 70
     0
  0
APPID
  2
ACAD_MLEADERVER
 70
     0
  0
ENDTAB
  0
TABLE
  2
DIMSTYLE
 70
     2
  0
DIMSTYLE
  2
STANDARD
 70
     0
  3

  4

  5

  6

  7

 40
1.0
 41
0.18
 42
0.0625
 43
0.38
 44
0.18
 45
0.0
 46
0.0
 47
0.0
 48
0.0
140
0.18
141
0.09
142
0.0
143
25.399999999999999
144
1.0
145
0.0
146
1.0
147
0.09
 71
     0
 72
     0
 73
     1
 74
     1
 75
     0
 76
     0
 77
     0
 78
     0
170
     0
171
     2
172
     0
173
     0
174
     0
175
     0
176
     0
177
     0
178
     0
  0
DIMSTYLE
  2
ANNOTATIVE
 70
     0
  3

  4

  5

  6

  7

 40
1.0
 41
0.18
 42
0.0625
 43
0.38
 44
0.18
 45
0.0
 46
0.0
 47
0.0
 48
0.0
140
0.18
141
0.09
142
0.0
143
25.399999999999999
144
1.0
145
0.0
146
1.0
147
0.09
 71
     0
 72
     0
 73
     1
 74
     1
 75
     0
 76
     0
 77
     0
 78
     0
170
     0
171
     2
172
     0
173
     0
174
     0
175
     0
176
     0
177
     0
178
     0
  0
ENDTAB
  0
ENDSEC
  0
SECTION
  2
BLOCKS
  0
BLOCK
  8
0
  2
$MODEL_SPACE
 70
     0
 10
0.0
 20
0.0
 30
0.0
  3
$MODEL_SPACE
  1

  0
ENDBLK
  5
205A
  8
0
  0
BLOCK
 67
     1
  8
0
  2
$PAPER_SPACE
 70
     0
 10
0.0
 20
0.0
 30
0.0
  3
$PAPER_SPACE
  1

  0
ENDBLK
  5
2056
 67
     1
  8
0
  0
ENDSEC
  0
SECTION
  2
ENTITIES
  0
CIRCLE
  5
C83
  8
0
 10
98.576719208912948
 20
232.6075669861707
 30
0.0000000000023075
 40
4.0000000000000142
  0
LINE
  5
C84
  8
0
 10
96.076719264792303
 20
234.05094270308791
 30
0.0000000000023075
 11
96.076719264792303
 21
231.16419126925359
 31
0.0000000000023075
  0
LINE
  5
C85
  8
0
 10
98.576719208912948
 20
235.4943184200051
 30
0.0000000000023075
 11
96.076719264792303
 21
234.05094270308791
 31
0.0000000000023075
  0
LINE
  5
C86
  8
0
 10
96.076719264792303
 20
231.16419126925359
 30
0.0000000000023075
 11
98.576719208912948
 21
229.72081555233621
 31
0.0000000000023075
  0
LINE
  5
C87
  8
0
 10
101.07671915303359
 20
231.16419126925359
 30
0.0000000000023075
 11
101.07671915303359
 21
234.05094270308791
 31
0.0000000000023075
  0
LINE
  5
C88
  8
0
 10
98.576719208912948
 20
229.72081555233621
 30
0.0000000000023075
 11
101.07671915303359
 21
231.16419126925359
 31
0.0000000000023075
  0
LINE
  5
C89
  8
0
 10
101.07671915303359
 20
234.05094270308791
 30
0.0000000000023075
 11
98.576719208912948
 21
235.4943184200051
 31
0.0000000000023075
  0
ARC
  5
C8A
  8
0
 10
98.576719208912948
 20
232.6075669861707
 30
0.0000000000023075
 40
2.5
 50
300.0000000000008
 51
0.0
  0
ARC
  5
C8B
  8
0
 10
98.576719208912948
 20
232.6075669861707
 30
0.0000000000023075
 40
2.5000000000000071
 50
180.0
 51
240.00000000000071
  0
ARC
  5
C8C
  8
0
 10
98.576719208912948
 20
232.6075669861707
 30
0.0000000000023075
 40
2.5000000000000071
 50
240.00000000000071
 51
300.00000000000023
  0
ARC
  5
C8D
  8
0
 10
98.576719208912948
 20
232.6075669861707
 30
0.0000000000023075
 40
2.5
 50
119.9999999999999
 51
180.0
  0
ARC
  5
C8E
  8
0
 10
98.576719208912948
 20
232.6075669861707
 30
0.0000000000023075
 40
2.4999999999999831
 50
60.000000000000348
 51
119.9999999999999
  0
ARC
  5
C8F
  8
0
 10
98.576719208912948
 20
232.6075669861707
 30
0.0000000000023075
 40
2.5
 50
0.0
 51
60.000000000000099
  0
ARC
  5
C94
  8
0
 10
168.57682809297239
 20
124.1640007233426
 30
0.0000000000023075
 40
100.00002089412079
 50
84.208056060955016
 51
91.655336625219135
  0
ARC
  5
C95
  8
0
 10
168.5768276588594
 20
341.051145269492
 30
0.0000000000023075
 40
100.0000328970573
 50
268.34466382235797
 51
275.79194349146951
  0
LINE
  5
C96
  8
0
 10
165.68812195892821
 20
224.12228980281679
 30
0.0000000000023075
 11
161.27304200764181
 21
223.9832545182976
 31
0.0000000000023075
  0
LINE
  5
C97
  8
0
 10
161.27304200764181
 20
241.23187945404371
 30
0.0000000000023075
 11
165.68812195892821
 21
241.0928441695246
 31
0.0000000000023075
  0
ARC
  5
C98
  8
0
 10
179.57671960787471
 20
232.6075669861707
 30
0.0000000000023075
 40
9.0000005606477949
 50
264.20805267125229
 51
95.791947328748208
  0
ARC
  5
C9B
  8
0
 10
98.571956770205787
 20
232.6075669861707
 30
0.0000000000023075
 40
12.50337816639157
 50
315.1952494168749
 51
44.804750583125838
  0
LINE
  5
C9C
  8
0
 10
105.8627211370636
 20
222.45058999576901
 30
0.0000000000023075
 11
107.44325750257261
 21
223.79652341076459
 31
0.0000000000023075
  0
LINE
  5
C9D
  8
0
 10
107.44325750257261
 20
241.4186105615768
 30
0.0000000000023075
 11
105.8627211370636
 21
242.7645439765725
 31
0.0000000000023075
  0
ARC
  5
CA0
  8
0
 10
98.577150130186155
 20
232.6075669861707
 30
0.0000000000023075
 40
12.499749056673251
 50
54.348232368707698
 51
305.65176763129318
  0
ARC
  5
CA1
  8
0
 10
98.576719214164768
 20
232.6075669861707
 30
0.0000000000023075
 40
15.999999947972221
 50
56.542675934217371
 51
303.45732406578333
  0
LINE
  5
CA3
  8
0
 10
103.5767190971542
 20
229.72081555233621
 30
0.0000000000023075
 11
103.5767190971542
 21
235.4943184200051
 31
0.0000000000023075
  0
LINE
  5
CA4
  8
0
 10
93.576719320671685
 20
235.4943184200051
 30
0.0000000000023075
 11
93.576719320671685
 21
229.72081555233621
 31
0.0000000000023075
  0
ARC
  5
CAE
  8
0
 10
98.576719208912948
 20
232.6075669861707
 30
0.0000000000023075
 40
12.5
 50
56.812007725294613
 51
270.00000000000068
  0
ARC
  5
CB0
  8
0
 10
98.576719208912948
 20
232.6075669861707
 30
0.0000000000023075
 40
12.500000000000011
 50
313.98994685183749
 51
330.37232332761857
  0
LINE
  5
CB1
  8
0
 10
100.0740528454203
 20
220.1975716761622
 30
0.0000000000023075
 11
98.576719208912948
 21
220.10756679990621
 31
0.0000000000023075
  0
ARC
  5
CB2
  8
0
 10
98.576719208912948
 20
232.6075669861707
 30
0.0000000000023075
 40
4.999999999999992
 50
119.9999999999999
 51
180.0
  0
ARC
  5
CB3
  8
0
 10
98.576719208912948
 20
232.6075669861707
 30
0.0000000000023075
 40
5.0000000000000151
 50
300.0000000000008
 51
0.0
  0
ARC
  5
CB4
  8
0
 10
98.576719208912948
 20
232.6075669861707
 30
0.0000000000023075
 40
5.0000000000000151
 50
240.00000000000071
 51
300.0000000000008
  0
ARC
  5
CB5
  8
0
 10
98.576719208912948
 20
232.6075669861707
 30
0.0000000000023075
 40
4.999999999999992
 50
60.000000000000078
 51
119.9999999999999
  0
ARC
  5
CB6
  8
0
 10
98.576719208912948
 20
232.6075669861707
 30
0.0000000000023075
 40
5.0000000000000151
 50
180.0
 51
240.00000000000071
  0
ARC
  5
CB7
  8
0
 10
98.576719208912948
 20
232.6075669861707
 30
0.0000000000023075
 40
5.0
 50
0.0
 51
60.000000000000242
  0
ARC
  5
CC7
  8
0
 10
44.978681748101813
 20
156.09998359572239
 30
0.0000000000023075
 40
5.5034142618087971
 50
4.8050183274985621
 51
71.029768185303467
  0
ARC
  5
CC8
  8
0
 10
49.462440721386173
 20
120.21564627368291
 30
0.0000000000023075
 40
1.0
 50
270.0000000000008
 51
0.0
  0
ARC
  5
CCB
  8
0
 10
-132.21889967651461
 20
103.81112031673899
 30
0.0000000000023075
 40
187.37592744792869
 50
17.99319536005596
 51
20.85343667741304
  0
LINE
  5
CCC
  8
0
 10
38.217426472970111
 20
174.21564630348519
 30
0.0000000000023075
 11
30.710179088332509
 21
174.21564630348519
 31
0.0000000000023075
  0
LINE
  5
CD3
  8
0
 10
46.962440907650688
 20
159.07233006436661
 30
0.0000000000023075
 11
46.962440907650688
 21
159.7156467207177
 31
0.0000000000023075
  0
ARC
  5
CD4
  8
0
 10
24.462440721386191
 20
159.71564627368289
 30
0.0000000000023075
 40
2.5000000000000031
 50
90.0
 51
180.0
  0
ARC
  5
CD5
  8
0
 10
44.462440721386173
 20
159.71564627368289
 30
0.0000000000023075
 40
2.5000000000000071
 50
0.0
 51
90.0
  0
LINE
  5
CD6
  8
0
 10
26.46244034140657
 20
117.7156462974316
 30
0.0000000000023075
 11
26.962440889024251
 21
117.21564627368291
 31
0.0000000000023075
  0
LINE
  5
CD7
  8
0
 10
41.96244055374811
 20
117.21564627368291
 30
0.0000000000023075
 11
42.462441101365769
 21
117.7156462974316
 31
0.0000000000023075
  0
LINE
  5
CD8
  8
0
 10
42.462441101365769
 20
117.7156462974316
 30
0.0000000000023075
 11
42.462441101365769
 21
119.2156463686778
 31
0.0000000000023075
  0
LINE
  5
CD9
  8
0
 10
26.46244034140657
 20
119.2156463686778
 30
0.0000000000023075
 11
26.46244034140657
 21
117.7156462974316
 31
0.0000000000023075
  0
LINE
  5
D7A
  8
0
 10
49.46244038611006
 20
119.2156463686778
 30
0.0000000000023075
 11
19.462441056662311
 21
119.2156463686778
 31
0.0000000000023075
  0
LINE
  5
D83
  8
0
 10
38.217426472970111
 20
174.19006100971541
 30
0.0000000000023075
 11
38.2067923989825
 21
174.201814300607
 31
0.0000000000023075
  0
LINE
  5
D84
  8
0
 10
30.719238994338369
 20
174.20833355862931
 30
0.0000000000023075
 11
30.710179088332509
 21
174.20385948498091
 31
0.0000000000023075
  0
ARC
  5
D85
  8
0
 10
31.036276212197151
 20
168.99949760002781
 30
-0.0000000000037929
 40
5.2184753176695891
210
0.0000000000004122
220
-0.0000000000011461
230
1.0
 50
93.483026398494474
 51
163.14091768301131
  0
ARC
  5
D86
  8
0
 10
37.902278899838343
 20
169.00772964354661
 30
0.0000000000023075
 40
5.2030033534365581
 50
16.815996346860899
 51
86.644762064713746
  0
LINE
  5
D88
  8
0
 10
44.462440497868762
 20
162.21564806182221
 30
0.0000000000023075
 11
24.462440944903602
 21
162.21564806182221
 31
0.0000000000023075
  0
LINE
  5
D89
  8
0
 10
41.96244055374811
 20
117.21564627368291
 30
0.0000000000023075
 11
26.962440889024251
 21
117.21564627368291
 31
0.0000000000023075
  0
LINE
  5
D8A
  8
0
 10
26.46244034140657
 20
117.7156462974316
 30
0.0000000000023075
 11
42.462441101365769
 21
117.7156462974316
 31
0.0000000000023075
  0
LINE
  5
D8B
  8
1
 10
34.462440721386052
 20
176.21564630348519
 30
0.0000000000023075
 11
34.462440721386052
 21
95.215646273682935
 31
0.0000000000023075
  0
LINE
  5
E51
  8
0
 10
250.98396992625129
 20
160.9507778950437
 30
0.0000000000023075
 11
250.98396992625129
 21
168.9227128692373
 31
0.0000000000023075
  0
LINE
  5
E52
  8
0
 10
232.98397070111159
 20
168.9227128692373
 30
0.0000000000023075
 11
232.98397070111159
 21
160.95103866536459
 31
0.0000000000023075
  0
ARC
  5
E53
  8
0
 10
238.18089720639631
 20
168.77437068183701
 30
0.0000000000023075
 40
5.1990432298542251
 50
131.7358172914137
 51
178.36498091175019
  0
ARC
  5
E54
  8
0
 10
245.784676595804
 20
168.7732765602575
 30
0.0000000000023075
 40
5.2014404107395924
 50
1.6463224470394691
 51
48.248929355607793
  0
LINE
  5
E56
  8
0
 10
245.73623194673479
 20
174.21564630348519
 30
0.0000000000023075
 11
238.22898456209731
 21
174.21564630348519
 31
0.0000000000023075
  0
ARC
  5
E59
  8
0
 10
131.579135391232
 20
122.0436434343903
 30
0.0000000000023075
 40
128.219623392817
 50
17.90366367846234
 51
21.369106491357329
  0
ARC
  5
E5A
  8
0
 10
369.47837423990791
 20
115.9469793452503
 30
0.0000000000023075
 40
146.35687192505659
 50
158.8459570885133
 51
161.88188326093831
  0
LINE
  5
E5D
  8
0
 10
225.98396955372249
 20
156.5602960355981
 30
0.0000000000023075
 11
225.98396955372249
 21
120.2156462997599
 31
0.0000000000023075
  0
LINE
  5
E5E
  8
0
 10
257.98397107364087
 20
120.2156462997599
 30
0.0000000000023075
 11
257.98397107364087
 21
156.56141362268761
 31
0.0000000000023075
  0
ARC
  5
E5F
  8
0
 10
226.98397031368171
 20
120.21564627368291
 30
0.0000000000023075
 40
1.0000000000000271
 50
180.0
 51
270.0
  0
ARC
  5
E60
  8
0
 10
256.98397031368182
 20
120.21564627368291
 30
0.0000000000023075
 40
1.0
 50
270.0
 51
0.0
  0
ARC
  5
E61
  8
0
 10
252.503499420639
 20
156.1026342292372
 30
0.0000000000023075
 40
5.4998410773954181
 50
4.8061018389953132
 51
71.053366725002761
  0
ARC
  5
E62
  8
0
 10
231.46772928696601
 20
156.09998359572231
 30
0.0000000000023075
 40
5.503414261808798
 50
108.9702318146966
 51
175.1949816725008
  0
LINE
  5
E63
  8
0
 10
249.98397069366121
 20
117.7156462974316
 30
0.0000000000023075
 11
249.98397069366121
 21
119.2156463686778
 31
0.0000000000023075
  0
LINE
  5
E64
  8
0
 10
233.9839699337021
 20
119.2156463686778
 30
0.0000000000023075
 11
233.9839699337021
 21
117.7156462974316
 31
0.0000000000023075
  0
LINE
  5
E65
  8
0
 10
233.9839699337021
 20
117.7156462974316
 30
0.0000000000023075
 11
234.4839704813198
 21
117.21564627368291
 31
0.0000000000023075
  0
LINE
  5
E66
  8
0
 10
249.4839701460437
 20
117.21564627368291
 30
0.0000000000023075
 11
249.98397069366121
 21
117.7156462974316
 31
0.0000000000023075
  0
LINE
  5
E76
  8
0
 10
238.22898456209731
 20
174.19006100971541
 30
0.0000000000023075
 11
238.2396186360848
 21
174.201814300607
 31
0.0000000000023075
  0
LINE
  5
E77
  8
0
 10
245.72717204072899
 20
174.20833355862931
 30
0.0000000000023075
 11
245.73623194673479
 21
174.20385948498091
 31
0.0000000000023075
  0
LINE
  5
E78
  8
0
 10
250.48397077561759
 20
151.69745481688821
 30
0.0000000000023075
 11
250.46965541632321
 21
152.04486048896149
 31
0.0000000000023075
  0
LINE
  5
E79
  8
0
 10
250.48397077561759
 20
151.69745481688821
 30
0.0000000000023075
 11
250.48397077561759
 21
149.98322523314781
 31
0.0000000000023075
  0
LINE
  5
E7A
  8
0
 10
233.48396985174551
 20
149.98322523314781
 30
0.0000000000023075
 11
233.48396985174551
 21
151.69743619043669
 31
0.0000000000023075
  0
ARC
  5
E7D
  8
0
 10
245.4839703136816
 20
132.71564627368289
 30
0.0000000000023075
 40
4.9999999999999769
 50
311.4096221092716
 51
0.0
  0
LINE
  5
E7E
  8
0
 10
250.48397077561759
 20
149.98322523314781
 30
0.0000000000023075
 11
250.48397077561759
 21
132.7156460203631
 31
0.0000000000023075
  0
LINE
  5
E7F
  8
0
 10
239.8839703885599
 20
127.7156461321219
 30
0.0000000000023075
 11
238.48397020564821
 21
127.7156461321219
 31
0.0000000000023075
  0
LINE
  5
E80
  8
0
 10
245.48397042171499
 20
127.7156461321219
 30
0.0000000000023075
 11
244.08397023880329
 21
127.7156461321219
 31
0.0000000000023075
  0
ARC
  5
E81
  8
0
 10
241.98397031368151
 20
89.181291562838794
 30
0.0000000000023075
 40
38.591533809331011
 50
86.880647625387056
 51
93.119352374612873
  0
ARC
  5
E82
  8
0
 10
245.48391215066479
 20
132.7158003502789
 30
0.0000000000023075
 40
5.0001542184966112
 50
270.00066771645402
 51
311.40894966964368
  0
ARC
  5
E83
  8
0
 10
238.4840284766982
 20
132.71580035027901
 30
0.0000000000023075
 40
5.0001542184966761
 50
228.5910503303586
 51
269.99933228354831
  0
ARC
  5
E84
  8
0
 10
238.4839703136816
 20
132.71564627368289
 30
0.0000000000023075
 40
5.0
 50
180.0
 51
228.59037789073
  0
LINE
  5
E85
  8
0
 10
233.48396985174551
 20
132.7156460203631
 30
0.0000000000023075
 11
233.48396985174551
 21
149.98322523314781
 31
0.0000000000023075
  0
LINE
  5
E88
  8
0
 10
249.74230459274199
 20
119.2156463686778
 30
0.0000000000023075
 11
245.8279313644156
 21
119.2156463686778
 31
0.0000000000023075
  0
LINE
  5
E89
  8
0
 10
238.1400092629477
 20
119.2156463686778
 30
0.0000000000023075
 11
234.22563603462129
 21
119.2156463686778
 31
0.0000000000023075
  0
LINE
  5
E8A
  8
0
 10
245.8279313644156
 20
119.2156463686778
 30
0.0000000000023075
 11
238.1400092629477
 21
119.2156463686778
 31
0.0000000000023075
  0
LINE
  5
E8B
  8
0
 10
252.6570471593871
 20
119.2156463686778
 30
0.0000000000023075
 11
249.74230459274199
 21
119.2156463686778
 31
0.0000000000023075
  0
LINE
  5
E8C
  8
0
 10
234.22563603462129
 20
119.2156463686778
 30
0.0000000000023075
 11
231.3108934679762
 21
119.2156463686778
 31
0.0000000000023075
  0
LINE
  5
E8F
  8
0
 10
231.3108934679762
 20
119.2156463686778
 30
0.0000000000023075
 11
226.98397064895789
 21
119.2156463686778
 31
0.0000000000023075
  0
LINE
  5
E90
  8
0
 10
256.98396997840558
 20
119.2156463686778
 30
0.0000000000023075
 11
252.6570471593871
 21
119.2156463686778
 31
0.0000000000023075
  0
LINE
  5
E93
  8
0
 10
233.9839699337021
 20
117.7156462974316
 30
0.0000000000023075
 11
249.98397069366121
 21
117.7156462974316
 31
0.0000000000023075
  0
LINE
  5
E94
  8
0
 10
249.4839701460437
 20
117.21564627368291
 30
0.0000000000023075
 11
234.4839704813198
 21
117.21564627368291
 31
0.0000000000023075
  0
ARC
  5
E9F
  8
0
 10
85.076726302632096
 20
151.52805015371521
 30
0.0000000000023075
 40
2.5000059910373129
 50
111.8003600217337
 51
179.9998960099885
  0
ARC
  5
EA2
  8
0
 10
83.576719208912976
 20
120.21564627368301
 30
0.0000000000023075
 40
1.0000000000000131
 50
180.0
 51
270.0000000000008
  0
ARC
  5
EA5
  8
0
 10
182.57670807924509
 20
167.50493247199859
 30
0.0000000000023075
 40
6.0000147059609432
 50
0.0001254845193945
 51
82.541511341172793
  0
LINE
  5
EA6
  8
0
 10
188.57672278519169
 20
160.84212235290849
 30
0.0000000000023075
 11
188.57672278519169
 21
167.50690511543601
 31
0.0000000000023075
  0
ARC
  5
EA7
  8
0
 10
184.57671761531719
 20
160.8422862819674
 30
0.0000000000023075
 40
4.0000051698814572
 50
255.62392444147039
 51
359.99989304515537
  0
LINE
  5
EA8
  8
0
 10
86.07671902264849
 20
159.71564672071781
 30
0.0000000000023075
 11
86.07671902264849
 21
154.61278504807791
 31
0.0000000000023075
  0
ARC
  5
EA9
  8
0
 10
88.576719208912976
 20
159.71564627368301
 30
0.0000000000023075
 40
2.5
 50
90.0
 51
180.0
  0
LINE
  5
EAA
  8
0
 10
106.5767195888926
 20
117.7156462974317
 30
0.0000000000023075
 11
106.5767195888926
 21
119.2156463686778
 31
0.0000000000023075
  0
LINE
  5
EAB
  8
0
 10
90.576718828933409
 20
119.2156463686778
 30
0.0000000000023075
 11
90.576718828933409
 21
117.7156462974317
 31
0.0000000000023075
  0
LINE
  5
EAC
  8
0
 10
90.576718828933409
 20
117.7156462974317
 30
0.0000000000023075
 11
91.076719376551068
 21
117.21564627368301
 31
0.0000000000023075
  0
LINE
  5
EAD
  8
0
 10
106.0767190412749
 20
117.21564627368301
 30
0.0000000000023075
 11
106.5767195888926
 21
117.7156462974317
 31
0.0000000000023075
  0
ARC
  5
EE5
  8
0
 10
198.5313951873552
 20
-132.12184579551459
 30
0.0000000000023075
 40
307.99832900402419
 50
107.6272369469557
 51
111.80048736076169
  0
LINE
  5
EEC
  8
0
 10
109.1164260053207
 20
119.2156463686778
 30
0.0000000000023075
 11
83.576719544189132
 21
119.2156463686778
 31
0.0000000000023075
  0
LINE
  5
EEF
  8
0
 10
111.0549217903186
 20
163.19296679575291
 30
0.0000000000023075
 11
110.9870227866937
 21
163.17283905227029
 31
0.0000000000023075
  0
ARC
  5
EF0
  8
0
 10
198.53211479462999
 20
-132.1241885767746
 30
0.0000000000023075
 40
308.00078097761468
 50
97.077207424169714
 51
106.499973817041
  0
LINE
  5
EF1
  8
0
 10
114.475604414301
 20
119.2156463686778
 30
0.0000000000023075
 11
109.1164260053207
 21
119.2156463686778
 31
0.0000000000023075
  0
LINE
  5
EF2
  8
0
 10
110.9870227866937
 20
163.17283905227029
 30
0.0000000000023075
 11
111.0549227216412
 21
163.19296679575291
 31
0.0000000000023075
  0
LINE
  5
EF3
  8
0
 10
124.7243865274955
 20
166.90239480812389
 30
0.0000000000023075
 11
124.7512700849344
 21
166.9090332754358
 31
0.0000000000023075
  0
ARC
  5
EF6
  8
0
 10
171.6748377767386
 20
84.233187785038865
 30
0.0000000000023075
 40
89.982359513049218
 50
82.541316786778765
 51
84.938045854219069
  0
ARC
  5
EF7
  8
0
 10
164.94637817186421
 20
84.244160783394165
 30
0.0000000000023075
 40
75.07352426257448
 50
75.625866767721092
 51
79.651347296517542
  0
ARC
  5
EF8
  8
0
 10
171.6735642519721
 20
84.289956742497395
 30
0.0000000000023075
 40
89.925924547547297
 50
84.934046215701656
 51
94.108667170907594
  0
ARC
  5
EF9
  8
0
 10
164.96211791897139
 20
84.316385452415645
 30
0.0000000000023075
 40
74.999647074164244
 50
79.653264375678575
 51
89.516650168127555
  0
LINE
  5
EFC
  8
0
 10
160.58435131545559
 20
173.52994329411831
 30
0.0000000000023075
 11
165.2305221998264
 21
173.9847677119478
 31
0.0000000000023075
  0
LINE
  5
F04
  8
0
 10
98.576719208913005
 20
162.21564806182229
 30
0.0000000000023075
 11
107.9624717005659
 21
162.21564806182229
 31
0.0000000000023075
  0
LINE
  5
F05
  8
0
 10
88.576719432430423
 20
162.21564806182229
 30
0.0000000000023075
 11
98.576719208913005
 21
162.21564806182229
 31
0.0000000000023075
  0
LINE
  5
F06
  8
0
 10
90.576718828933409
 20
117.7156462974317
 30
0.0000000000023075
 11
106.5767195888926
 21
117.7156462974317
 31
0.0000000000023075
  0
LINE
  5
F07
  8
0
 10
106.0767190412749
 20
117.21564627368301
 30
0.0000000000023075
 11
91.076719376551068
 21
117.21564627368301
 31
0.0000000000023075
  0
LINE
  5
F08
  8
1
 10
98.576719208913005
 20
164.21564806182229
 30
0.0000000000023075
 11
98.576719208913005
 21
95.215646273682992
 31
0.0000000000023075
  0
ARC
  5
F94
  8
0
 10
23.942911614428731
 20
156.10263422923731
 30
0.0000000000023075
 40
5.499841077395307
 50
108.9466332749968
 51
175.19389816100519
  0
ARC
  5
F95
  8
0
 10
19.462440721386191
 20
120.21564627368291
 30
0.0000000000023075
 40
1.0
 50
180.0
 51
270.0000000000008
  0
LINE
  5
F97
  8
0
 10
21.962440535121669
 20
159.7156467207177
 30
0.0000000000023075
 11
21.962440535121669
 21
159.20620582182249
 31
0.0000000000023075
  0
ARC
  5
1369
  8
0
 10
108.743060052502
 20
29.446694832870339
 30
0.0000000000023075
 40
1.9872958535503991
 50
112.73250252158169
 51
122.4266625732353
  0
CIRCLE
  5
1373
  8
0
 10
100.826719208913
 20
52.858229278435331
 30
0.0000000000023075
 40
0.5999999999999996
  0
LINE
  5
1374
  8
0
 10
99.576719256410442
 20
52.236278091983102
 30
0.0000000000023075
 11
99.576719256410442
 21
54.349396859721438
 31
0.0000000000023075
  0
ARC
  5
1375
  8
0
 10
98.576719208913005
 20
44.299023707823054
 30
0.0000000000023075
 40
10.1
 50
95.682159036330788
 51
84.317840963669198
  0
LINE
  5
1376
  8
0
 10
97.576719161415554
 20
54.349396859721438
 30
0.0000000000023075
 11
97.576719161415554
 21
52.236278091983102
 31
0.0000000000023075
  0
CIRCLE
  5
1377
  8
0
 10
96.326719208913005
 20
52.858229278435331
 30
0.0000000000023075
 40
0.6000000000000008
  0
ARC
  5
1378
  8
0
 10
116.84554511535811
 20
25.799023707823071
 30
0.0000000000023075
 40
10.000000000000011
 50
102.4418819114632
 51
134.6397729586032
  0
ARC
  5
1379
  8
0
 10
113.6149238753777
 20
40.456230682068849
 30
0.0000000000023075
 40
5.0090186651514843
 50
282.4060399998383
 51
359.98663951828092
  0
ARC
  5
137A
  8
0
 10
98.576719208913005
 20
44.299023707823054
 30
0.0000000000023075
 40
15.99999999999998
 50
45.360227041396897
 51
314.63977295860388
  0
CIRCLE
  5
137B
  8
0
 10
98.576719208913005
 20
44.299023707823054
 30
0.0000000000023075
 40
10.75
  0
ARC
  5
137C
  8
0
 10
113.6148929446309
 20
48.141791861364879
 30
0.0000000000023075
 40
5.0090496017589423
 50
0.0136448988491307
 51
77.593675583033161
  0
ARC
  5
137D
  8
0
 10
116.84554511535811
 20
62.799023707823061
 30
0.0000000000023075
 40
10.000000000000011
 50
225.36022704139751
 51
257.55811808854082
  0
ARC
  5
137E
  8
0
 10
116.8455449415047
 20
25.79899400952381
 30
0.0000000000023075
 40
10.00002923636322
 50
90.000001411129887
 51
102.4418457662661
  0
ARC
  5
137F
  8
0
 10
116.8455455466362
 20
62.799058957567333
 30
0.0000000000023075
 40
10.00003478780836
 50
257.55815770086679
 51
269.99999512173559
  0
LINE
  5
1380
  8
0
 10
127.0767192238141
 20
35.799023245887007
 30
0.0000000000023075
 11
116.8455446952153
 21
35.799023245887021
 31
0.0000000000023075
  0
LINE
  5
1381
  8
0
 10
116.8455446952153
 20
52.799024169759029
 30
0.0000000000023075
 11
127.0767192238141
 21
52.799024169759001
 31
0.0000000000023075
  0
ARC
  5
138B
  8
0
 10
112.91092674221071
 20
65.990737895692689
 30
0.0000000000023075
 40
9.9999994725146273
 50
236.54268272073389
 51
264.73075149544542
  0
ARC
  5
138C
  8
0
 10
112.9109267716979
 20
22.60730943604797
 30
0.0000000000023075
 40
9.9999995587733608
 50
95.269248628641421
 51
123.45731715518021
  0
LINE
  5
1392
  8
0
 10
137.8948486291934
 20
34.556633343414433
 30
0.0000000000023075
 11
131.30916123028291
 21
34.125463587657592
 31
0.0000000000023075
  0
LINE
  5
1393
  8
0
 10
131.3128976964523
 20
54.472324920312531
 30
0.0000000000023075
 11
137.894856079774
 21
54.041413140908837
 31
0.0000000000023075
  0
LINE
  5
1394
  8
0
 10
140.8868006312419
 20
34.73562143506205
 30
0.0000000000023075
 11
137.8948486291934
 21
34.556633343414433
 31
0.0000000000023075
  0
LINE
  5
1395
  8
0
 10
137.894856079774
 20
54.041413140908837
 30
0.0000000000023075
 11
140.88580597873221
 21
53.86248372258342
 31
0.0000000000023075
  0
ARC
  5
1398
  8
0
 10
179.57671888983171
 20
44.299023707822911
 30
0.0000000000023075
 40
9.0000004881854441
 50
264.20805721912041
 51
95.791942780880305
  0
ARC
  5
1399
  8
0
 10
168.57683318639661
 20
-64.144401519168937
 30
0.0000000000023075
 40
99.9998800642758
 50
84.20805080955634
 51
91.655341876617754
  0
ARC
  5
139A
  8
0
 10
168.57682907417339
 20
152.7425628014056
 30
0.0000000000023075
 40
99.999993764557587
 50
268.34466236314961
 51
275.79194495067782
  0
CIRCLE
  5
139B
  8
0
 10
98.576719208913005
 20
44.299023707823054
 30
0.0000000000023075
 40
7.499999999999992
  0
CIRCLE
  5
139C
  8
0
 10
98.576719208913005
 20
44.299023707823054
 30
0.0000000000023075
 40
8.0
  0
CIRCLE
  5
139D
  8
0
 10
98.576719208913005
 20
44.299023707823054
 30
0.0000000000023075
 40
5.0000000000000142
  0
LINE
  5
139F
  8
0
 10
111.992565251248
 20
244.3415403849753
 30
0.0
 11
117.238188430028
 21
243.87408350774371
 31
0.0
  0
LINE
  5
13A0
  8
0
 10
117.238188430028
 20
243.87408350774371
 30
0.0
 11
122.7998345040847
 21
243.41408931830259
 31
0.0
  0
LINE
  5
13A1
  8
0
 10
122.7998345040847
 20
243.41408931830259
 30
0.0
 11
128.13511890109069
 21
243.00721869984
 31
0.0
  0
LINE
  5
13A2
  8
0
 10
128.13511890109069
 20
243.00721869984
 30
0.0
 11
133.7230115079451
 21
242.6171491406235
 31
0.0
  0
LINE
  5
13A3
  8
0
 10
133.7230115079451
 20
242.6171491406235
 30
0.0
 11
139.09703706140999
 21
242.27677029737561
 31
0.0
  0
LINE
  5
13A4
  8
0
 10
139.09703706140999
 20
242.27677029737561
 30
0.0
 11
143.0528110706378
 21
242.047974143115
 31
0.0
  0
LINE
  5
13A5
  8
0
 10
143.0528110706378
 20
242.047974143115
 30
0.0
 11
147.41432507272251
 21
241.81707133719061
 31
0.0
  0
LINE
  5
13A6
  8
0
 10
147.41432507272251
 20
241.81707133719061
 30
0.0
 11
151.30820338364131
 21
241.62984104075761
 31
0.0
  0
LINE
  5
13A7
  8
0
 10
151.30820338364131
 20
241.62984104075761
 30
0.0
 11
153.87242127891071
 21
241.5162830165896
 31
0.0
  0
LINE
  5
13A8
  8
0
 10
153.87242127891071
 20
241.5162830165896
 30
0.0
 11
157.11362500424869
 21
241.38380424299569
 31
0.0
  0
LINE
  5
13A9
  8
0
 10
157.11362500424869
 20
241.38380424299569
 30
0.0
 11
159.74612374539859
 21
241.28528987237539
 31
0.0
  0
LINE
  5
13AA
  8
0
 10
159.74612374539859
 20
241.28528987237539
 30
0.0
 11
161.27304200764181
 21
241.23187945404371
 31
0.0
  0
LINE
  5
13AB
  8
0
 10
161.27304200764181
 20
223.9832545182976
 30
0.0
 11
159.9342211031485
 21
223.936571974245
 31
0.0
  0
LINE
  5
13AC
  8
0
 10
159.9342211031485
 20
223.936571974245
 30
0.0
 11
157.68600840802679
 21
223.85344212123479
 31
0.0
  0
LINE
  5
13AD
  8
0
 10
157.68600840802679
 20
223.85344212123479
 30
0.0
 11
154.66398213739879
 21
223.73234410950269
 31
0.0
  0
LINE
  5
13AE
  8
0
 10
154.66398213739879
 20
223.73234410950269
 30
0.0
 11
152.21107964153771
 21
223.62615936615791
 31
0.0
  0
LINE
  5
13AF
  8
0
 10
152.21107964153771
 20
223.62615936615791
 30
0.0
 11
150.53251226182471
 21
223.5494174546871
 31
0.0
  0
LINE
  5
13B0
  8
0
 10
150.53251226182471
 20
223.5494174546871
 30
0.0
 11
149.07275353308211
 21
223.47998549410431
 31
0.0
  0
LINE
  5
13B1
  8
0
 10
149.07275353308211
 20
223.47998549410431
 30
0.0
 11
147.22756509418971
 21
223.3886339254054
 31
0.0
  0
LINE
  5
13B2
  8
0
 10
147.22756509418971
 20
223.3886339254054
 30
0.0
 11
145.35347585316191
 21
223.2917503006133
 31
0.0
  0
LINE
  5
13B3
  8
0
 10
145.35347585316191
 20
223.2917503006133
 30
0.0
 11
139.24396623607171
 21
222.94719168165059
 31
0.0
  0
LINE
  5
13B4
  8
0
 10
139.24396623607171
 20
222.94719168165059
 30
0.0
 11
133.3100221001674
 21
222.5704167521867
 31
0.0
  0
LINE
  5
13B5
  8
0
 10
133.3100221001674
 20
222.5704167521867
 30
0.0
 11
126.1197927289773
 21
222.05818188556759
 31
0.0
  0
LINE
  5
13B6
  8
0
 10
126.1197927289773
 20
222.05818188556759
 30
0.0
 11
118.9261025630999
 21
221.48452722647519
 31
0.0
  0
LINE
  5
13B7
  8
0
 10
118.9261025630999
 20
221.48452722647519
 30
0.0
 11
111.992565251248
 21
220.873593587366
 31
0.0
  0
LINE
  5
13B8
  8
0
 10
111.992565251248
 20
220.873593587366
 30
0.0
 11
109.6214207702447
 21
220.35932378092139
 31
0.0
  0
LINE
  5
13B9
  8
0
 10
109.6214207702447
 20
220.35932378092139
 30
0.0
 11
107.3977707767058
 21
219.25881994136901
 31
0.0
  0
LINE
  5
13BA
  8
0
 10
107.3977707767058
 20
245.95631403097241
 30
0.0
 11
109.63320852007161
 21
244.8517123720917
 31
0.0
  0
LINE
  5
13BB
  8
0
 10
109.63320852007161
 20
244.8517123720917
 30
0.0
 11
111.992565251248
 21
244.3415403849753
 31
0.0
  0
LINE
  5
13BC
  8
0
 10
93.576719320671685
 20
229.72081555233621
 30
0.0
 11
94.386443763332494
 21
229.25332095654039
 31
0.0
  0
LINE
  5
13BD
  8
0
 10
94.386443763332494
 20
229.25332095654039
 30
0.0
 11
96.082291833417557
 21
228.27422269800039
 31
0.0
  0
LINE
  5
13BE
  8
0
 10
96.082291833417557
 20
228.27422269800039
 30
0.0
 11
97.725114819886215
 21
227.32573817664121
 31
0.0
  0
LINE
  5
13BF
  8
0
 10
97.725114819886215
 20
227.32573817664121
 30
0.0
 11
98.576719208912948
 21
226.8340641185018
 31
0.0
  0
LINE
  5
13C0
  8
0
 10
103.5767190971542
 20
235.4943184200051
 30
0.0
 11
102.72576593543781
 21
235.98561645665501
 31
0.0
  0
LINE
  5
13C1
  8
0
 10
102.72576593543781
 20
235.98561645665501
 30
0.0
 11
101.083955762269
 21
236.9335161074373
 31
0.0
  0
LINE
  5
13C2
  8
0
 10
101.083955762269
 20
236.9335161074373
 30
0.0
 11
99.389262182930509
 21
237.91194777184461
 31
0.0
  0
LINE
  5
13C3
  8
0
 10
99.389262182930509
 20
237.91194777184461
 30
0.0
 11
98.576719208912948
 21
238.38106985383959
 31
0.0
  0
LINE
  5
13C4
  8
0
 10
98.576719208912948
 20
226.8340641185018
 30
0.0
 11
99.308121402109066
 21
227.25633974367111
 31
0.0
  0
LINE
  5
13C5
  8
0
 10
99.308121402109066
 20
227.25633974367111
 30
0.0
 11
100.9101020519752
 21
228.18124364310231
 31
0.0
  0
LINE
  5
13C6
  8
0
 10
100.9101020519752
 20
228.18124364310231
 30
0.0
 11
102.1854915072341
 21
228.91759011143179
 31
0.0
  0
LINE
  5
13C7
  8
0
 10
102.1854915072341
 20
228.91759011143179
 30
0.0
 11
103.5767190971542
 21
229.72081555233621
 31
0.0
  0
LINE
  5
13C8
  8
0
 10
98.576719208912948
 20
238.38106985383959
 30
0.0
 11
97.237842774311133
 21
237.6080688572797
 31
0.0
  0
LINE
  5
13C9
  8
0
 10
97.237842774311133
 20
237.6080688572797
 30
0.0
 11
95.913369243325704
 21
236.84338363998859
 31
0.0
  0
LINE
  5
13CA
  8
0
 10
95.913369243325704
 20
236.84338363998859
 30
0.0
 11
94.322659808503516
 21
235.9249873570476
 31
0.0
  0
LINE
  5
13CB
  8
0
 10
94.322659808503516
 20
235.9249873570476
 30
0.0
 11
93.576719320671685
 21
235.4943184200051
 31
0.0
  0
LINE
  5
13CC
  8
0
 10
106.68063935573591
 20
242.12473468103741
 30
0.0
 11
107.41555438126809
 21
241.4464021585259
 31
0.0
  0
LINE
  5
13CD
  8
0
 10
107.41555438126809
 20
241.4464021585259
 30
0.0
 11
107.8284981542397
 21
241.0131956002983
 31
0.0
  0
LINE
  5
13D6
  8
0
 10
46.767869926684583
 20
161.30442715365729
 30
0.0
 11
46.203453056209753
 21
161.51055491645181
 31
0.0
  0
LINE
  5
13D8
  8
0
 10
26.042086034708511
 20
170.5129536159738
 30
0.0
 11
25.860541462593591
 21
169.90022159297311
 31
0.0
  0
LINE
  5
13D9
  8
0
 10
25.860541462593591
 20
169.90022159297311
 30
0.0
 11
25.66780053048663
 21
169.32964495498959
 31
0.0
  0
LINE
  5
13DA
  8
0
 10
25.66780053048663
 20
169.32964495498959
 30
0.0
 11
25.476941801302971
 21
168.8024567731126
 31
0.0
  0
LINE
  5
13DB
  8
0
 10
25.476941801302971
 20
168.8024567731126
 30
0.0
 11
25.299371182613921
 21
168.3285290666326
 31
0.0
  0
LINE
  5
13DC
  8
0
 10
25.299371182613921
 20
168.3285290666326
 30
0.0
 11
25.14454718648728
 21
167.9215522773965
 31
0.0
  0
LINE
  5
13DD
  8
0
 10
25.14454718648728
 20
167.9215522773965
 30
0.0
 11
25.004488378458589
 21
167.55538976867041
 31
0.0
  0
LINE
  5
13DE
  8
0
 10
25.004488378458589
 20
167.55538976867041
 30
0.0
 11
24.773371368342008
 21
166.95084965903601
 31
0.0
  0
LINE
  5
13DF
  8
0
 10
24.773371368342008
 20
166.95084965903601
 30
0.0
 11
24.455111436241271
 21
166.10953009803131
 31
0.0
  0
LINE
  5
13E0
  8
0
 10
24.455111436241271
 20
166.10953009803131
 30
0.0
 11
24.037900343232771
 21
164.97582740266159
 31
0.0
  0
LINE
  5
13E1
  8
0
 10
24.037900343232771
 20
164.97582740266159
 30
0.0
 11
23.50927699326817
 21
163.4666079946264
 31
0.0
  0
LINE
  5
13E2
  8
0
 10
23.50927699326817
 20
163.4666079946264
 30
0.0
 11
22.932190016498751
 21
161.69259664741301
 31
0.0000000000023075
  0
LINE
  5
14A0
  8
0
 10
46.962440907650688
 20
159.07233006436661
 30
0.0000000000023075
 11
46.937181576781981
 21
158.93851763684589
 31
0.0
  0
LINE
  5
14A1
  8
0
 10
46.937181576781981
 20
158.93851763684589
 30
0.0
 11
46.616369820826769
 21
158.187599695514
 31
0.0
  0
LINE
  5
14A2
  8
0
 10
46.616369820826769
 20
158.187599695514
 30
0.0
 11
45.903346463733428
 21
157.43064305860841
 31
0.0
  0
LINE
  5
14A3
  8
0
 10
45.903346463733428
 20
157.43064305860841
 30
0.0
 11
44.822152666443117
 21
156.71165830571491
 31
0.0
  0
LINE
  5
14A4
  8
0
 10
44.822152666443117
 20
156.71165830571491
 30
0.0
 11
43.409719094329603
 21
156.06429970939001
 31
0.0
  0
LINE
  5
14A5
  8
0
 10
43.409719094329603
 20
156.06429970939001
 30
0.0
 11
41.694438978725209
 21
155.5062288709386
 31
0.0
  0
LINE
  5
14A6
  8
0
 10
41.694438978725209
 20
155.5062288709386
 30
0.0
 11
39.825199134343407
 21
155.08494696695641
 31
0.0
  0
LINE
  5
14A7
  8
0
 10
39.825199134343407
 20
155.08494696695641
 30
0.0
 11
37.777174692296548
 21
154.78818289120039
 31
0.0
  0
LINE
  5
14A8
  8
0
 10
37.777174692296548
 20
154.78818289120039
 30
0.0
 11
35.760437799313223
 21
154.64020318467459
 31
0.0
  0
LINE
  5
14A9
  8
0
 10
35.760437799313223
 20
154.64020318467459
 30
0.0
 11
33.70394268741191
 21
154.6221094496949
 31
0.0
  0
LINE
  5
14AA
  8
0
 10
33.70394268741191
 20
154.6221094496949
 30
0.0
 11
31.756147239052812
 21
154.72969210822421
 31
0.0
  0
LINE
  5
14AB
  8
0
 10
31.756147239052812
 20
154.72969210822421
 30
0.0
 11
29.883618894660021
 21
154.9523042805894
 31
0.0
  0
LINE
  5
14AC
  8
0
 10
29.883618894660021
 20
154.9523042805894
 30
0.0
 11
28.125620875203161
 21
155.2841866679891
 31
0.0
  0
LINE
  5
14AD
  8
0
 10
28.125620875203161
 20
155.2841866679891
 30
0.0
 11
26.535369418257019
 21
155.7088399596914
 31
0.0
  0
LINE
  5
14AE
  8
0
 10
26.535369418257019
 20
155.7088399596914
 30
0.0
 11
25.08681170611932
 21
156.2377604015573
 31
0.0
  0
LINE
  5
14AF
  8
0
 10
25.08681170611932
 20
156.2377604015573
 30
0.0
 11
23.889798633449811
 21
156.83223850209549
 31
0.0
  0
LINE
  5
14B0
  8
0
 10
23.889798633449811
 20
156.83223850209549
 30
0.0
 11
22.920072972470049
 21
157.5163321860536
 31
0.0
  0
LINE
  5
14B1
  8
0
 10
22.920072972470049
 20
157.5163321860536
 30
0.0
 11
22.279373332553629
 21
158.23151714284259
 31
0.0
  0
LINE
  5
14B2
  8
0
 10
22.279373332553629
 20
158.23151714284259
 30
0.0
 11
21.962440535121669
 21
159.20620582182249
 31
0.0
  0
LINE
  5
14B3
  8
0
 10
232.98397070111159
 20
160.95103866536459
 30
0.0000000000023075
 11
233.26075231970671
 21
160.02671963651019
 31
0.0
  0
LINE
  5
14B4
  8
0
 10
233.26075231970671
 20
160.02671963651019
 30
0.0
 11
233.57513608725191
 21
159.32937509496051
 31
0.0
  0
LINE
  5
14B5
  8
0
 10
233.57513608725191
 20
159.32937509496051
 30
0.0
 11
234.5854762600494
 21
158.26036206562361
 31
0.0
  0
LINE
  5
14B6
  8
0
 10
234.5854762600494
 20
158.26036206562361
 30
0.0
 11
235.8354881064725
 21
157.61874041635829
 31
0.0
  0
LINE
  5
14B7
  8
0
 10
235.8354881064725
 20
157.61874041635829
 30
0.0
 11
237.19367865787271
 21
157.2548354335531
 31
0.0
  0
LINE
  5
14B8
  8
0
 10
237.19367865787271
 20
157.2548354335531
 30
0.0
 11
238.61988439538899
 21
157.03020415384611
 31
0.0
  0
LINE
  5
14B9
  8
0
 10
238.61988439538899
 20
157.03020415384611
 30
0.0
 11
240.5706788770614
 21
156.8823473819001
 31
0.0
  0
LINE
  5
14BA
  8
0
 10
240.5706788770614
 20
156.8823473819001
 30
0.0
 11
242.1469512258183
 21
156.8572314747079
 31
0.0
  0
LINE
  5
14BB
  8
0
 10
242.1469512258183
 20
156.8572314747079
 30
0.0
 11
244.36380636261231
 21
156.9199020333989
 31
0.0
  0
LINE
  5
14BC
  8
0
 10
244.36380636261231
 20
156.9199020333989
 30
0.0
 11
245.63826728926429
 21
157.0458056696161
 31
0.0
  0
LINE
  5
14BD
  8
0
 10
245.63826728926429
 20
157.0458056696161
 30
0.0
 11
246.91168932558421
 21
157.26121685583431
 31
0.0
  0
LINE
  5
14BE
  8
0
 10
246.91168932558421
 20
157.26121685583431
 30
0.0
 11
248.0734755875302
 21
157.56893328506791
 31
0.0
  0
LINE
  5
14BF
  8
0
 10
248.0734755875302
 20
157.56893328506791
 30
0.0
 11
249.23718223662499
 21
158.12589026172
 31
0.0
  0
LINE
  5
14C0
  8
0
 10
249.23718223662499
 20
158.12589026172
 30
0.0
 11
249.812092318548
 21
158.5816646285756
 31
0.0
  0
LINE
  5
14C1
  8
0
 10
249.812092318548
 20
158.5816646285756
 30
0.0
 11
250.3195485690369
 21
159.19042549211821
 31
0.0
  0
LINE
  5
14C2
  8
0
 10
250.3195485690369
 20
159.19042549211821
 30
0.0
 11
250.68455251248011
 21
159.94317255098659
 31
0.0
  0
LINE
  5
14C3
  8
0
 10
250.68455251248011
 20
159.94317255098659
 30
0.0
 11
250.98396992625129
 21
160.9507778950437
 31
0.0000000000023075
  0
LINE
  5
14C4
  8
0
 10
238.24423403793401
 20
174.21490124542541
 30
0.0
 11
236.56829694600231
 21
173.83509672362641
 31
0.0
  0
LINE
  5
14C5
  8
0
 10
236.56829694600231
 20
173.83509672362641
 30
0.0
 11
234.72062094451309
 21
172.65463045914009
 31
0.0
  0
LINE
  5
14C6
  8
0
 10
249.24731968284971
 20
172.65463045914009
 30
0.0
 11
247.39964368136049
 21
173.83509672362641
 31
0.0
  0
LINE
  5
14C7
  8
0
 10
247.39964368136049
 20
173.83509672362641
 30
0.0
 11
245.72370658942879
 21
174.21490124542541
 31
0.0
  0
LINE
  5
14C9
  8
0
 10
230.37824934662731
 20
161.46059504825899
 30
0.0000000000023075
 11
229.67854110838331
 21
161.30442715365729
 31
0.0
  0
LINE
  5
14CA
  8
0
 10
254.28922536165859
 20
161.3045016594632
 30
0.0
 11
253.5896912807361
 21
161.46059504825911
 31
0.0000000000023075
  0
LINE
  5
14D3
  8
0
 10
232.98404148162729
 20
168.82864928920111
 30
0.0
 11
232.98578212351919
 21
168.83075407821971
 31
0.0
  0
LINE
  5
154B
  8
0
 10
110.9870227866937
 20
163.17283905227029
 30
0.0
 11
109.6330660277177
 21
162.76749021489471
 31
0.0
  0
LINE
  5
154C
  8
0
 10
109.6330660277177
 20
162.76749021489471
 30
0.0
 11
108.3802825653125
 21
162.3874808021292
 31
0.0
  0
LINE
  5
154D
  8
0
 10
108.3802825653125
 20
162.3874808021292
 30
0.0
 11
108.2962232523729
 21
162.3617427714571
 31
0.0
  0
LINE
  5
154E
  8
0
 10
105.26242366741791
 20
161.4149825938448
 30
0.0
 11
108.0097977885176
 21
162.2738259204134
 31
0.0
  0
LINE
  5
154F
  8
0
 10
108.0097977885176
 20
162.2738259204134
 30
0.0
 11
108.2970726185609
 21
162.36200354177799
 31
0.0
  0
LINE
  5
1555
  8
0
 10
22.726072892242151
 20
161.5147384174569
 30
0.0
 11
22.157185673409192
 21
161.3045016594632
 31
0.0
  0
LINE
  5
1574
  8
0
 10
111.992565251248
 20
56.03299710662764
 30
0.0000000000023075
 11
117.98882138665211
 21
55.501318087295701
 31
0.0000000000023075
  0
LINE
  5
1575
  8
0
 10
117.98882138665211
 20
55.501318087295701
 30
0.0000000000023075
 11
124.4582536512185
 21
54.97546821595828
 31
0.0000000000023075
  0
LINE
  5
1576
  8
0
 10
124.4582536512185
 20
54.97546821595828
 30
0.0000000000023075
 11
131.31255124445451
 21
54.472349134699478
 31
0.0000000000023075
  0
LINE
  5
1577
  8
0
 10
131.30915377970231
 20
34.12546265633501
 30
0.0000000000023075
 11
124.3990382992793
 21
33.617990573362512
 31
0.0000000000023075
  0
LINE
  5
1578
  8
0
 10
124.3990382992793
 20
33.617990573362512
 30
0.0000000000023075
 11
117.9411823743154
 21
33.092673418537778
 31
0.0000000000023075
  0
LINE
  5
1579
  8
0
 10
117.9411823743154
 20
33.092673418537778
 30
0.0000000000023075
 11
111.992565251248
 21
32.565050309018318
 31
0.0000000000023075
  0
LINE
  5
157A
  8
0
 10
165.68812195892829
 20
35.813746524469003
 30
0.0000000000023075
 11
160.70773665543101
 21
35.655256842688672
 31
0.0000000000023075
  0
LINE
  5
157B
  8
0
 10
160.70773665543101
 20
35.655256842688672
 30
0.0000000000023075
 11
155.79616491432679
 21
35.470426564530477
 31
0.0000000000023075
  0
LINE
  5
157C
  8
0
 10
155.79616491432679
 20
35.470426564530477
 30
0.0000000000023075
 11
150.54721598263279
 21
35.241561492399327
 31
0.0000000000023075
  0
LINE
  5
157D
  8
0
 10
150.54721598263279
 20
35.241561492399327
 30
0.0000000000023075
 11
145.70651043887631
 21
35.00177386911308
 31
0.0000000000023075
  0
LINE
  5
157E
  8
0
 10
145.70651043887631
 20
35.00177386911308
 30
0.0000000000023075
 11
140.8860630237628
 21
34.735578594223618
 31
0.0000000000023075
  0
LINE
  5
157F
  8
0
 10
140.88580597873221
 20
53.86248372258342
 30
0.0000000000023075
 11
146.93932448263661
 21
53.532588777557962
 31
0.0000000000023075
  0
LINE
  5
1580
  8
0
 10
146.93932448263661
 20
53.532588777557962
 30
0.0000000000023075
 11
153.1388706409503
 21
53.23943637074624
 31
0.0000000000023075
  0
LINE
  5
1581
  8
0
 10
153.1388706409503
 20
53.23943637074624
 30
0.0000000000023075
 11
159.384934499221
 21
52.989781384781949
 31
0.0000000000023075
  0
LINE
  5
1582
  8
0
 10
159.384934499221
 20
52.989781384781949
 30
0.0000000000023075
 11
165.68812195892829
 21
52.784300891176812
 31
0.0000000000023075
  0
LINE
  5
1584
  8
1
 10
98.571956770205787
 20
250.60756630411871
 30
0.0000000000023075
 11
98.571956770205787
 21
214.60756766822271
 31
0.0000000000023075
  0
LINE
  5
1585
  8
1
 10
80.576719667546058
 20
232.60376583798561
 30
0.0000000000023075
 11
190.5767030008052
 21
232.6270012215831
 31
0.0000000000023075
  0
LINE
  5
158A
  8
1
 10
190.57671937801709
 20
44.299023707823054
 30
0.0000000000023075
 11
80.576719208912976
 21
44.299023707823054
 31
0.0000000000023075
  0
LINE
  5
158C
  8
1
 10
241.98397031368151
 20
176.21564630348519
 30
0.0000000000023075
 11
241.98397031368151
 21
95.215646720717729
 31
0.0000000000023075
  0
LINE
  5
158D
  8
1
 10
250.98397031368151
 20
140.21564627368289
 30
0.0000000000023075
 11
232.9839703136816
 21
140.21564627368289
 31
0.0000000000023075
  0
LINE
  5
1596
  8
1
 10
98.576719208913005
 20
62.299023707823039
 30
0.0000000000023075
 11
98.576719208913005
 21
26.299023707823071
 31
0.0000000000023075
  0
LINE
  5
1597
  8
1
 10
133.77671920891299
 20
49.199014333513972
 30
0.0000000000023075
 11
133.77671920891299
 21
39.399023707823041
 31
0.0000000000023075
  0
LINE
  5
159D
  8
0
 10
118.62394240434659
 20
48.573935212043288
 30
0.0000000000023075
 11
118.62394240434659
 21
40.455062657089201
 31
0.0000000000023075
  0
LINE
  5
15C3
  8
0
 10
93.576719208913005
 20
98.715646273683006
 30
0.0000000000023075
 11
103.576719208913
 21
98.715646273683006
 31
0.0000000000023075
  0
LINE
  5
15C4
  8
0
 10
102.076719208913
 20
97.215646273683006
 30
0.0000000000023075
 11
103.576719208913
 21
98.715646273683006
 31
0.0000000000023075
  0
LINE
  5
15C5
  8
0
 10
103.576719208913
 20
117.21564627368301
 30
0.0000000000023075
 11
103.576719208913
 21
98.715646273683006
 31
0.0000000000023075
  0
LINE
  5
15C6
  8
3
 10
102.76471920891299
 20
117.21564627368301
 30
0.0000000000023075
 11
102.76471920891299
 21
97.90364627368298
 31
0.0000000000023075
  0
LINE
  5
15C7
  8
0
 10
93.576719208913005
 20
98.715646273683006
 30
0.0000000000023075
 11
95.076719208913005
 21
97.215646273683006
 31
0.0000000000023075
  0
LINE
  5
15C8
  8
0
 10
93.576719208913005
 20
98.715646273683006
 30
0.0000000000023075
 11
93.576719208912948
 21
117.21564627368291
 31
0.0000000000023075
  0
LINE
  5
15C9
  8
3
 10
94.388719208912775
 20
117.21564627368301
 30
0.0000000000023075
 11
94.388719208912775
 21
97.903646273683151
 31
0.0000000000023075
  0
LINE
  5
15CA
  8
0
 10
102.076719208913
 20
97.215646273683006
 30
0.0000000000023075
 11
95.076719208913005
 21
97.215646273683006
 31
0.0000000000023075
  0
LINE
  5
15F3
  8
0
 10
29.462440721386042
 20
98.715646273682935
 30
0.0000000000023075
 11
39.462440721386081
 21
98.715646273682935
 31
0.0000000000023075
  0
LINE
  5
15F4
  8
0
 10
37.962440721386081
 20
97.215646273682935
 30
0.0000000000023075
 11
39.462440721386081
 21
98.715646273682935
 31
0.0000000000023075
  0
LINE
  5
15F5
  8
0
 10
39.462440721386081
 20
117.21564627368291
 30
0.0000000000023075
 11
39.462440721386081
 21
98.715646273682935
 31
0.0000000000023075
  0
LINE
  5
15F6
  8
3
 10
38.650440721386047
 20
117.21564627368291
 30
0.0000000000023075
 11
38.650440721386047
 21
97.903646273682895
 31
0.0000000000023075
  0
LINE
  5
15F7
  8
0
 10
37.962440721386081
 20
97.215646273682935
 30
0.0000000000023075
 11
30.962440721386042
 21
97.215646273682935
 31
0.0000000000023075
  0
LINE
  5
15F8
  8
0
 10
29.462440721386042
 20
98.715646273682935
 30
0.0000000000023075
 11
30.962440721386042
 21
97.215646273682935
 31
0.0000000000023075
  0
LINE
  5
15F9
  8
0
 10
29.462440721386042
 20
98.715646273682935
 30
0.0000000000023075
 11
29.46244072138601
 21
117.21564627368279
 31
0.0000000000023075
  0
LINE
  5
15FA
  8
3
 10
30.274440721385851
 20
117.21564627368291
 30
0.0000000000023075
 11
30.274440721385851
 21
97.903646273683094
 31
0.0000000000023075
  0
LINE
  5
1623
  8
0
 10
236.98397031368151
 20
98.715646273682907
 30
0.0000000000023075
 11
246.9839703136816
 21
98.715646273682907
 31
0.0000000000023075
  0
LINE
  5
1624
  8
0
 10
245.4839703136816
 20
97.215646273682907
 30
0.0000000000023075
 11
246.9839703136816
 21
98.715646273682907
 31
0.0000000000023075
  0
LINE
  5
1625
  8
0
 10
246.9839703136816
 20
117.21564627368291
 30
0.0000000000023075
 11
246.9839703136816
 21
98.715646273682907
 31
0.0000000000023075
  0
LINE
  5
1626
  8
3
 10
246.1719703136815
 20
117.21564627368291
 30
0.0000000000023075
 11
246.1719703136815
 21
97.903646273682895
 31
0.0000000000023075
  0
LINE
  5
1627
  8
0
 10
245.4839703136816
 20
97.215646273682907
 30
0.0000000000023075
 11
238.48397031368151
 21
97.215646273682907
 31
0.0000000000023075
  0
LINE
  5
1628
  8
0
 10
236.98397031368151
 20
98.715646273682907
 30
0.0000000000023075
 11
238.48397031368151
 21
97.215646273682907
 31
0.0000000000023075
  0
LINE
  5
1629
  8
0
 10
236.98397031368151
 20
98.715646273682907
 30
0.0000000000023075
 11
236.98397031368151
 21
117.21564627368279
 31
0.0000000000023075
  0
LINE
  5
162A
  8
3
 10
237.79597031368129
 20
117.21564627368291
 30
0.0000000000023075
 11
237.79597031368129
 21
97.903646273683066
 31
0.0000000000023075
  0
CIRCLE
  5
164A
  8
3
  6
CONTINUOUS
 10
98.576719208913005
 20
44.299023707823054
 30
0.0000000000023075
 40
4.1880000000001996
  0
LINE
  5
1BE7
  8
0
 10
18.462752885812051
 20
156.56209535081231
 30
0.0000000000023075
 11
18.462752885812051
 21
120.2163280278846
 31
0.0000000000023075
  0
LINE
  5
1BE8
  8
0
 10
50.462754405730493
 20
120.2163280278846
 30
0.0000000000023075
 11
50.462754405730493
 21
156.56097776372269
 31
0.0000000000023075
  0
LINE
  5
1C6E
  8
0
 10
238.98397028760439
 20
138.48359494585819
 30
0.0000000000023075
 11
241.9839703136814
 21
136.7515454359754
 31
0.0000000000023075
  0
LINE
  5
1C6F
  8
0
 10
241.9839703136814
 20
136.7515454359754
 30
0.0000000000023075
 11
244.9839703397584
 21
138.48359494585819
 31
0.0000000000023075
  0
LINE
  5
1C70
  8
0
 10
244.9839703397584
 20
138.48359494585819
 30
0.0000000000023075
 11
244.9839703397584
 21
141.94769769091451
 31
0.0000000000023075
  0
LINE
  5
1C71
  8
0
 10
244.9839703397584
 20
141.94769769091451
 30
0.0000000000023075
 11
241.9839703136814
 21
143.67974720079741
 31
0.0000000000023075
  0
LINE
  5
1C72
  8
0
 10
241.9839703136814
 20
143.67974720079741
 30
0.0000000000023075
 11
238.98397028760439
 21
141.94769769091451
 31
0.0000000000023075
  0
LINE
  5
1C73
  8
0
 10
238.98397028760439
 20
141.94769769091451
 30
0.0000000000023075
 11
238.98397028760439
 21
138.48359494585819
 31
0.0000000000023075
  0
LINE
  5
1C8D
  8
0
 10
82.576720311598905
 20
151.52805469114631
 30
0.0000000000023075
 11
82.576720311598933
 21
120.214010897319
 31
0.0000000000023075
  0
ARC
  5
1CC0
  8
0
 10
165.13641102754229
 20
81.903884710402679
 30
0.0000000000023075
 40
77.410836340462751
 50
89.660712478402615
 51
107.4589734380579
  0
ARC
  5
1CC4
  8
0
 10
164.96211791897139
 20
84.316385452415659
 30
0.0000000000023075
 40
74.999647074164244
 50
79.653264375678546
 51
89.516650168127526
  0
ARC
  5
1CC5
  8
0
 10
117.6294973950674
 20
120.21564627368301
 30
0.0000000000023075
 40
1.0000000000000111
 50
270.0
 51
353.95767158094583
  0
LINE
  5
1CC6
  8
0
 10
117.6294966482688
 20
119.2156463686778
 30
0.0000000000023075
 11
114.475604414301
 21
119.2156463686778
 31
0.0000000000023075
  0
ARC
  5
1CC8
  8
0
 10
144.30472253339639
 20
149.43658033973139
 30
0.0000000000023075
 40
6.7501741519912404
 50
110.7186159709961
 51
175.35495384142379
  0
ARC
  5
1CC9
  8
0
 10
127.08535851208769
 20
119.2041637111104
 30
0.0000000000023075
 40
8.5140393334659681
 50
91.404192275936083
 51
139.25568682752191
  0
LINE
  5
1CCA
  8
0
 10
135.5767193460037
 20
127.7156461321219
 30
0.0000000000023075
 11
126.87671922381421
 21
127.7156461321219
 31
0.0000000000023075
  0
LINE
  5
1CCB
  8
0
 10
137.57671967382919
 20
149.983225233148
 30
0.0000000000023075
 11
137.57671967382919
 21
132.71564602036321
 31
0.0000000000023075
  0
LINE
  5
1CCC
  8
0
 10
137.57671967382919
 20
132.71564602036321
 30
0.0000000000023075
 11
137.57671967382919
 21
129.71564645994749
 31
0.0000000000023075
  0
ARC
  5
1CCD
  8
0
 10
135.57671764591109
 20
129.7156481600401
 30
0.0000000000023075
 40
2.000002027918879
 50
270.0000487040171
 51
359.99995129598449
  0
LINE
  5
1CD4
  8
0
 10
132.52672021027101
 20
45.020711566281641
 30
0.0000000000023075
 11
132.52672021027101
 21
43.577335849364417
 31
0.0000000000023075
  0
LINE
  5
1CD5
  8
0
 10
132.52672021027101
 20
43.577335849364417
 30
0.0000000000023075
 11
133.77671901817811
 21
42.855647990905808
 31
0.0000000000023075
  0
LINE
  5
1CD6
  8
0
 10
133.77671901817811
 20
42.855647990905808
 30
0.0000000000023075
 11
135.02671782608519
 21
43.577335849364417
 31
0.0000000000023075
  0
LINE
  5
1CD7
  8
0
 10
135.02671782608519
 20
43.577335849364417
 30
0.0000000000023075
 11
135.02671782608519
 21
45.020711566281641
 31
0.0000000000023075
  0
LINE
  5
1CD8
  8
0
 10
135.02671782608519
 20
45.020711566281641
 30
0.0000000000023075
 11
133.77671901817811
 21
45.742399424740242
 31
0.0000000000023075
  0
LINE
  5
1CD9
  8
0
 10
133.77671901817811
 20
45.742399424740242
 30
0.0000000000023075
 11
132.52672021027101
 21
45.020711566281641
 31
0.0000000000023075
  0
LINE
  5
1CE9
  8
0
 10
136.57671764727129
 20
35.799023245887007
 30
0.0000000000023075
 11
126.87671922381421
 21
35.799023245887007
 31
0.0000000000023075
  0
LINE
  5
1CEA
  8
0
 10
137.57671967382919
 20
50.444774811581837
 30
0.0000000000023075
 11
137.57671967382919
 21
38.15327260406422
 31
0.0000000000023075
  0
LINE
  5
1CEB
  8
0
 10
126.87671922381421
 20
52.799024169759001
 30
0.0000000000023075
 11
136.57671764727129
 21
52.799024169759001
 31
0.0000000000023075
  0
LINE
  5
1CEC
  8
0
 10
137.57671967382919
 20
38.15327260406422
 30
0.0000000000023075
 11
137.57671967382919
 21
36.799023875461067
 31
0.0000000000023075
  0
ARC
  5
1CED
  8
0
 10
136.576719208913
 20
36.799023707823032
 30
0.0000000000023075
 40
1.0
 50
270.0
 51
0.0
  0
ARC
  5
1CEE
  8
0
 10
136.576719208913
 20
51.799023707823032
 30
0.0000000000023075
 40
1.0
 50
0.0
 51
90.0
  0
LINE
  5
1CEF
  8
0
 10
137.57671967382919
 20
51.79902354018494
 30
0.0000000000023075
 11
137.57671967382919
 21
50.444774811581837
 31
0.0000000000023075
  0
LINE
  5
1E33
  8
0
 10
120.6348690086175
 20
124.7611458704277
 30
0.0000000000002684
 11
119.16893747385041
 21
122.3328531079395
 31
0.0000000000002684
  0
LINE
  5
1E34
  8
0
 10
119.16893747385041
 20
122.3328531079395
 30
0.0000000000002684
 11
118.62394240434659
 21
120.11038310010279
 31
0.0000000000002684
  0
CIRCLE
  5
1E5F
  8
3
 10
133.77671920891291
 20
44.29901902066851
 30
0.0000000000023075
 40
2.0670000000001991
  0
CIRCLE
  5
1E60
  8
0
 10
133.77671920891291
 20
44.29901902066851
 30
0.0000000000023075
 40
2.5000000000000071
  0
CIRCLE
  5
1E61
  8
0
 10
133.77671920891291
 20
44.29901902066851
 30
0.0000000000023075
 40
2.899995312845475
  0
CIRCLE
  5
1E62
  8
3
 10
241.98397031368151
 20
140.21564627368289
 30
0.0000000000023075
 40
5.917499999999988
  0
CIRCLE
  5
1E63
  8
0
 10
241.98397031368151
 20
140.21564627368289
 30
0.0000000000023075
 40
7.0
  0
POLYLINE
  5
1EDB
  8
0
  6
CONTINUOUS
 62
     7
 66
     1
 10
0.0
 20
0.0
 30
0.0
 70
   128
  0
VERTEX
  5
2106
  8
0
  6
CONTINUOUS
 62
     7
 10
107.8597050896648
 20
159.11716060737771
 30
0.0
  0
VERTEX
  5
2107
  8
0
  6
CONTINUOUS
 62
     7
 10
107.7267206079129
 20
159.59526436428229
 30
0.0
  0
VERTEX
  5
2108
  8
0
  6
CONTINUOUS
 62
     7
 10
107.5292038536433
 20
160.08728580574191
 30
0.0
  0
VERTEX
  5
2109
  8
0
  6
CONTINUOUS
 62
     7
 10
107.2700400641922
 20
160.5567729661862
 30
0.0
  0
VERTEX
  5
210A
  8
0
  6
CONTINUOUS
 62
     7
 10
106.9627017519239
 20
160.96304195026551
 30
0.0
  0
VERTEX
  5
210B
  8
0
  6
CONTINUOUS
 62
     7
 10
106.6297758175794
 20
161.27117933730281
 30
0.0
  0
VERTEX
  5
210C
  8
0
  6
CONTINUOUS
 62
     7
 10
106.297775617874
 20
161.46131442884601
 30
0.0
  0
VERTEX
  5
210D
  8
0
  6
CONTINUOUS
 62
     7
 10
105.9905318348471
 20
161.53250100115929
 30
0.0
  0
VERTEX
  5
210E
  8
0
  6
CONTINUOUS
 62
     7
 10
105.72435798037679
 20
161.4997780511776
 30
0.0
  0
SEQEND
  5
210F
  8
0
  6
CONTINUOUS
 62
     7
  0
LINE
  5
1EDC
  8
0
  6
CONTINUOUS
 62
     7
 10
107.9520140579704
 20
133.87219818333779
 30
0.0000000000023075
 11
107.8597050896648
 21
133.82417546610029
 31
0.0000000000023075
  0
LINE
  5
1EDD
  8
0
  6
CONTINUOUS
 62
     7
 10
110.28100781056909
 20
134.1413820723692
 30
0.0000000000023075
 11
110.28100781056909
 21
120.3004417570928
 31
0.0000000000023075
  0
LINE
  5
1EDE
  8
0
  6
CONTINUOUS
 62
     7
 10
107.8597050896648
 20
133.82417546610029
 30
0.0000000000023075
 11
107.8597050896648
 21
159.11716060737771
 31
0.0000000000023075
  0
ARC
  5
1EDF
  8
0
  6
CONTINUOUS
 62
     7
 10
109.3982249749165
 20
120.1738702137848
 30
0.0000000000023075
 40
0.8918104565983636
 50
281.65325782461508
 51
8.1593402923011187
  0
ARC
  5
1EE0
  8
0
  6
CONTINUOUS
 62
     7
 10
-167.3610325689562
 20
436.76834663871898
 30
0.0000000000023075
 40
409.52202233967631
 50
312.7040795792463
 51
313.25862695887002
  0
ARC
  5
1EE1
  8
0
  6
CONTINUOUS
 62
     7
 10
86.555507554921917
 20
163.64853077803929
 30
0.0000000000023075
 40
36.631541769629742
 50
305.76529197281661
 51
310.57393552204059
  0
LINE
  5
1EE2
  8
0
  6
CONTINUOUS
 62
     7
 10
107.95169833961759
 20
133.87221122185389
 30
0.0000000000023075
 11
107.9654074079159
 21
133.9250377009312
 31
0.0000000000023075
  0
ARC
  5
1EE3
  8
0
  6
CONTINUOUS
 62
     7
 10
115.4409724651245
 20
134.6771516945756
 30
0.0000000000023075
 40
5.1877051115439201
 50
167.22343783383599
 51
185.92789513310041
  0
ARC
  5
1EE4
  8
0
  6
CONTINUOUS
 62
     7
 10
168.75058657041609
 20
81.752618871593612
 30
0.0000000000023075
 40
79.352207509582087
 50
117.3880537963018
 51
132.8393354076062
  0
POLYLINE
  5
1EE5
  8
0
  6
CONTINUOUS
 62
     7
 66
     1
 10
0.0
 20
0.0
 30
0.0
 70
   128
  0
VERTEX
  5
2110
  8
0
  6
CONTINUOUS
 62
     7
 10
113.2814003891114
 20
138.5266466627518
 30
0.0
  0
VERTEX
  5
2111
  8
0
  6
CONTINUOUS
 62
     7
 10
113.2814441612724
 20
138.52668764094511
 30
0.0
  0
VERTEX
  5
2112
  8
0
  6
CONTINUOUS
 62
     7
 10
114.7954598805669
 20
139.93867510954539
 30
0.0
  0
SEQEND
  5
2113
  8
0
  6
CONTINUOUS
 62
     7
  0
ARC
  5
1EE6
  8
0
  6
CONTINUOUS
 62
     7
 10
149.71547887865401
 20
119.474692312659
 30
0.0000000000023075
 40
37.103871310247662
 50
102.13847848338111
 51
118.084714718681
  0
LINE
  5
1EF8
  8
1
 10
139.57671967382919
 20
140.21564627368289
 30
0.0000000000023075
 11
129.57671967382919
 21
140.21564627368289
 31
0.0000000000023075
  0
TEXT
  5
20DC
  8
0
 62
     3
 10
0.0
 20
0.0
 30
0.0
 40
10.0
  1
ATCL10X20-BK
  7
STANDARD1
  0
ENDSEC
  0
EOF
