  0
SECTION
  2
HEADER
  9
$ACADVER
  1
AC1009
  9
$INSBASE
 10
0.0
 20
0.0
 30
0.0
  9
$EXTMIN
 10
-0.0204638472032742
 20
-2.960436562073669
 30
-0.0000000000020391
  9
$EXTMAX
 10
268.47592927525648
 20
218.2802057570814
 30
0.0
  9
$LIMMIN
 10
0.0
 20
0.0
  9
$LIMMAX
 10
750.0
 20
540.0
  9
$ORTHOMODE
 70
     0
  9
$REGENMODE
 70
     1
  9
$FILLMODE
 70
     1
  9
$QTEXTMODE
 70
     0
  9
$MIRRTEXT
 70
     0
  9
$DRAGMODE
 70
     2
  9
$LTSCALE
 40
20.0
  9
$OSMODE
 70
  3071
  9
$ATTMODE
 70
     1
  9
$TEXTSIZE
 40
0.2
  9
$TRACEWID
 40
0.05
  9
$TEXTSTYLE
  7
STANDARD
  9
$CLAYER
  8
0
  9
$CELTYPE
  6
BYLAYER
  9
$CECOLOR
 62
   256
  9
$DIMSCALE
 40
1.0
  9
$DIMASZ
 40
3.0
  9
$DIMEXO
 40
2.0
  9
$DIMDLI
 40
0.38
  9
$DIMRND
 40
0.0
  9
$DIMDLE
 40
0.0
  9
$DIMEXE
 40
2.0
  9
$DIMTP
 40
0.0
  9
$DIMTM
 40
0.0
  9
$DIMTXT
 40
3.2000000000000002
  9
$DIMCEN
 40
0.0
  9
$DIMTSZ
 40
0.0
  9
$DIMTOL
 70
     0
  9
$DIMLIM
 70
     0
  9
$DIMTIH
 70
     0
  9
$DIMTOH
 70
     0
  9
$DIMSE1
 70
     0
  9
$DIMSE2
 70
     0
  9
$DIMTAD
 70
     1
  9
$DIMZIN
 70
     0
  9
$DIMBLK
  1

  9
$DIMASO
 70
     0
  9
$DIMSHO
 70
     0
  9
$DIMPOST
  1

  9
$DIMAPOST
  1

  9
$DIMALT
 70
     0
  9
$DIMALTD
 70
     2
  9
$DIMALTF
 40
25.399999999999999
  9
$DIMLFAC
 40
1.0
  9
$DIMTOFL
 70
     0
  9
$DIMTVP
 40
1.6000000000000001
  9
$DIMTIX
 70
     1
  9
$DIMSOXD
 70
     0
  9
$DIMSAH
 70
     0
  9
$DIMBLK1
  1

  9
$DIMBLK2
  1

  9
$DIMSTYLE
  2
STANDARD
  9
$DIMCLRD
 70
     0
  9
$DIMCLRE
 70
     0
  9
$DIMCLRT
 70
     0
  9
$DIMTFAC
 40
1.0
  9
$DIMGAP
 40
0.09
  9
$LUNITS
 70
     2
  9
$LUPREC
 70
     4
  9
$SKETCHINC
 40
0.1
  9
$FILLETRAD
 40
0.0
  9
$AUNITS
 70
     0
  9
$AUPREC
 70
     4
  9
$MENU
  1
E:\r13\win\SUPPORT\ACAD
  9
$ELEVATION
 40
0.0
  9
$PELEVATION
 40
0.0
  9
$THICKNESS
 40
0.0
  9
$LIMCHECK
 70
     0
  9
$BLIPMODE
 70
     0
  9
$CHAMFERA
 40
0.0
  9
$CHAMFERB
 40
0.0
  9
$SKPOLY
 70
     0
  9
$TDCREATE
 40
2449840.6227546302
  9
$TDUPDATE
 40
2456597.5633717589
  9
$TDINDWG
 40
0.0629404398
  9
$TDUSRTIMER
 40
2456440.1221969211
  9
$USRTIMER
 70
     1
  9
$ANGBASE
 50
0.0
  9
$ANGDIR
 70
     0
  9
$PDMODE
 70
     0
  9
$PDSIZE
 40
0.0
  9
$PLINEWID
 40
0.0
  9
$COORDS
 70
     1
  9
$SPLFRAME
 70
     0
  9
$SPLINETYPE
 70
     6
  9
$SPLINESEGS
 70
     8
  9
$ATTDIA
 70
     0
  9
$ATTREQ
 70
     1
  9
$HANDLING
 70
     1
  9
$HANDSEED
  5
213D
  9
$SURFTAB1
 70
     6
  9
$SURFTAB2
 70
     6
  9
$SURFTYPE
 70
     6
  9
$SURFU
 70
     6
  9
$SURFV
 70
     6
  9
$UCSNAME
  2

  9
$UCSORG
 10
0.0
 20
0.0
 30
0.0
  9
$UCSXDIR
 10
1.0
 20
0.0
 30
0.0
  9
$UCSYDIR
 10
0.0
 20
1.0
 30
0.0
  9
$PUCSNAME
  2

  9
$PUCSORG
 10
0.0
 20
0.0
 30
0.0
  9
$PUCSXDIR
 10
1.0
 20
0.0
 30
0.0
  9
$PUCSYDIR
 10
0.0
 20
1.0
 30
0.0
  9
$USERI1
 70
     0
  9
$USERI2
 70
     1
  9
$USERI3
 70
     0
  9
$USERI4
 70
     0
  9
$USERI5
 70
     0
  9
$USERR1
 40
0.0
  9
$USERR2
 40
0.0
  9
$USERR3
 40
0.0
  9
$USERR4
 40
0.0
  9
$USERR5
 40
0.0
  9
$WORLDVIEW
 70
     1
  9
$SHADEDGE
 70
     3
  9
$SHADEDIF
 70
    70
  9
$TILEMODE
 70
     1
  9
$MAXACTVP
 70
    16
  9
$PLIMCHECK
 70
     0
  9
$PEXTMIN
 10
1.0000000000000000E+020
 20
1.0000000000000000E+020
 30
1.0000000000000000E+020
  9
$PEXTMAX
 10
-1.0000000000000000E+020
 20
-1.0000000000000000E+020
 30
-1.0000000000000000E+020
  9
$PLIMMIN
 10
0.0
 20
0.0
  9
$PLIMMAX
 10
12.0
 20
9.0
  9
$UNITMODE
 70
     0
  9
$VISRETAIN
 70
     0
  9
$PLINEGEN
 70
     0
  9
$PSLTSCALE
 70
     0
  0
ENDSEC
  0
SECTION
  2
TABLES
  0
TABLE
  2
VPORT
 70
     1
  0
VPORT
  2
*ACTIVE
 70
     0
 10
0.0
 20
0.0
 11
1.0
 21
1.0
 12
390.03402345615979
 22
268.50860658393782
 13
0.0
 23
0.0
 14
20.0
 24
20.0
 15
20.0
 25
20.0
 16
0.0
 26
0.0
 36
1.0
 17
0.0
 27
0.0
 37
0.0
 40
547.85258761088789
 41
1.831871345029239
 42
50.0
 43
0.0
 44
0.0
 50
0.0
 51
0.0
 71
    16
 72
   100
 73
     1
 74
     0
 75
     0
 76
     0
 77
     0
 78
     2
  0
ENDTAB
  0
TABLE
  2
LTYPE
 70
     4
  0
LTYPE
  2
CONTINUOUS
 70
     0
  3
Solid Line
 72
    65
 73
     0
 40
0.0
  0
LTYPE
  2
PHANTOM2
 70
     0
  3
___ _ _ ___ _ _ ___ _ _ ___ _ _
 72
    65
 73
     6
 40
1.25
 49
0.625
 49
-0.125
 49
0.125
 49
-0.125
 49
0.125
 49
-0.125
  0
LTYPE
  2
CENTER
 70
     0
  3
____ _ ____ _ ____ _ ____ _ ____ _ ____ _ ____
 72
    65
 73
     4
 40
2.0
 49
1.25
 49
-0.25
 49
0.25
 49
-0.25
  0
LTYPE
  2
HIDDEN
 70
     0
  3
_ _ _ _ _ _ _ _ _ _ _ _ _ _ _ _ _ _ _ _ _ _ _
 72
    65
 73
     2
 40
0.375
 49
0.25
 49
-0.125
  0
ENDTAB
  0
TABLE
  2
LAYER
 70
     4
  0
LAYER
  2
0
 70
     0
 62
     7
  6
CONTINUOUS
  0
LAYER
  2
1
 70
     0
 62
     1
  6
CENTER
  0
LAYER
  2
2
 70
     0
 62
     2
  6
HIDDEN
  0
LAYER
  2
3
 70
     0
 62
     3
  6
CONTINUOUS
  0
ENDTAB
  0
TABLE
  2
STYLE
 70
     3
  0
STYLE
  2
STANDARD
 70
     0
 40
0.0
 41
1.0
 50
0.0
 71
     0
 42
0.2
  3
TXT
  4
BIGFONT
  0
STYLE
  2
ANNOTATIVE
 70
     0
 40
0.0
 41
1.0
 50
0.0
 71
     0
 42
0.2
  3
txt
  4

  0
STYLE
  2
STANDARD1
 70
     0
 40
0.0
 41
1.0
 50
0.0
 71
     0
 42
3.0
  3
txt
  4

  0
ENDTAB
  0
TABLE
  2
VIEW
 70
     1
  0
VIEW
  2
ALL
 70
     0
 40
540.0
 10
441.98319299999991
 20
270.0
 41
0.0
 11
0.0
 21
0.0
 31
1.0
 12
0.0
 22
0.0
 32
0.0
 42
0.0
 43
0.0
 44
0.0
 50
0.0
 71
     0
  0
ENDTAB
  0
TABLE
  2
UCS
 70
     0
  0
ENDTAB
  0
TABLE
  2
APPID
 70
     7
  0
APPID
  2
ACAD
 70
     0
  0
APPID
  2
ACADANNOTATIVE
 70
     0
  0
APPID
  2
ACAD_NAV_VCDISPLAY
 70
     0
  0
APPID
  2
ACAD_EXEMPT_FROM_CAD_STANDARDS
 70
     0
  0
APPID
  2
ACAD_DSTYLE_DIMJAG
 70
     0
  0
APPID
  2
ACAD_DSTYLE_DIMTALN
 70
     0
  0
APPID
  2
ACAD_MLEADERVER
 70
     0
  0
ENDTAB
  0
TABLE
  2
DIMSTYLE
 70
     2
  0
DIMSTYLE
  2
STANDARD
 70
     0
  3

  4

  5

  6

  7

 40
1.0
 41
0.18
 42
0.0625
 43
0.38
 44
0.18
 45
0.0
 46
0.0
 47
0.0
 48
0.0
140
0.18
141
0.09
142
0.0
143
25.399999999999999
144
1.0
145
0.0
146
1.0
147
0.09
 71
     0
 72
     0
 73
     1
 74
     1
 75
     0
 76
     0
 77
     0
 78
     0
170
     0
171
     2
172
     0
173
     0
174
     0
175
     0
176
     0
177
     0
178
     0
  0
DIMSTYLE
  2
ANNOTATIVE
 70
     0
  3

  4

  5

  6

  7

 40
1.0
 41
0.18
 42
0.0625
 43
0.38
 44
0.18
 45
0.0
 46
0.0
 47
0.0
 48
0.0
140
0.18
141
0.09
142
0.0
143
25.399999999999999
144
1.0
145
0.0
146
1.0
147
0.09
 71
     0
 72
     0
 73
     1
 74
     1
 75
     0
 76
     0
 77
     0
 78
     0
170
     0
171
     2
172
     0
173
     0
174
     0
175
     0
176
     0
177
     0
178
     0
  0
ENDTAB
  0
ENDSEC
  0
SECTION
  2
BLOCKS
  0
BLOCK
  8
0
  2
$MODEL_SPACE
 70
     0
 10
0.0
 20
0.0
 30
0.0
  3
$MODEL_SPACE
  1

  0
ENDBLK
  5
204A
  8
0
  0
BLOCK
 67
     1
  8
0
  2
$PAPER_SPACE
 70
     0
 10
0.0
 20
0.0
 30
0.0
  3
$PAPER_SPACE
  1

  0
ENDBLK
  5
2046
 67
     1
  8
0
  0
ENDSEC
  0
SECTION
  2
ENTITIES
  0
LINE
  5
C84
  8
0
 10
115.9025619289818
 20
198.2866160073952
 30
0.0
 11
116.0625622159781
 21
198.2802057141142
 31
0.0
  0
LINE
  5
C85
  8
0
 10
116.0625622159781
 20
202.28020590410401
 30
0.0
 11
115.9025619289818
 21
202.27379561082299
 31
0.0
  0
ARC
  5
C8A
  8
0
  6
CONTINUOUS
 62
     7
 10
173.5626709137731
 20
91.836639546281134
 30
0.0
 40
100.00002089412079
 50
84.208056060955045
 51
91.655336625219206
  0
ARC
  5
C8B
  8
0
  6
CONTINUOUS
 62
     7
 10
173.5626704796602
 20
308.72378409243038
 30
0.0
 40
100.0000328970573
 50
268.34466382235797
 51
275.79194349146951
  0
LINE
  5
C8C
  8
0
  6
CONTINUOUS
 62
     7
 10
170.67396477972881
 20
191.7949286257552
 30
0.0
 11
166.2588848284426
 21
191.65589334123601
 31
0.0
  0
LINE
  5
C8D
  8
0
  6
CONTINUOUS
 62
     7
 10
166.2588848284426
 20
208.9045182769822
 30
0.0
 11
170.67396477972881
 21
208.76548299246301
 31
0.0
  0
ARC
  5
C8E
  8
0
  6
CONTINUOUS
 62
     7
 10
184.56256242867539
 20
200.28020580910911
 30
0.0
 40
9.0000005606477629
 50
264.20805267125291
 51
95.791947328748009
  0
LINE
  5
C91
  8
0
 10
110.8485639578643
 20
190.12322881870739
 30
0.0
 11
112.42910032337331
 21
191.46916223370309
 31
0.0
  0
LINE
  5
C92
  8
0
 10
112.42910032337331
 20
209.09124938451521
 30
0.0
 11
110.8485639578643
 21
210.43718279951091
 31
0.0
  0
ARC
  5
C93
  8
0
 10
103.5577995910065
 20
200.28020580910911
 30
0.0
 40
12.503378166391499
 50
315.19524941687479
 51
44.804750583126157
  0
ARC
  5
C96
  8
0
 10
103.5629929509868
 20
200.28020580910911
 30
0.0
 40
12.49974905667322
 50
54.348232368707812
 51
305.65176763129318
  0
ARC
  5
C97
  8
0
 10
103.5625620349654
 20
200.28020580910911
 30
0.0
 40
15.99999994797219
 50
56.542675934217463
 51
303.45732406578338
  0
LINE
  5
C98
  8
0
 10
108.56256191795489
 20
197.3934543752747
 30
0.0
 11
108.56256191795489
 21
203.1669572429436
 31
0.0
  0
LINE
  5
C9A
  8
0
 10
98.562562141472355
 20
203.1669572429436
 30
0.0
 11
98.562562141472355
 21
197.3934543752747
 31
0.0
  0
ARC
  5
CA4
  8
0
 10
103.5625620297136
 20
200.28020580910911
 30
0.0
 40
12.50000000000002
 50
56.812007725294791
 51
270.00000000000068
  0
ARC
  5
CA6
  8
0
 10
103.5625620297136
 20
200.28020580910911
 30
0.0
 40
12.5
 50
313.98994685183749
 51
330.37232332761891
  0
LINE
  5
CA7
  8
0
 10
105.059895666221
 20
187.87021049910069
 30
0.0
 11
103.5625620297136
 21
187.7802056228447
 31
0.0
  0
ARC
  5
CA8
  8
0
 10
103.5625620297136
 20
200.28020580910911
 30
0.0
 40
5.0000000000000142
 50
300.0000000000008
 51
0.0
  0
ARC
  5
CA9
  8
0
 10
103.5625620297136
 20
200.28020580910911
 30
0.0
 40
5.0000000000000391
 50
60.000000000000583
 51
119.9999999999994
  0
ARC
  5
CAA
  8
0
 10
103.5625620297136
 20
200.28020580910911
 30
0.0
 40
5.0000000000000391
 50
119.9999999999994
 51
180.0
  0
ARC
  5
CAB
  8
0
 10
103.5625620297136
 20
200.28020580910911
 30
0.0
 40
4.999999999999992
 50
240.00000000000071
 51
300.0000000000008
  0
ARC
  5
CAC
  8
0
 10
103.5625620297136
 20
200.28020580910911
 30
0.0
 40
4.999999999999992
 50
180.0
 51
240.00000000000071
  0
ARC
  5
CAD
  8
0
 10
103.5625620297136
 20
200.28020580910911
 30
0.0
 40
5.0000000000000391
 50
0.0
 51
60.000000000000583
  0
CIRCLE
  5
CAE
  8
0
 10
103.5625620297136
 20
200.28020580910911
 30
0.0
 40
4.2499999999999698
  0
LINE
  5
CB9
  8
0
 10
25.32162425553603
 20
129.51430443730081
 30
0.0
 11
25.32162425553603
 21
93.168537114373237
 31
0.0
  0
LINE
  5
CBA
  8
0
 10
57.321625775454471
 20
93.168537114373237
 30
0.0
 11
57.321625775454471
 21
129.51318685021141
 31
0.0
  0
ARC
  5
CBB
  8
0
 10
30.802095908537812
 20
129.05552504385051
 30
0.0
 40
5.499841077395331
 50
108.9466332749968
 51
175.19389816100511
  0
ARC
  5
CBC
  8
0
 10
51.837866042210898
 20
129.05287441033559
 30
0.0
 40
5.5034142618088158
 50
4.8050183274991323
 51
71.029768185303723
  0
ARC
  5
CBD
  8
0
 10
26.321625015495261
 20
93.168537088296176
 30
0.0
 40
1.0
 50
180.0
 51
270.0000000000008
  0
ARC
  5
CBE
  8
0
 10
56.321625015495258
 20
93.168537088296176
 30
0.0
 40
1.0
 50
270.0000000000008
 51
0.0
  0
ARC
  5
CC2
  8
0
 10
-46.787034096583447
 20
103.37201562796621
 30
0.0
 40
104.4317953638859
 50
17.425190387025982
 51
23.088700590283629
  0
LINE
  5
CC3
  8
0
 10
45.076610767079167
 20
147.1685371180985
 30
0.0
 11
37.56936338244158
 21
147.1685371180985
 31
0.0
  0
LINE
  5
CCB
  8
0
 10
53.787035084410597
 20
132.0227637803448
 30
-0.0000000000020391
 11
53.821625201759772
 21
132.66853753533101
 31
0.0
  0
LINE
  5
CCC
  8
0
 10
28.821624829230728
 20
132.66853753533101
 30
0.0
 11
28.821624829230728
 21
132.15909663643569
 31
0.0
  0
ARC
  5
CCD
  8
0
 10
31.321625015495261
 20
132.6685370882962
 30
0.0
 40
2.5000000000000031
 50
90.0
 51
180.0
  0
ARC
  5
CCE
  8
0
 10
51.32162501549525
 20
132.6685370882962
 30
0.0
 40
2.5000000000000071
 50
0.0
 51
90.0
  0
LINE
  5
CCF
  8
0
 10
49.321625395474861
 20
90.668537112044902
 30
0.0
 11
49.321625395474861
 21
92.168537183291079
 31
0.0
  0
LINE
  5
CD0
  8
0
 10
33.32162463551564
 20
92.168537183291079
 30
0.0
 11
33.32162463551564
 21
90.668537112044902
 31
0.0
  0
LINE
  5
CD1
  8
0
 10
33.32162463551564
 20
90.668537112044902
 30
0.0
 11
33.821625183133321
 21
90.168537088296162
 31
0.0
  0
LINE
  5
CD2
  8
0
 10
48.821624847857201
 20
90.168537088296162
 30
0.0
 11
49.321625395474861
 21
90.668537112044902
 31
0.0
  0
LINE
  5
D7C
  8
0
 10
56.321624680219116
 20
92.168537183291079
 30
0.0
 11
26.321625350771381
 21
92.168537183291079
 31
0.0
  0
LINE
  5
D88
  8
0
 10
45.076610767079167
 20
147.14295182432861
 30
0.0
 11
45.065976693091571
 21
147.15470511522031
 31
0.0
  0
LINE
  5
D89
  8
0
 10
37.578423288447439
 20
147.16122437324259
 30
0.0
 11
37.56936338244158
 21
147.15675029959411
 31
0.0
  0
ARC
  5
D8B
  8
0
 10
45.076610767079167
 20
142.64018007287311
 30
0.0
 40
4.5283570452253281
 50
21.850077516985749
 51
90.245066234097521
  0
LINE
  5
D8D
  8
0
 10
51.321624791977818
 20
135.16853887643549
 30
0.0
 11
31.321625239012668
 21
135.16853887643549
 31
0.0
  0
LINE
  5
D8E
  8
0
 10
33.32162463551564
 20
90.668537112044902
 30
0.0
 11
49.321625395474861
 21
90.668537112044902
 31
0.0
  0
LINE
  5
D8F
  8
0
 10
48.821624847857201
 20
90.168537088296162
 30
0.0
 11
33.821625183133321
 21
90.168537088296162
 31
0.0
  0
LINE
  5
D90
  8
1
 10
41.321625015495123
 20
149.1685371180985
 30
0.0
 11
41.321625015495123
 21
88.168537088296191
 31
0.0
  0
LINE
  5
109A
  8
0
 10
245.49841834242349
 20
101.91155549194551
 30
0.0
 11
245.72753347466599
 21
101.875933334789
 31
0.0
  0
LINE
  5
109B
  8
0
 10
261.4758964628993
 20
133.9036687096569
 30
0.0
 11
261.4758964628993
 21
141.8756036838505
 31
0.0
  0
LINE
  5
109C
  8
0
 10
243.47589723775971
 20
141.8756036838505
 30
0.0
 11
243.47589723775971
 21
133.90392947997779
 31
0.0
  0
ARC
  5
109D
  8
0
 10
248.402630187147
 20
141.9245232300951
 30
0.0
 40
4.8724824002716414
 50
130.9090344281949
 51
182.74381143003731
  0
ARC
  5
109E
  8
0
 10
256.54857684099062
 20
141.9246701955791
 30
0.0
 40
4.872755544239455
 50
357.25527023670401
 51
49.080540992849919
  0
LINE
  5
10A0
  8
0
 10
256.2281584833828
 20
147.1685371180985
 30
0.0
 11
248.72091109874529
 21
147.1685371180985
 31
0.0
  0
ARC
  5
10A3
  8
0
 10
142.07106192788021
 20
94.996534249003645
 30
0.0
 40
128.219623392817
 50
17.90366367846233
 51
21.369106491357329
  0
ARC
  5
10A4
  8
0
 10
379.9703007765558
 20
88.899870159863696
 30
0.0
 40
146.35687192505651
 50
158.8459570885133
 51
161.88188326093831
  0
LINE
  5
10A7
  8
0
 10
236.4758960903705
 20
129.51318685021141
 30
0.0
 11
236.4758960903705
 21
93.168537114373237
 31
0.0
  0
LINE
  5
10A8
  8
0
 10
268.475897610289
 20
93.168537114373237
 30
0.0
 11
268.475897610289
 21
129.51430443730081
 31
0.0
  0
ARC
  5
10A9
  8
0
 10
237.47589685032969
 20
93.168537088296176
 30
0.0
 40
1.0
 50
180.0
 51
270.0
  0
ARC
  5
10AA
  8
0
 10
267.47589685032972
 20
93.168537088296176
 30
0.0
 40
1.0
 50
270.0
 51
0.0
  0
ARC
  5
10AB
  8
0
 10
262.99542595728713
 20
129.05552504385051
 30
0.0
 40
5.4998410773953612
 50
4.806101838995362
 51
71.053366725003229
  0
ARC
  5
10AC
  8
0
 10
241.9596558236141
 20
129.05287441033559
 30
0.0
 40
5.5034142618088318
 50
108.9702318146968
 51
175.19498167250089
  0
LINE
  5
10AD
  8
0
 10
244.47589647035011
 20
90.668537112044902
 30
0.0
 11
244.97589701796781
 21
90.168537088296162
 31
0.0
  0
LINE
  5
10AE
  8
0
 10
259.97589668269171
 20
90.168537088296162
 30
0.0
 11
260.47589723030927
 21
90.668537112044902
 31
0.0
  0
LINE
  5
10AF
  8
0
 10
260.47589723030927
 20
90.668537112044902
 30
0.0
 11
260.47589723030927
 21
92.168537183291079
 31
0.0
  0
LINE
  5
10B0
  8
0
 10
244.47589647035011
 20
92.168537183291079
 30
0.0
 11
244.47589647035011
 21
90.668537112044902
 31
0.0
  0
LINE
  5
10B2
  8
0
 10
249.4758968242526
 20
111.4364857604716
 30
0.0
 11
252.4758968503296
 21
109.7044362505886
 31
0.0
  0
LINE
  5
10B3
  8
0
 10
252.4758968503296
 20
109.7044362505886
 30
0.0
 11
255.47589687640669
 21
111.4364857604716
 31
0.0
  0
LINE
  5
10B4
  8
0
 10
255.47589687640669
 20
111.4364857604716
 30
0.0
 11
255.47589687640669
 21
114.90058850552769
 31
0.0
  0
LINE
  5
10B5
  8
0
 10
255.47589687640669
 20
114.90058850552769
 30
0.0
 11
252.4758968503296
 21
116.63263801541061
 31
0.0
  0
LINE
  5
10B6
  8
0
 10
252.4758968503296
 20
116.63263801541061
 30
0.0
 11
249.4758968242526
 21
114.90058850552769
 31
0.0
  0
LINE
  5
10B7
  8
0
 10
249.4758968242526
 20
114.90058850552769
 30
0.0
 11
249.4758968242526
 21
111.4364857604716
 31
0.0
  0
LINE
  5
10BC
  8
0
 10
248.72091109874529
 20
147.14295182432861
 30
0.0
 11
248.73154517273289
 21
147.15470511522031
 31
0.0
  0
LINE
  5
10BD
  8
0
 10
256.21909857737711
 20
147.16122437324259
 30
0.0
 11
256.2281584833828
 21
147.15675029959411
 31
0.0
  0
LINE
  5
10BF
  8
0
 10
260.9758973122656
 20
124.65034563150139
 30
0.0
 11
260.9758973122656
 21
122.9361160477612
 31
0.0
  0
LINE
  5
10C0
  8
0
 10
243.97589638839361
 20
122.9361160477612
 30
0.0
 11
243.97589638839361
 21
124.6503270050499
 31
0.0
  0
ARC
  5
10C3
  8
0
 10
255.9758968503296
 20
105.66853708829611
 30
0.0
 40
4.999999999999968
 50
311.40962210927188
 51
0.0
  0
LINE
  5
10C4
  8
0
 10
260.9758973122656
 20
122.9361160477612
 30
0.0
 11
260.9758973122656
 21
105.66853683497639
 31
0.0
  0
LINE
  5
10C5
  8
0
 10
250.375896925208
 20
100.6685369467351
 30
0.0
 11
248.9758967422961
 21
100.6685369467351
 31
0.0
  0
LINE
  5
10C6
  8
0
 10
255.97589695836311
 20
100.6685369467351
 30
0.0
 11
254.5758967754513
 21
100.6685369467351
 31
0.0
  0
ARC
  5
10C7
  8
0
 10
252.4758968503296
 20
62.13418237745249
 30
0.0
 40
38.591533809330599
 50
86.880647625387056
 51
93.119352374612916
  0
ARC
  5
10C8
  8
0
 10
255.97583868731289
 20
105.66869116489219
 30
0.0
 40
5.0001542184966334
 50
270.00066771645402
 51
311.40894966964379
  0
ARC
  5
10C9
  8
0
 10
248.97595501334629
 20
105.66869116489219
 30
0.0
 40
5.0001542184966707
 50
228.5910503303584
 51
269.99933228354797
  0
ARC
  5
10CA
  8
0
 10
248.9758968503296
 20
105.66853708829611
 30
0.0
 40
5.0000000000000284
 50
180.0
 51
228.59037789072971
  0
LINE
  5
10CB
  8
0
 10
243.97589638839361
 20
105.66853683497639
 30
0.0
 11
243.97589638839361
 21
122.9361160477612
 31
0.0
  0
LINE
  5
10CE
  8
0
 10
260.23423112939008
 20
92.168537183291079
 30
0.0
 11
256.3198579010637
 21
92.168537183291079
 31
0.0
  0
LINE
  5
10CF
  8
0
 10
248.63193579959579
 20
92.168537183291079
 30
0.0
 11
244.7175625712693
 21
92.168537183291079
 31
0.0
  0
LINE
  5
10D0
  8
0
 10
256.3198579010637
 20
92.168537183291079
 30
0.0
 11
248.63193579959579
 21
92.168537183291079
 31
0.0
  0
LINE
  5
10D1
  8
0
 10
263.14897369603523
 20
92.168537183291079
 30
0.0
 11
260.23423112939008
 21
92.168537183291079
 31
0.0
  0
LINE
  5
10D2
  8
0
 10
244.7175625712693
 20
92.168537183291079
 30
0.0
 11
241.80282000462421
 21
92.168537183291079
 31
0.0
  0
LINE
  5
10D5
  8
0
 10
241.80282000462421
 20
92.168537183291079
 30
0.0
 11
237.4758971856059
 21
92.168537183291079
 31
0.0
  0
LINE
  5
10D6
  8
0
 10
267.47589651505359
 20
92.168537183291079
 30
0.0
 11
263.14897369603523
 21
92.168537183291079
 31
0.0
  0
LINE
  5
10D8
  8
0
 10
259.97589668269171
 20
90.168537088296162
 30
0.0
 11
244.97589701796781
 21
90.168537088296162
 31
0.0
  0
LINE
  5
10D9
  8
0
 10
244.47589647035011
 20
90.668537112044902
 30
0.0
 11
260.47589723030927
 21
90.668537112044902
 31
0.0
  0
ARC
  5
10E0
  8
0
 10
90.062569123432795
 20
124.4809409683284
 30
0.0
 40
2.5000059910372929
 50
111.80036002173451
 51
179.99989600998981
  0
LINE
  5
10E1
  8
0
 10
87.56256313239966
 20
124.48094550575939
 30
0.0
 11
87.562561269754511
 21
93.168537114373237
 31
0.0
  0
ARC
  5
10E3
  8
0
 10
88.562562029713703
 20
93.168537088296176
 30
0.0
 40
1.0
 50
180.0
 51
270.0000000000008
  0
ARC
  5
10E6
  8
0
 10
187.56255090004581
 20
140.45782328661181
 30
0.0
 40
6.000014705961016
 50
0.0001254845199373
 51
82.54151134117204
  0
LINE
  5
10E7
  8
0
 10
193.5625656059924
 20
133.79501316752169
 30
0.0
 11
193.5625656059924
 21
140.45979593004921
 31
0.0
  0
ARC
  5
10E8
  8
0
 10
189.56256043611791
 20
133.79517709658069
 30
0.0
 40
4.000005169881466
 50
255.6239244414709
 51
359.99989304515537
  0
ARC
  5
10E9
  8
0
 10
93.562562029713703
 20
132.6685370882962
 30
0.0
 40
2.5000000000000142
 50
90.0
 51
180.0
  0
LINE
  5
10EA
  8
0
 10
91.062561843449188
 20
132.66853753533101
 30
0.0
 11
91.062561843449188
 21
127.56567586269099
 31
0.0
  0
LINE
  5
10EB
  8
0
 10
95.562561649734107
 20
90.668537112044902
 30
0.0
 11
96.062562197351767
 21
90.168537088296162
 31
0.0
  0
LINE
  5
10EC
  8
0
 10
111.0625618620756
 20
90.168537088296162
 30
0.0
 11
111.5625624096933
 21
90.668537112044902
 31
0.0
  0
LINE
  5
10ED
  8
0
 10
111.5625624096933
 20
90.668537112044902
 30
0.0
 11
111.5625624096933
 21
92.168537183291079
 31
0.0
  0
LINE
  5
10EE
  8
0
 10
95.562561649734107
 20
92.168537183291079
 30
0.0
 11
95.562561649734107
 21
90.668537112044902
 31
0.0
  0
ARC
  5
1124
  8
0
 10
203.51723800815591
 20
-159.16895498090139
 30
0.0
 40
307.99832900402419
 50
107.6272369469557
 51
111.80048736076169
  0
LINE
  5
112B
  8
0
 10
114.1022688261214
 20
92.168537183291079
 30
0.0
 11
88.562562364989844
 21
92.168537183291079
 31
0.0
  0
LINE
  5
112E
  8
0
 10
116.0407646111193
 20
136.14585761036611
 30
0.0
 11
115.9728656074944
 21
136.12572986688349
 31
0.0
  0
ARC
  5
112F
  8
0
 10
203.5179576154309
 20
-159.17129776216251
 30
0.0
 40
308.00078097761582
 50
97.077207424169714
 51
106.499973817041
  0
LINE
  5
1130
  8
0
 10
119.4614472351017
 20
92.168537183291079
 30
0.0
 11
114.1022688261214
 21
92.168537183291079
 31
0.0
  0
LINE
  5
1131
  8
0
 10
115.9728656074944
 20
136.12572986688349
 30
0.0
 11
116.0407655424419
 21
136.14585761036611
 31
0.0
  0
LINE
  5
1132
  8
0
 10
129.7102293482962
 20
139.85528562273711
 30
0.0
 11
129.7371129057351
 21
139.861924090049
 31
0.0
  0
ARC
  5
1133
  8
0
 10
170.12225384834281
 20
54.856775525016147
 30
0.0
 40
77.410836340462453
 50
89.660712478402502
 51
107.69788462508021
  0
ARC
  5
1135
  8
0
 10
176.66068059753931
 20
57.18607859965207
 30
0.0
 40
89.982359513049218
 50
82.541316786778751
 51
84.938045854219013
  0
ARC
  5
1136
  8
0
 10
169.93222099266501
 20
57.197051598007391
 30
0.0
 40
75.07352426257448
 50
75.625866767721092
 51
79.6513472965175
  0
ARC
  5
1137
  8
0
 10
176.65940707277289
 20
57.242847557110579
 30
0.0
 40
89.925924547547297
 50
84.934046215701613
 51
94.108667170907594
  0
ARC
  5
1138
  8
0
 10
169.9479607397721
 20
57.26927626702885
 30
0.0
 40
74.999647074164244
 50
79.653264375678532
 51
89.516650168127526
  0
ARC
  5
1139
  8
0
 10
122.6153402158681
 20
93.168537088296176
 30
0.0
 40
1.0000000000000111
 50
270.00000000000171
 51
353.95767158094583
  0
LINE
  5
113A
  8
0
 10
122.6153394690695
 20
92.168537183291079
 30
0.0
 11
119.4614472351017
 21
92.168537183291079
 31
0.0
  0
LINE
  5
113B
  8
0
 10
165.5701941362563
 20
146.48283410873151
 30
0.0
 11
170.21636502062711
 21
146.93765852656099
 31
0.0
  0
ARC
  5
113D
  8
0
 10
149.2905653541971
 20
122.3894711543446
 30
0.0
 40
6.7501741519912271
 50
110.7186159709961
 51
175.35495384142399
  0
ARC
  5
113E
  8
0
 10
132.07120133288839
 20
92.157054525723623
 30
0.0
 40
8.5140393334659681
 50
91.404192275936225
 51
139.255686827522
  0
LINE
  5
113F
  8
0
 10
140.56256216680441
 20
100.6685369467351
 30
0.0
 11
131.8625620446148
 21
100.6685369467351
 31
0.0
  0
LINE
  5
1140
  8
0
 10
142.5625624946299
 20
122.9361160477612
 30
0.0
 11
142.5625624946299
 21
105.66853683497639
 31
0.0
  0
LINE
  5
1141
  8
0
 10
142.5625624946299
 20
105.66853683497639
 30
0.0
 11
142.5625624946299
 21
102.66853727456071
 31
0.0
  0
ARC
  5
1142
  8
0
 10
140.5625604667118
 20
102.6685389746533
 30
0.0
 40
2.000002027918879
 50
270.0000487040171
 51
359.99995129598449
  0
LINE
  5
1143
  8
0
 10
103.5625620297137
 20
135.16853887643549
 30
0.0
 11
112.9483145213666
 21
135.16853887643549
 31
0.0
  0
LINE
  5
1144
  8
0
 10
93.562562253231135
 20
135.16853887643549
 30
0.0
 11
103.5625620297137
 21
135.16853887643549
 31
0.0
  0
LINE
  5
1145
  8
0
 10
111.0625618620756
 20
90.168537088296162
 30
0.0
 11
96.062562197351767
 21
90.168537088296162
 31
0.0
  0
LINE
  5
1146
  8
0
 10
95.562561649734107
 20
90.668537112044902
 30
0.0
 11
111.5625624096933
 21
90.668537112044902
 31
0.0
  0
LINE
  5
1147
  8
1
 10
103.5625620297137
 20
137.16853887643549
 30
0.0
 11
103.5625620297137
 21
88.168537088296191
 31
0.0
  0
ARC
  5
11C8
  8
0
 10
113.7289028733027
 20
41.978327385814438
 30
0.0
 40
1.9872958535503891
 50
112.73250252158179
 51
122.4266625732354
  0
LINE
  5
11CA
  8
0
 10
137.51256303107169
 20
57.552344119225701
 30
0.0
 11
137.51256303107169
 21
56.108968402308491
 31
0.0
  0
LINE
  5
11CB
  8
0
 10
137.51256303107169
 20
56.108968402308491
 30
0.0
 11
138.7625618389788
 21
55.387280543849869
 31
0.0
  0
LINE
  5
11CC
  8
0
 10
138.7625618389788
 20
55.387280543849869
 30
0.0
 11
140.0125606468859
 21
56.108968402308491
 31
0.0
  0
LINE
  5
11CD
  8
0
 10
140.0125606468859
 20
56.108968402308491
 30
0.0
 11
140.0125606468859
 21
57.552344119225701
 31
0.0
  0
LINE
  5
11CE
  8
0
 10
140.0125606468859
 20
57.552344119225701
 30
0.0
 11
138.7625618389788
 21
58.274031977684317
 31
0.0
  0
LINE
  5
11CF
  8
0
 10
138.7625618389788
 20
58.274031977684317
 30
0.0
 11
137.51256303107169
 21
57.552344119225701
 31
0.0
  0
CIRCLE
  5
11D0
  8
0
 10
105.8125620297137
 20
65.389861831379392
 30
0.0
 40
0.5999999999999801
  0
LINE
  5
11D1
  8
0
 10
104.5625620772111
 20
64.767910644927184
 30
0.0
 11
104.5625620772111
 21
66.881029412665526
 31
0.0
  0
LINE
  5
11D2
  8
0
 10
102.5625619822162
 20
66.881029412665526
 30
0.0
 11
102.5625619822162
 21
64.767910644927184
 31
0.0
  0
CIRCLE
  5
11D3
  8
0
 10
101.3125620297137
 20
65.389861831379392
 30
0.0
 40
0.6000000000000088
  0
ARC
  5
11D4
  8
0
 10
103.5625620297137
 20
56.830656260767142
 30
0.0
 40
10.099999999999991
 50
95.682159036330788
 51
84.317840963669184
  0
ARC
  5
11D5
  8
0
 10
121.83138793615881
 20
38.330656260767128
 30
0.0
 40
10.0
 50
102.4418819114633
 51
134.6397729586032
  0
ARC
  5
11D6
  8
0
 10
118.6007666961784
 20
52.987863235012902
 30
0.0
 40
5.0090186651514941
 50
282.40603999983853
 51
359.98663951828109
  0
ARC
  5
11D7
  8
0
 10
103.5625620297137
 20
56.830656260767142
 30
0.0
 40
15.99999999999998
 50
45.360227041396897
 51
314.63977295860388
  0
CIRCLE
  5
11D8
  8
0
 10
103.5625620297137
 20
56.830656260767142
 30
0.0
 40
10.75
  0
ARC
  5
11D9
  8
0
 10
118.60073576543159
 20
60.67342441430894
 30
0.0
 40
5.0090496017589521
 50
0.0136448988492932
 51
77.593675583033203
  0
ARC
  5
11DA
  8
0
 10
121.83138793615881
 20
75.330656260767142
 30
0.0
 40
10.0
 50
225.36022704139759
 51
257.55811808854088
  0
ARC
  5
11DB
  8
0
 10
121.8313877623053
 20
38.330626562469142
 30
0.0
 40
10.00002923636197
 50
90.000001411129034
 51
102.44184576626679
  0
ARC
  5
11DC
  8
0
 10
121.831388367437
 20
75.330691510512651
 30
0.0
 40
10.000034787809589
 50
257.55815770086781
 51
269.99999512173491
  0
LINE
  5
11DD
  8
0
 10
132.06256204461491
 20
48.330655798831089
 30
0.0
 11
121.83138751601599
 21
48.330655798831103
 31
0.0
  0
LINE
  5
11DE
  8
0
 10
121.83138751601599
 20
65.330656722703111
 30
0.0
 11
132.06256204461491
 21
65.330656722703068
 31
0.0
  0
LINE
  5
11DF
  8
0
 10
141.56256046807201
 20
48.330655798831089
 30
0.0
 11
131.8625620446148
 21
48.330655798831089
 31
0.0
  0
LINE
  5
11E0
  8
0
 10
142.5625624946299
 20
62.976407364525912
 30
0.0
 11
142.5625624946299
 21
50.684905157008288
 31
0.0
  0
LINE
  5
11E3
  8
0
 10
131.8625620446148
 20
65.330656722703068
 30
0.0
 11
141.56256046807201
 21
65.330656722703068
 31
0.0
  0
LINE
  5
11E4
  8
0
 10
142.5625624946299
 20
50.684905157008288
 30
0.0
 11
142.5625624946299
 21
49.330656428405142
 31
0.0
  0
ARC
  5
11E5
  8
0
 10
141.56256202971369
 20
49.3306562607671
 30
0.0
 40
1.0
 50
270.0
 51
0.0
  0
ARC
  5
11E6
  8
0
 10
141.56256202971369
 20
64.3306562607671
 30
0.0
 40
1.0
 50
0.0
 51
90.0
  0
LINE
  5
11E7
  8
0
 10
142.5625624946299
 20
64.330656093129022
 30
0.0
 11
142.5625624946299
 21
62.976407364525912
 31
0.0
  0
ARC
  5
11E8
  8
0
 10
117.8967695630114
 20
78.522370448636906
 30
0.0
 40
9.9999994725147872
 50
236.54268272073369
 51
264.73075149544502
  0
ARC
  5
11E9
  8
0
 10
117.8967695924987
 20
35.138941988991718
 30
0.0
 40
9.9999995587737072
 50
95.269248628641947
 51
123.45731715517979
  0
LINE
  5
11EF
  8
0
 10
142.8806914499942
 20
47.0882658963585
 30
0.0
 11
136.29500405108359
 21
46.657096140601652
 31
0.0
  0
LINE
  5
11F0
  8
0
 10
136.29874051725301
 20
67.003957473256619
 30
0.0
 11
142.8806989005748
 21
66.573045693852919
 31
0.0
  0
LINE
  5
11F1
  8
0
 10
145.87264345204261
 20
47.267253988006132
 30
0.0
 11
142.8806914499942
 21
47.0882658963585
 31
0.0
  0
LINE
  5
11F2
  8
0
 10
142.8806989005748
 20
66.573045693852919
 30
0.0
 11
145.87164879953301
 21
66.394116275527495
 31
0.0
  0
ARC
  5
11F5
  8
0
 10
184.56256171063239
 20
56.830656260766972
 30
0.0
 40
9.0000004881854583
 50
264.20805721912052
 51
95.791942780880305
  0
ARC
  5
11F6
  8
0
 10
173.5626760071973
 20
-51.612768966224877
 30
0.0
 40
99.9998800642758
 50
84.20805080955634
 51
91.655341876617754
  0
ARC
  5
11F7
  8
0
 10
173.5626718949741
 20
165.2741953543497
 30
0.0
 40
99.999993764557644
 50
268.34466236314961
 51
275.79194495067787
  0
CIRCLE
  5
11F8
  8
0
 10
103.5625620297137
 20
56.830656260767142
 30
0.0
 40
7.5
  0
CIRCLE
  5
11F9
  8
0
 10
103.5625620297137
 20
56.830656260767142
 30
0.0
 40
8.0
  0
CIRCLE
  5
11FA
  8
0
 10
103.5625620297137
 20
56.830656260767142
 30
0.0
 40
5.749999999999984
  0
ARC
  5
12B2
  8
0
 10
129.43028412757371
 20
103.37201562796621
 30
0.0
 40
104.4317953638859
 50
156.91129940971641
 51
162.57480961297401
  0
ARC
  5
12B3
  8
0
 10
37.566639263911071
 20
142.64018007287311
 30
0.0
 40
4.5283570452253281
 50
89.754933765902479
 51
158.14992248301431
  0
LINE
  5
12B4
  8
1
 10
103.5625620297136
 20
218.2802057570814
 30
0.0
 11
103.5625620297136
 21
182.28020586113701
 31
0.0
  0
LINE
  5
12B5
  8
1
 10
85.562562086993267
 20
200.28020580910911
 30
0.0
 11
195.5625629893232
 21
200.28020580910911
 31
0.0
  0
LINE
  5
12C1
  8
0
 10
116.97840807204869
 20
212.0141792079138
 30
-0.0000000000020391
 11
122.2240312508287
 21
211.5467223306822
 31
-0.0000000000020391
  0
LINE
  5
12C2
  8
0
 10
122.2240312508287
 20
211.5467223306822
 30
-0.0000000000020391
 11
127.7856773248854
 21
211.086728141241
 31
-0.0000000000020391
  0
LINE
  5
12C3
  8
0
 10
127.7856773248854
 20
211.086728141241
 30
-0.0000000000020391
 11
133.1209617218914
 21
210.67985752277841
 31
-0.0000000000020391
  0
LINE
  5
12C4
  8
0
 10
133.1209617218914
 20
210.67985752277841
 30
-0.0000000000020391
 11
138.70885432874579
 21
210.28978796356191
 31
-0.0000000000020391
  0
LINE
  5
12C5
  8
0
 10
138.70885432874579
 20
210.28978796356191
 30
-0.0000000000020391
 11
144.0828798822107
 21
209.9494091203141
 31
-0.0000000000020391
  0
LINE
  5
12C6
  8
0
 10
144.0828798822107
 20
209.9494091203141
 30
-0.0000000000020391
 11
148.03865389143851
 21
209.72061296605341
 31
-0.0000000000020391
  0
LINE
  5
12C7
  8
0
 10
148.03865389143851
 20
209.72061296605341
 30
-0.0000000000020391
 11
152.40016789352319
 21
209.48971016012899
 31
-0.0000000000020391
  0
LINE
  5
12C8
  8
0
 10
152.40016789352319
 20
209.48971016012899
 30
-0.0000000000020391
 11
156.294046204442
 21
209.30247986369599
 31
-0.0000000000020391
  0
LINE
  5
12C9
  8
0
 10
156.294046204442
 20
209.30247986369599
 30
-0.0000000000020391
 11
158.85826409971139
 21
209.18892183952801
 31
-0.0000000000020391
  0
LINE
  5
12CA
  8
0
 10
158.85826409971139
 20
209.18892183952801
 30
-0.0000000000020391
 11
162.0994678250494
 21
209.0564430659341
 31
-0.0000000000020391
  0
LINE
  5
12CB
  8
0
 10
162.0994678250494
 20
209.0564430659341
 30
-0.0000000000020391
 11
164.7319665661993
 21
208.95792869531391
 31
-0.0000000000020391
  0
LINE
  5
12CC
  8
0
 10
164.7319665661993
 20
208.95792869531391
 30
-0.0000000000020391
 11
166.2588848284426
 21
208.9045182769822
 31
-0.0000000000020391
  0
LINE
  5
12CD
  8
0
 10
166.2588848284426
 20
191.65589334123601
 30
-0.0000000000020391
 11
164.92006392394919
 21
191.60921079718341
 31
-0.0000000000020391
  0
LINE
  5
12CE
  8
0
 10
164.92006392394919
 20
191.60921079718341
 30
-0.0000000000020391
 11
162.67185122882751
 21
191.52608094417329
 31
-0.0000000000020391
  0
LINE
  5
12CF
  8
0
 10
162.67185122882751
 20
191.52608094417329
 30
-0.0000000000020391
 11
159.6498249581995
 21
191.40498293244119
 31
-0.0000000000020391
  0
LINE
  5
12D0
  8
0
 10
159.6498249581995
 20
191.40498293244119
 30
-0.0000000000020391
 11
157.19692246233839
 21
191.2987981890964
 31
-0.0000000000020391
  0
LINE
  5
12D1
  8
0
 10
157.19692246233839
 20
191.2987981890964
 30
-0.0000000000020391
 11
155.51835508262539
 21
191.22205627762551
 31
-0.0000000000020391
  0
LINE
  5
12D2
  8
0
 10
155.51835508262539
 20
191.22205627762551
 30
-0.0000000000020391
 11
154.05859635388279
 21
191.15262431704281
 31
-0.0000000000020391
  0
LINE
  5
12D3
  8
0
 10
154.05859635388279
 20
191.15262431704281
 30
-0.0000000000020391
 11
152.2134079149904
 21
191.0612727483439
 31
-0.0000000000020391
  0
LINE
  5
12D4
  8
0
 10
152.2134079149904
 20
191.0612727483439
 30
-0.0000000000020391
 11
150.33931867396259
 21
190.9643891235518
 31
-0.0000000000020391
  0
LINE
  5
12D5
  8
0
 10
150.33931867396259
 20
190.9643891235518
 30
-0.0000000000020391
 11
144.2298090568724
 21
190.619830504589
 31
-0.0000000000020391
  0
LINE
  5
12D6
  8
0
 10
144.2298090568724
 20
190.619830504589
 30
-0.0000000000020391
 11
138.29586492096811
 21
190.2430555751252
 31
-0.0000000000020391
  0
LINE
  5
12D7
  8
0
 10
138.29586492096811
 20
190.2430555751252
 30
-0.0000000000020391
 11
131.10563554977799
 21
189.73082070850609
 31
-0.0000000000020391
  0
LINE
  5
12D8
  8
0
 10
131.10563554977799
 20
189.73082070850609
 30
-0.0000000000020391
 11
123.9119453839006
 21
189.1571660494136
 31
-0.0000000000020391
  0
LINE
  5
12D9
  8
0
 10
123.9119453839006
 20
189.1571660494136
 30
-0.0000000000020391
 11
116.97840807204869
 21
188.5462324103045
 31
-0.0000000000020391
  0
LINE
  5
12DA
  8
0
 10
116.97840807204869
 20
188.5462324103045
 30
-0.0000000000020391
 11
114.6072635910454
 21
188.03196260385991
 31
-0.0000000000020391
  0
LINE
  5
12DB
  8
0
 10
114.6072635910454
 20
188.03196260385991
 30
-0.0000000000020391
 11
112.3836135975065
 21
186.93145876430751
 31
-0.0000000000020391
  0
LINE
  5
12DC
  8
0
 10
112.3836135975065
 20
213.6289528539109
 30
-0.0000000000020391
 11
114.6190513408723
 21
212.52435119503011
 31
-0.0000000000020391
  0
LINE
  5
12DD
  8
0
 10
114.6190513408723
 20
212.52435119503011
 30
-0.0000000000020391
 11
116.97840807204869
 21
212.0141792079138
 31
-0.0000000000020391
  0
LINE
  5
12DE
  8
0
 10
98.562562141472355
 20
197.3934543752747
 30
-0.0000000000020391
 11
99.372286584133164
 21
196.92595977947889
 31
-0.0000000000020391
  0
LINE
  5
12DF
  8
0
 10
99.372286584133164
 20
196.92595977947889
 30
-0.0000000000020391
 11
101.0681346542182
 21
195.9468615209388
 31
-0.0000000000020391
  0
LINE
  5
12E0
  8
0
 10
101.0681346542182
 20
195.9468615209388
 30
-0.0000000000020391
 11
102.7109576406869
 21
194.99837699957959
 31
-0.0000000000020391
  0
LINE
  5
12E1
  8
0
 10
102.7109576406869
 20
194.99837699957959
 30
-0.0000000000020391
 11
103.5625620297136
 21
194.5067029414403
 31
-0.0000000000020391
  0
LINE
  5
12E2
  8
0
 10
108.56256191795489
 20
203.1669572429436
 30
-0.0000000000020391
 11
107.7116087562385
 21
203.65825527959339
 31
-0.0000000000020391
  0
LINE
  5
12E3
  8
0
 10
107.7116087562385
 20
203.65825527959339
 30
-0.0000000000020391
 11
106.0697985830697
 21
204.60615493037571
 31
-0.0000000000020391
  0
LINE
  5
12E4
  8
0
 10
106.0697985830697
 20
204.60615493037571
 30
-0.0000000000020391
 11
104.37510500373121
 21
205.58458659478299
 31
-0.0000000000020391
  0
LINE
  5
12E5
  8
0
 10
104.37510500373121
 20
205.58458659478299
 30
-0.0000000000020391
 11
103.5625620297136
 21
206.053708676778
 31
-0.0000000000020391
  0
LINE
  5
12E6
  8
0
 10
103.5625620297136
 20
194.5067029414403
 30
-0.0000000000020391
 11
104.29396422290969
 21
194.9289785666096
 31
-0.0000000000020391
  0
LINE
  5
12E7
  8
0
 10
104.29396422290969
 20
194.9289785666096
 30
-0.0000000000020391
 11
105.8959448727759
 21
195.8538824660408
 31
-0.0000000000020391
  0
LINE
  5
12E8
  8
0
 10
105.8959448727759
 20
195.8538824660408
 30
-0.0000000000020391
 11
107.1713343280348
 21
196.5902289343702
 31
-0.0000000000020391
  0
LINE
  5
12E9
  8
0
 10
107.1713343280348
 20
196.5902289343702
 30
-0.0000000000020391
 11
108.56256191795489
 21
197.3934543752747
 31
-0.0000000000020391
  0
LINE
  5
12EA
  8
0
 10
103.5625620297136
 20
206.053708676778
 30
-0.0000000000020391
 11
102.2236855951118
 21
205.28070768021809
 31
-0.0000000000020391
  0
LINE
  5
12EB
  8
0
 10
102.2236855951118
 20
205.28070768021809
 30
-0.0000000000020391
 11
100.8992120641264
 21
204.516022462927
 31
-0.0000000000020391
  0
LINE
  5
12EC
  8
0
 10
100.8992120641264
 20
204.516022462927
 30
-0.0000000000020391
 11
99.308502629304201
 21
203.59762617998589
 31
-0.0000000000020391
  0
LINE
  5
12ED
  8
0
 10
99.308502629304201
 20
203.59762617998589
 30
-0.0000000000020391
 11
98.562562141472355
 21
203.1669572429436
 31
-0.0000000000020391
  0
LINE
  5
12EE
  8
0
 10
111.6664821765366
 20
209.79737350397579
 30
-0.0000000000020391
 11
112.40139720206879
 21
209.11904098146431
 31
-0.0000000000020391
  0
LINE
  5
12EF
  8
0
 10
112.40139720206879
 20
209.11904098146431
 30
-0.0000000000020391
 11
112.81434097504039
 21
208.6858344232368
 31
-0.0000000000020391
  0
LINE
  5
12F0
  8
0
 10
53.627054220793653
 20
134.25731796827051
 30
-0.0000000000020391
 11
53.062637350318823
 21
134.46344573106501
 31
-0.0000000000020391
  0
LINE
  5
12F1
  8
0
 10
53.062637350318823
 20
134.46344573106501
 30
-0.0000000000020391
 11
53.089391968461619
 21
134.4363040412625
 31
-0.0000000000020391
  0
LINE
  5
12F2
  8
0
 10
29.58525718635121
 20
134.46762923207021
 30
-0.0000000000020391
 11
29.58525718635121
 21
134.46762923207021
 31
-0.0000000000020391
  0
LINE
  5
12F3
  8
0
 10
29.58525718635121
 20
134.46762923207021
 30
-0.0000000000020391
 11
29.016369967518258
 21
134.25739247407651
 31
-0.0000000000020391
  0
LINE
  5
13CB
  8
0
 10
53.786947871355252
 20
132.0239915331814
 30
-0.0000000000020391
 11
53.796365870891037
 21
131.89140845145911
 31
-0.0000000000020391
  0
LINE
  5
13CC
  8
0
 10
53.796365870891037
 20
131.89140845145911
 30
-0.0000000000020391
 11
53.475554114935832
 21
131.14049051012731
 31
-0.0000000000020391
  0
LINE
  5
13CD
  8
0
 10
53.475554114935832
 20
131.14049051012731
 30
-0.0000000000020391
 11
52.762530757842512
 21
130.38353387322161
 31
-0.0000000000020391
  0
LINE
  5
13CE
  8
0
 10
52.762530757842512
 20
130.38353387322161
 30
-0.0000000000020391
 11
51.681336960552173
 21
129.66454912032819
 31
-0.0000000000020391
  0
LINE
  5
13CF
  8
0
 10
51.681336960552173
 20
129.66454912032819
 30
-0.0000000000020391
 11
50.268903388438702
 21
129.01719052400321
 31
-0.0000000000020391
  0
LINE
  5
13D0
  8
0
 10
50.268903388438702
 20
129.01719052400321
 30
-0.0000000000020391
 11
48.553623272834301
 21
128.45911968555191
 31
-0.0000000000020391
  0
LINE
  5
13D1
  8
0
 10
48.553623272834301
 20
128.45911968555191
 30
-0.0000000000020391
 11
46.68438342845247
 21
128.03783778156969
 31
-0.0000000000020391
  0
LINE
  5
13D2
  8
0
 10
46.68438342845247
 20
128.03783778156969
 30
-0.0000000000020391
 11
44.636358986405611
 21
127.7410737058136
 31
-0.0000000000020391
  0
LINE
  5
13D3
  8
0
 10
44.636358986405611
 20
127.7410737058136
 30
-0.0000000000020391
 11
42.619622093422279
 21
127.5930939992878
 31
-0.0000000000020391
  0
LINE
  5
13D4
  8
0
 10
42.619622093422279
 20
127.5930939992878
 30
-0.0000000000020391
 11
40.563126981520981
 21
127.5750002643082
 31
-0.0000000000020391
  0
LINE
  5
13D5
  8
0
 10
40.563126981520981
 20
127.5750002643082
 30
-0.0000000000020391
 11
38.615331533161893
 21
127.6825829228375
 31
-0.0000000000020391
  0
LINE
  5
13D6
  8
0
 10
38.615331533161893
 20
127.6825829228375
 30
-0.0000000000020391
 11
36.742803188769102
 21
127.9051950952027
 31
-0.0000000000020391
  0
LINE
  5
13D7
  8
0
 10
36.742803188769102
 20
127.9051950952027
 30
-0.0000000000020391
 11
34.984805169312231
 21
128.2370774826023
 31
-0.0000000000020391
  0
LINE
  5
13D8
  8
0
 10
34.984805169312231
 20
128.2370774826023
 30
-0.0000000000020391
 11
33.39455371236609
 21
128.6617307743046
 31
-0.0000000000020391
  0
LINE
  5
13D9
  8
0
 10
33.39455371236609
 20
128.6617307743046
 30
-0.0000000000020391
 11
31.945996000228391
 21
129.19065121617049
 31
-0.0000000000020391
  0
LINE
  5
13DA
  8
0
 10
31.945996000228391
 20
129.19065121617049
 30
-0.0000000000020391
 11
30.748982927558881
 21
129.7851293167088
 31
-0.0000000000020391
  0
LINE
  5
13DB
  8
0
 10
30.748982927558881
 20
129.7851293167088
 30
-0.0000000000020391
 11
29.779257266579119
 21
130.4692230006668
 31
-0.0000000000020391
  0
LINE
  5
13DC
  8
0
 10
29.779257266579119
 20
130.4692230006668
 30
-0.0000000000020391
 11
29.138557626662688
 21
131.18440795745579
 31
-0.0000000000020391
  0
LINE
  5
13DD
  8
0
 10
29.138557626662688
 20
131.18440795745579
 30
-0.0000000000020391
 11
28.821624829230728
 21
132.15909663643569
 31
-0.0000000000020391
  0
LINE
  5
13DE
  8
0
 10
243.47589723775971
 20
133.90392947997779
 30
0.0
 11
243.75267885635481
 21
132.97961045112339
 31
-0.0000000000020391
  0
LINE
  5
13DF
  8
0
 10
243.75267885635481
 20
132.97961045112339
 30
-0.0000000000020391
 11
244.0670626239
 21
132.28226590957379
 31
-0.0000000000020391
  0
LINE
  5
13E0
  8
0
 10
244.0670626239
 20
132.28226590957379
 30
-0.0000000000020391
 11
245.07740279669741
 21
131.21325288023681
 31
-0.0000000000020391
  0
LINE
  5
13E1
  8
0
 10
245.07740279669741
 20
131.21325288023681
 30
-0.0000000000020391
 11
246.32741464312059
 21
130.57163123097149
 31
-0.0000000000020391
  0
LINE
  5
13E2
  8
0
 10
246.32741464312059
 20
130.57163123097149
 30
-0.0000000000020391
 11
247.68560519452069
 21
130.2077262481663
 31
-0.0000000000020391
  0
LINE
  5
13E3
  8
0
 10
247.68560519452069
 20
130.2077262481663
 30
-0.0000000000020391
 11
249.111810932037
 21
129.98309496845931
 31
-0.0000000000020391
  0
LINE
  5
13E4
  8
0
 10
249.111810932037
 20
129.98309496845931
 30
-0.0000000000020391
 11
251.06260541370941
 21
129.83523819651339
 31
-0.0000000000020391
  0
LINE
  5
13E5
  8
0
 10
251.06260541370941
 20
129.83523819651339
 30
-0.0000000000020391
 11
252.63887776246631
 21
129.81012228932121
 31
-0.0000000000020391
  0
LINE
  5
13E6
  8
0
 10
252.63887776246631
 20
129.81012228932121
 30
-0.0000000000020391
 11
254.8557328992604
 21
129.87279284801221
 31
-0.0000000000020391
  0
LINE
  5
13E7
  8
0
 10
254.8557328992604
 20
129.87279284801221
 30
-0.0000000000020391
 11
256.13019382591239
 21
129.9986964842293
 31
-0.0000000000020391
  0
LINE
  5
13E8
  8
0
 10
256.13019382591239
 20
129.9986964842293
 30
-0.0000000000020391
 11
257.4036158622323
 21
130.21410767044759
 31
-0.0000000000020391
  0
LINE
  5
13E9
  8
0
 10
257.4036158622323
 20
130.21410767044759
 30
-0.0000000000020391
 11
258.56540212417832
 21
130.52182409968111
 31
-0.0000000000020391
  0
LINE
  5
13EA
  8
0
 10
258.56540212417832
 20
130.52182409968111
 30
-0.0000000000020391
 11
259.72910877327308
 21
131.07878107633331
 31
-0.0000000000020391
  0
LINE
  5
13EB
  8
0
 10
259.72910877327308
 20
131.07878107633331
 30
-0.0000000000020391
 11
260.30401885519609
 21
131.53455544318891
 31
-0.0000000000020391
  0
LINE
  5
13EC
  8
0
 10
260.30401885519609
 20
131.53455544318891
 30
-0.0000000000020391
 11
260.81147510568491
 21
132.14331630673141
 31
-0.0000000000020391
  0
LINE
  5
13ED
  8
0
 10
260.81147510568491
 20
132.14331630673141
 30
-0.0000000000020391
 11
261.1764790491282
 21
132.89606336559979
 31
-0.0000000000020391
  0
LINE
  5
13EE
  8
0
 10
261.1764790491282
 20
132.89606336559979
 30
-0.0000000000020391
 11
261.4758964628993
 21
133.9036687096569
 31
0.0
  0
LINE
  5
13EF
  8
0
 10
248.7361605745821
 20
147.16779206003881
 30
-0.0000000000020391
 11
247.06022348265029
 21
146.78798753823969
 31
-0.0000000000020391
  0
LINE
  5
13F0
  8
0
 10
247.06022348265029
 20
146.78798753823969
 30
-0.0000000000020391
 11
245.21254748116121
 21
145.60752127375341
 31
-0.0000000000020391
  0
LINE
  5
13F1
  8
0
 10
259.73924621949777
 20
145.60752127375341
 30
-0.0000000000020391
 11
257.8915702180085
 21
146.78798753823969
 31
-0.0000000000020391
  0
LINE
  5
13F2
  8
0
 10
257.8915702180085
 20
146.78798753823969
 30
-0.0000000000020391
 11
256.21563312607691
 21
147.16779206003881
 31
-0.0000000000020391
  0
LINE
  5
13F3
  8
0
 10
240.80511741350301
 20
134.4377151509735
 30
-0.0000000000020391
 11
240.73488451550611
 21
134.46344573106501
 31
-0.0000000000020391
  0
LINE
  5
13F4
  8
0
 10
240.73488451550611
 20
134.46344573106501
 30
-0.0000000000020391
 11
240.17046764503129
 21
134.25731796827051
 31
-0.0000000000020391
  0
LINE
  5
13F5
  8
0
 10
264.78115189830669
 20
134.25739247407651
 30
-0.0000000000020391
 11
264.21226467947361
 21
134.46762923207021
 31
-0.0000000000020391
  0
LINE
  5
13F6
  8
0
 10
264.21226467947361
 20
134.46762923207021
 30
-0.0000000000020391
 11
264.14852403114452
 21
134.44122064914441
 31
-0.0000000000020391
  0
LINE
  5
13FB
  8
0
 10
261.4483097569165
 20
141.77568767275551
 30
-0.0000000000020391
 11
261.4593263716518
 21
141.73889670576779
 31
-0.0000000000020391
  0
LINE
  5
13FC
  8
0
 10
261.4593263716518
 20
141.73889670576779
 30
-0.0000000000020391
 11
261.39474939565048
 21
141.69030029382441
 31
-0.0000000000020391
  0
LINE
  5
13FD
  8
0
 10
243.53708606223449
 20
141.69221881832809
 30
-0.0000000000020391
 11
243.4759680182753
 21
141.78154010381431
 31
-0.0000000000020391
  0
LINE
  5
13FE
  8
0
 10
243.4759680182753
 20
141.78154010381431
 30
-0.0000000000020391
 11
243.47770866016731
 21
141.783644892833
 31
-0.0000000000020391
  0
LINE
  5
146E
  8
0
 10
115.9728656074944
 20
136.12572986688349
 30
-0.0000000000020391
 11
114.6189088485184
 21
135.72038102950779
 31
-0.0000000000020391
  0
LINE
  5
146F
  8
0
 10
114.6189088485184
 20
135.72038102950779
 30
-0.0000000000020391
 11
113.3661253861132
 21
135.34037161674229
 31
-0.0000000000020391
  0
LINE
  5
1470
  8
0
 10
113.3661253861132
 20
135.34037161674229
 30
-0.0000000000020391
 11
113.2820660731736
 21
135.3146335860703
 31
-0.0000000000020391
  0
LINE
  5
1471
  8
0
 10
110.2482664882186
 20
134.367873408458
 30
-0.0000000000020391
 11
112.9956406093183
 21
135.2267167350266
 31
-0.0000000000020391
  0
LINE
  5
1472
  8
0
 10
112.9956406093183
 20
135.2267167350266
 30
-0.0000000000020391
 11
113.2829154393616
 21
135.31489435639119
 31
-0.0000000000020391
  0
LINE
  5
1473
  8
0
 10
125.6207118294182
 20
97.714036685040952
 30
-0.0000000000020391
 11
124.1547802946511
 21
95.285743922552811
 31
-0.0000000000020391
  0
LINE
  5
1474
  8
0
 10
124.1547802946511
 20
95.285743922552811
 30
-0.0000000000020391
 11
123.60978522514731
 21
93.063273914715992
 31
-0.0000000000020391
  0
LINE
  5
1477
  8
0
 10
116.97840807204869
 20
68.564629659571693
 30
-0.0000000000020391
 11
122.9746642074528
 21
68.032950640239775
 31
-0.0000000000020391
  0
LINE
  5
1478
  8
0
 10
122.9746642074528
 20
68.032950640239775
 30
-0.0000000000020391
 11
129.44409647201931
 21
67.507100768902333
 31
-0.0000000000020391
  0
LINE
  5
1479
  8
0
 10
129.44409647201931
 20
67.507100768902333
 30
-0.0000000000020391
 11
136.2983940652552
 21
67.003981687643559
 31
-0.0000000000020391
  0
LINE
  5
147A
  8
0
 10
136.294996600503
 20
46.657095209279099
 30
-0.0000000000020391
 11
129.38488112008011
 21
46.149623126306579
 31
-0.0000000000020391
  0
LINE
  5
147B
  8
0
 10
129.38488112008011
 20
46.149623126306579
 30
-0.0000000000020391
 11
122.9270251951161
 21
45.624305971481853
 31
-0.0000000000020391
  0
LINE
  5
147C
  8
0
 10
122.9270251951161
 20
45.624305971481853
 30
-0.0000000000020391
 11
116.97840807204869
 21
45.096682861962393
 31
-0.0000000000020391
  0
LINE
  5
147D
  8
0
 10
170.673964779729
 20
48.345379077413078
 30
-0.0000000000020391
 11
165.6935794762316
 21
48.186889395632747
 31
-0.0000000000020391
  0
LINE
  5
147E
  8
0
 10
165.6935794762316
 20
48.186889395632747
 30
-0.0000000000020391
 11
160.78200773512751
 21
48.002059117474573
 31
-0.0000000000020391
  0
LINE
  5
147F
  8
0
 10
160.78200773512751
 20
48.002059117474573
 30
-0.0000000000020391
 11
155.53305880343351
 21
47.773194045343402
 31
-0.0000000000020391
  0
LINE
  5
1480
  8
0
 10
155.53305880343351
 20
47.773194045343402
 30
-0.0000000000020391
 11
150.69235325967699
 21
47.533406422057141
 31
-0.0000000000020391
  0
LINE
  5
1481
  8
0
 10
150.69235325967699
 20
47.533406422057141
 30
-0.0000000000020391
 11
145.8719058445636
 21
47.267211147167693
 31
-0.0000000000020391
  0
LINE
  5
1482
  8
0
 10
145.87164879953301
 20
66.394116275527495
 30
-0.0000000000020391
 11
151.92516730343729
 21
66.064221330502036
 31
-0.0000000000020391
  0
LINE
  5
1483
  8
0
 10
151.92516730343729
 20
66.064221330502036
 30
-0.0000000000020391
 11
158.1247134617511
 21
65.771068923690322
 31
-0.0000000000020391
  0
LINE
  5
1484
  8
0
 10
158.1247134617511
 20
65.771068923690322
 30
-0.0000000000020391
 11
164.37077732002169
 21
65.521413937726024
 31
-0.0000000000020391
  0
LINE
  5
1485
  8
0
 10
164.37077732002169
 20
65.521413937726024
 30
-0.0000000000020391
 11
170.673964779729
 21
65.315933444120887
 31
-0.0000000000020391
  0
LINE
  5
1486
  8
1
 10
252.4758968503296
 20
149.1685371180985
 30
0.0
 11
252.4758968503296
 21
88.168537088296191
 31
0.0
  0
LINE
  5
1487
  8
1
 10
261.47589685032972
 20
113.16853708829611
 30
0.0
 11
243.47589685032969
 21
113.16853708829611
 31
0.0
  0
CIRCLE
  5
14AD
  8
3
  6
CONTINUOUS
 10
103.5625620297137
 20
56.830656260767142
 30
0.0
 40
5.0
  0
CIRCLE
  5
14AE
  8
0
 10
103.5625620297137
 20
56.830656260767142
 30
0.0
 40
4.1879999999999979
  0
LINE
  5
14B0
  8
1
 10
195.5625621988178
 20
56.830656260767142
 30
0.0
 11
85.562562029713703
 21
56.830656260767142
 31
0.0
  0
LINE
  5
14B3
  8
1
 10
103.5625620297137
 20
74.830656260767142
 30
0.0
 11
103.5625620297137
 21
38.830656260767157
 31
0.0
  0
LINE
  5
14BA
  8
1
 10
138.76256202971371
 20
61.730646886458082
 30
0.0
 11
138.76256202971371
 21
51.930656260767122
 31
0.0
  0
LINE
  5
14E0
  8
2
 10
98.562562029713732
 20
115.16853708829611
 30
0.0
 11
98.562562029713689
 21
90.168537088296205
 31
0.0
  0
LINE
  5
14E1
  8
2
 10
99.374562029713516
 20
90.168537088296162
 30
0.0
 11
99.374562029713516
 21
115.16853708829611
 31
0.0
  0
LINE
  5
14E2
  8
2
 10
108.5625620297137
 20
90.168537088296162
 30
0.0
 11
108.5625620297137
 21
115.16853708829611
 31
0.0
  0
LINE
  5
14E3
  8
2
 10
107.75056202971371
 20
90.168537088296162
 30
0.0
 11
107.75056202971371
 21
115.16853708829611
 31
0.0
  0
LINE
  5
14E4
  8
2
 10
108.5625620297137
 20
115.16853708829611
 30
0.0
 11
98.562562029713703
 21
115.16853708829611
 31
0.0
  0
LINE
  5
150B
  8
2
 10
46.321625015495123
 20
90.168537088296162
 30
0.0
 11
46.321625015495123
 21
115.16853708829611
 31
0.0
  0
LINE
  5
150C
  8
2
 10
45.509625015495111
 20
90.168537088296162
 30
0.0
 11
45.509625015495111
 21
115.16853708829611
 31
0.0
  0
LINE
  5
150D
  8
2
 10
46.321625015495123
 20
115.16853708829611
 30
0.0
 11
36.321625015495123
 21
115.16853708829611
 31
0.0
  0
LINE
  5
150E
  8
2
 10
36.321625015495137
 20
115.16853708829611
 30
0.0
 11
36.321625015495101
 21
90.168537088296205
 31
0.0
  0
LINE
  5
150F
  8
2
 10
37.133625015494928
 20
90.168537088296162
 30
0.0
 11
37.133625015494928
 21
115.16853708829611
 31
0.0
  0
LINE
  5
1536
  8
2
 10
257.4758968503296
 20
90.168537088296162
 30
0.0
 11
257.4758968503296
 21
115.16853708829611
 31
0.0
  0
LINE
  5
1537
  8
2
 10
256.66389685032959
 20
90.168537088296162
 30
0.0
 11
256.66389685032959
 21
115.16853708829611
 31
0.0
  0
LINE
  5
1538
  8
2
 10
257.4758968503296
 20
115.16853708829611
 30
0.0
 11
247.4758968503296
 21
115.16853708829611
 31
0.0
  0
LINE
  5
1539
  8
2
 10
247.47589685032969
 20
115.16853708829611
 30
0.0
 11
247.4758968503296
 21
90.168537088296205
 31
0.0
  0
LINE
  5
153A
  8
2
 10
248.2878968503293
 20
90.168537088296162
 30
0.0
 11
248.2878968503293
 21
115.16853708829611
 31
0.0
  0
LINE
  5
153B
  8
0
 10
123.60978522514731
 20
60.674617311501038
 30
0.0
 11
123.60978522514731
 21
52.986695210033268
 31
0.0
  0
CIRCLE
  5
1A1E
  8
3
 10
138.76256202971359
 20
56.830651573612592
 30
0.0
 40
2.0670000000001991
  0
CIRCLE
  5
1A1F
  8
0
 10
138.76256202971371
 20
56.830651573612592
 30
0.0
 40
2.5000000000000071
  0
CIRCLE
  5
1A20
  8
0
 10
138.76256202971359
 20
56.830651573612592
 30
0.0
 40
2.899995312845475
  0
CIRCLE
  5
1A21
  8
3
 10
252.47589685032969
 20
113.16853708829611
 30
0.0
 40
5.917499999999988
  0
CIRCLE
  5
1A22
  8
0
 10
252.47589685032969
 20
113.16853708829611
 30
0.0
 40
7.0
  0
POLYLINE
  5
1D4F
  8
0
  6
CONTINUOUS
 62
     7
 66
     1
 10
0.0
 20
0.0
 30
0.0
 70
   128
  0
VERTEX
  5
20EF
  8
0
  6
CONTINUOUS
 62
     7
 10
112.5147148644368
 20
132.0277095726789
 30
0.0
  0
VERTEX
  5
20F0
  8
0
  6
CONTINUOUS
 62
     7
 10
112.38173038268491
 20
132.5058133295835
 30
0.0
  0
VERTEX
  5
20F1
  8
0
  6
CONTINUOUS
 62
     7
 10
112.18421362841531
 20
132.99783477104319
 30
0.0
  0
VERTEX
  5
20F2
  8
0
  6
CONTINUOUS
 62
     7
 10
111.9250498389642
 20
133.46732193148739
 30
0.0
  0
VERTEX
  5
20F3
  8
0
  6
CONTINUOUS
 62
     7
 10
111.6177115266959
 20
133.87359091556681
 30
0.0
  0
VERTEX
  5
20F4
  8
0
  6
CONTINUOUS
 62
     7
 10
111.2847855923514
 20
134.18172830260411
 30
0.0
  0
VERTEX
  5
20F5
  8
0
  6
CONTINUOUS
 62
     7
 10
110.95278539264601
 20
134.37186339414731
 30
0.0
  0
VERTEX
  5
20F6
  8
0
  6
CONTINUOUS
 62
     7
 10
110.6455416096191
 20
134.44304996646059
 30
0.0
  0
VERTEX
  5
20F7
  8
0
  6
CONTINUOUS
 62
     7
 10
110.37936775514881
 20
134.4103270164789
 30
0.0
  0
SEQEND
  5
20F8
  8
0
  6
CONTINUOUS
 62
     7
  0
LINE
  5
1D55
  8
0
  6
CONTINUOUS
 62
     7
 10
112.6070238327424
 20
106.7827471486391
 30
0.0
 11
112.5147148644368
 21
106.7347244314016
 31
0.0
  0
LINE
  5
1D57
  8
0
  6
CONTINUOUS
 62
     7
 10
114.93601758534111
 20
107.0519310376705
 30
0.0
 11
114.93601758534111
 21
93.210990722394115
 31
0.0
  0
LINE
  5
1D58
  8
0
  6
CONTINUOUS
 62
     7
 10
112.5147148644368
 20
106.7347244314016
 30
0.0
 11
112.5147148644368
 21
132.0277095726789
 31
0.0
  0
ARC
  5
1D5A
  8
0
  6
CONTINUOUS
 62
     7
 10
114.0532347496885
 20
93.084419179086069
 30
0.0
 40
0.8918104565983636
 50
281.65325782461531
 51
8.1593402923012484
  0
ARC
  5
1D62
  8
0
  6
CONTINUOUS
 62
     7
 10
-162.70602279418421
 20
409.6788956040204
 30
0.0
 40
409.52202233967631
 50
312.7040795792463
 51
313.25862695887002
  0
ARC
  5
1D63
  8
0
  6
CONTINUOUS
 62
     7
 10
91.210517329693857
 20
136.55907974334059
 30
0.0
 40
36.631541769629742
 50
305.76529197281673
 51
310.5739355220407
  0
LINE
  5
1D64
  8
0
  6
CONTINUOUS
 62
     7
 10
112.6067081143896
 20
106.78276018715511
 30
0.0
 11
112.6204171826879
 21
106.8355866662325
 31
0.0
  0
ARC
  5
1D65
  8
0
  6
CONTINUOUS
 62
     7
 10
120.0959822398964
 20
107.5877006598768
 30
0.0
 40
5.1877051115439201
 50
167.2234378338359
 51
185.92789513310029
  0
ARC
  5
1D77
  8
0
  6
CONTINUOUS
 62
     7
 10
173.40559634518809
 20
54.663167836894857
 30
0.0
 40
79.352207509582087
 50
117.3880537963018
 51
132.8393354076062
  0
POLYLINE
  5
1D78
  8
0
  6
CONTINUOUS
 62
     7
 66
     1
 10
0.0
 20
0.0
 30
0.0
 70
   128
  0
VERTEX
  5
20F9
  8
0
  6
CONTINUOUS
 62
     7
 10
117.93641016388339
 20
111.4371956280531
 30
0.0
  0
VERTEX
  5
20FA
  8
0
  6
CONTINUOUS
 62
     7
 10
117.9364539360444
 20
111.4372366062464
 30
0.0
  0
VERTEX
  5
20FB
  8
0
  6
CONTINUOUS
 62
     7
 10
119.45046965533891
 20
112.8492240748466
 30
0.0
  0
SEQEND
  5
20FC
  8
0
  6
CONTINUOUS
 62
     7
  0
ARC
  5
1D81
  8
0
  6
CONTINUOUS
 62
     7
 10
153.22204918953341
 20
94.953070422750585
 30
0.0
 40
34.298297395931712
 50
101.1499693266729
 51
118.4115694282963
  0
LINE
  5
1EE8
  8
1
 10
144.5625624946299
 20
113.16853708829611
 30
0.0
 11
134.5625624946299
 21
113.16853708829611
 31
0.0
  0
TEXT
  5
20D0
  8
0
 62
     3
 10
0.0
 20
0.0
 30
0.0
 40
10.0
  1
ATCL10-BK
  7
STANDARD1
  0
ENDSEC
  0
EOF
