  0
SECTION
  2
HEADER
  9
$ACADVER
  1
AC1009
  9
$INSBASE
 10
0.0
 20
0.0
 30
0.0
  9
$EXTMIN
 10
-0.0204638472032742
 20
-2.960436562073669
 30
0.0
  9
$EXTMAX
 10
173.5
 20
111.73798829458821
 30
0.0
  9
$LIMMIN
 10
0.0
 20
0.0
  9
$LIMMAX
 10
187.5
 20
135.0
  9
$ORTHOMODE
 70
     1
  9
$REGENMODE
 70
     1
  9
$FILLMODE
 70
     1
  9
$QTEXTMODE
 70
     0
  9
$MIRRTEXT
 70
     0
  9
$DRAGMODE
 70
     2
  9
$LTSCALE
 40
5.0
  9
$OSMODE
 70
  3071
  9
$ATTMODE
 70
     1
  9
$TEXTSIZE
 40
5.0
  9
$TRACEWID
 40
0.05
  9
$TEXTSTYLE
  7
STANDARD
  9
$CLAYER
  8
0
  9
$CELTYPE
  6
BYLAYER
  9
$CECOLOR
 62
   256
  9
$DIMSCALE
 40
0.5
  9
$DIMASZ
 40
3.0
  9
$DIMEXO
 40
2.0
  9
$DIMDLI
 40
10.0
  9
$DIMRND
 40
0.0
  9
$DIMDLE
 40
0.0
  9
$DIMEXE
 40
2.0
  9
$DIMTP
 40
0.0
  9
$DIMTM
 40
0.0
  9
$DIMTXT
 40
3.2000000000000002
  9
$DIMCEN
 40
0.0
  9
$DIMTSZ
 40
0.0
  9
$DIMTOL
 70
     0
  9
$DIMLIM
 70
     0
  9
$DIMTIH
 70
     0
  9
$DIMTOH
 70
     0
  9
$DIMSE1
 70
     0
  9
$DIMSE2
 70
     0
  9
$DIMTAD
 70
     1
  9
$DIMZIN
 70
     0
  9
$DIMBLK
  1

  9
$DIMASO
 70
     0
  9
$DIMSHO
 70
     0
  9
$DIMPOST
  1

  9
$DIMAPOST
  1

  9
$DIMALT
 70
     0
  9
$DIMALTD
 70
     2
  9
$DIMALTF
 40
25.399999999999999
  9
$DIMLFAC
 40
1.0
  9
$DIMTOFL
 70
     1
  9
$DIMTVP
 40
1.6000000000000001
  9
$DIMTIX
 70
     1
  9
$DIMSOXD
 70
     0
  9
$DIMSAH
 70
     0
  9
$DIMBLK1
  1

  9
$DIMBLK2
  1

  9
$DIMSTYLE
  2
STANDARD
  9
$DIMCLRD
 70
     0
  9
$DIMCLRE
 70
     0
  9
$DIMCLRT
 70
     0
  9
$DIMTFAC
 40
1.0
  9
$DIMGAP
 40
0.09
  9
$LUNITS
 70
     2
  9
$LUPREC
 70
     4
  9
$SKETCHINC
 40
0.1
  9
$FILLETRAD
 40
0.0
  9
$AUNITS
 70
     0
  9
$AUPREC
 70
     4
  9
$MENU
  1
E:\r13\win\SUPPORT\ACAD
  9
$ELEVATION
 40
0.0
  9
$PELEVATION
 40
0.0
  9
$THICKNESS
 40
0.0
  9
$LIMCHECK
 70
     0
  9
$BLIPMODE
 70
     0
  9
$CHAMFERA
 40
0.0
  9
$CHAMFERB
 40
0.0
  9
$SKPOLY
 70
     0
  9
$TDCREATE
 40
2449839.779502315
  9
$TDUPDATE
 40
2456597.563216297
  9
$TDINDWG
 40
0.0000970486
  9
$TDUSRTIMER
 40
0.0000970486
  9
$USRTIMER
 70
     1
  9
$ANGBASE
 50
0.0
  9
$ANGDIR
 70
     0
  9
$PDMODE
 70
    35
  9
$PDSIZE
 40
0.0
  9
$PLINEWID
 40
0.0
  9
$COORDS
 70
     1
  9
$SPLFRAME
 70
     0
  9
$SPLINETYPE
 70
     6
  9
$SPLINESEGS
 70
     8
  9
$ATTDIA
 70
     0
  9
$ATTREQ
 70
     1
  9
$HANDLING
 70
     1
  9
$HANDSEED
  5
2E6
  9
$SURFTAB1
 70
     6
  9
$SURFTAB2
 70
     6
  9
$SURFTYPE
 70
     6
  9
$SURFU
 70
     6
  9
$SURFV
 70
     6
  9
$UCSNAME
  2

  9
$UCSORG
 10
0.0
 20
0.0
 30
0.0
  9
$UCSXDIR
 10
1.0
 20
0.0
 30
0.0
  9
$UCSYDIR
 10
0.0
 20
1.0
 30
0.0
  9
$PUCSNAME
  2

  9
$PUCSORG
 10
0.0
 20
0.0
 30
0.0
  9
$PUCSXDIR
 10
1.0
 20
0.0
 30
0.0
  9
$PUCSYDIR
 10
0.0
 20
1.0
 30
0.0
  9
$USERI1
 70
     0
  9
$USERI2
 70
     1
  9
$USERI3
 70
     0
  9
$USERI4
 70
     0
  9
$USERI5
 70
     0
  9
$USERR1
 40
0.0
  9
$USERR2
 40
0.0
  9
$USERR3
 40
0.0
  9
$USERR4
 40
0.0
  9
$USERR5
 40
0.0
  9
$WORLDVIEW
 70
     1
  9
$SHADEDGE
 70
     3
  9
$SHADEDIF
 70
    70
  9
$TILEMODE
 70
     1
  9
$MAXACTVP
 70
    16
  9
$PLIMCHECK
 70
     0
  9
$PEXTMIN
 10
1.0000000000000000E+020
 20
1.0000000000000000E+020
 30
1.0000000000000000E+020
  9
$PEXTMAX
 10
-1.0000000000000000E+020
 20
-1.0000000000000000E+020
 30
-1.0000000000000000E+020
  9
$PLIMMIN
 10
0.0
 20
0.0
  9
$PLIMMAX
 10
12.0
 20
9.0
  9
$UNITMODE
 70
     0
  9
$VISRETAIN
 70
     0
  9
$PLINEGEN
 70
     0
  9
$PSLTSCALE
 70
     0
  0
ENDSEC
  0
SECTION
  2
TABLES
  0
TABLE
  2
VPORT
 70
     1
  0
VPORT
  2
*ACTIVE
 70
     0
 10
0.0
 20
0.0
 11
1.0
 21
1.0
 12
97.555845655288337
 22
66.014785922033241
 13
0.0
 23
0.0
 14
5.0
 24
5.0
 15
5.0
 25
5.0
 16
0.0
 26
0.0
 36
1.0
 17
0.0
 27
0.0
 37
0.0
 40
139.20783109903601
 41
1.831871345029239
 42
50.0
 43
0.0
 44
0.0
 50
0.0
 51
0.0
 71
     0
 72
   500
 73
     1
 74
     0
 75
     0
 76
     0
 77
     0
 78
     2
  0
ENDTAB
  0
TABLE
  2
LTYPE
 70
     4
  0
LTYPE
  2
CONTINUOUS
 70
     0
  3
Solid Line
 72
    65
 73
     0
 40
0.0
  0
LTYPE
  2
CENTER
 70
     0
  3
____ _ ____ _ ____ _ ____ _ ____ _ ____ _ ____
 72
    65
 73
     4
 40
2.0
 49
1.25
 49
-0.25
 49
0.25
 49
-0.25
  0
LTYPE
  2
HIDDEN
 70
     0
  3
_ _ _ _ _ _ _ _ _ _ _ _ _ _ _ _ _ _ _ _ _ _ _
 72
    65
 73
     2
 40
0.375
 49
0.25
 49
-0.125
  0
LTYPE
  2
PHANTOM2
 70
     0
  3
___ _ _ ___ _ _ ___ _ _ ___ _ _
 72
    65
 73
     6
 40
1.25
 49
0.625
 49
-0.125
 49
0.125
 49
-0.125
 49
0.125
 49
-0.125
  0
ENDTAB
  0
TABLE
  2
LAYER
 70
     4
  0
LAYER
  2
0
 70
     0
 62
     7
  6
CONTINUOUS
  0
LAYER
  2
1
 70
     0
 62
     1
  6
CENTER
  0
LAYER
  2
2
 70
     0
 62
     2
  6
HIDDEN
  0
LAYER
  2
3
 70
     0
 62
     3
  6
CONTINUOUS
  0
ENDTAB
  0
TABLE
  2
STYLE
 70
     2
  0
STYLE
  2
STANDARD
 70
     0
 40
0.0
 41
1.0
 50
0.0
 71
     0
 42
5.0
  3
TXT
  4
BIGFONT
  0
STYLE
  2
STANDARD1
 70
     0
 40
0.0
 41
1.0
 50
0.0
 71
     0
 42
3.0
  3
txt
  4

  0
ENDTAB
  0
TABLE
  2
VIEW
 70
     1
  0
VIEW
  2
ALL
 70
     0
 40
270.0
 10
220.99159663865549
 20
135.0
 41
0.0
 11
0.0
 21
0.0
 31
1.0
 12
0.0
 22
0.0
 32
0.0
 42
0.0
 43
0.0
 44
0.0
 50
0.0
 71
     0
  0
ENDTAB
  0
TABLE
  2
UCS
 70
     0
  0
ENDTAB
  0
TABLE
  2
APPID
 70
     3
  0
APPID
  2
ACAD
 70
     0
  0
APPID
  2
ACAD_MLEADERVER
 70
     0
  0
APPID
  2
ACAD_NAV_VCDISPLAY
 70
     0
  0
ENDTAB
  0
TABLE
  2
DIMSTYLE
 70
     1
  0
DIMSTYLE
  2
STANDARD
 70
     0
  3

  4

  5

  6

  7

 40
1.0
 41
0.18
 42
0.0625
 43
0.38
 44
0.18
 45
0.0
 46
0.0
 47
0.0
 48
0.0
140
0.18
141
0.09
142
0.0
143
25.399999999999999
144
1.0
145
0.0
146
1.0
147
0.09
 71
     0
 72
     0
 73
     1
 74
     1
 75
     0
 76
     0
 77
     0
 78
     0
170
     0
171
     2
172
     0
173
     0
174
     0
175
     0
176
     0
177
     0
178
     0
  0
ENDTAB
  0
ENDSEC
  0
SECTION
  2
BLOCKS
  0
BLOCK
  8
0
  2
$MODEL_SPACE
 70
     0
 10
0.0
 20
0.0
 30
0.0
  3
$MODEL_SPACE
  1

  0
ENDBLK
  5
161
  8
0
  0
BLOCK
 67
     1
  8
0
  2
$PAPER_SPACE
 70
     0
 10
0.0
 20
0.0
 30
0.0
  3
$PAPER_SPACE
  1

  0
ENDBLK
  5
15F
 67
     1
  8
0
  0
ENDSEC
  0
SECTION
  2
ENTITIES
  0
LINE
  5
36
  8
0
 10
115.7074089144584
 20
41.544942731037729
 30
0.0
 11
115.2074089144584
 21
42.044942731037729
 31
0.0
  0
LINE
  5
37
  8
0
 10
140.20740891445851
 20
42.04494273103785
 30
0.0
 11
139.70740891445851
 21
41.54494273103785
 31
0.0
  0
LINE
  5
38
  8
0
 10
139.7074089144586
 20
56.54494273103797
 30
0.0
 11
140.20740891445871
 21
56.044942731037963
 31
0.0
  0
LINE
  5
39
  8
0
 10
115.7074089144585
 20
56.54494273103797
 30
0.0
 11
115.2074089144585
 21
56.044942731037963
 31
0.0
  0
LINE
  5
3A
  8
0
 10
89.707408260868675
 20
56.544942731037729
 30
0.0
 11
90.207408260868675
 21
56.044942731037743
 31
0.0
  0
LINE
  5
3B
  8
0
 10
75.707408260868732
 20
56.54494273103785
 30
0.0
 11
75.207408260868732
 21
56.04494273103785
 31
0.0
  0
LINE
  5
3C
  8
0
 10
43.08234863254966
 20
56.54494273103797
 30
0.0
 11
43.58234863254966
 21
56.044942731037963
 31
0.0
  0
LINE
  5
3D
  8
0
 10
9.0823486325496106
 20
56.54494273103797
 30
0.0
 11
8.5823486325496106
 21
56.044942731037963
 31
0.0
  0
LINE
  5
3E
  8
0
 10
115.7074089144584
 20
41.544942731037729
 30
0.0
 11
139.70740891445851
 21
41.54494273103785
 31
0.0
  0
LINE
  5
3F
  8
0
 10
75.707408260868789
 20
111.2379882945872
 30
0.0
 11
75.207408260868775
 21
110.7379882945872
 31
0.0
  0
LINE
  5
40
  8
0
 10
89.707408260868789
 20
111.2379882945871
 30
0.0
 11
90.207408260868775
 21
110.7379882945871
 31
0.0
  0
LINE
  5
41
  8
0
 10
115.7074082608686
 20
101.2379882945871
 30
0.0
 11
115.2074082608687
 21
100.7379882945871
 31
0.0
  0
LINE
  5
42
  8
0
 10
129.20740826086859
 20
101.2379882945871
 30
0.0
 11
129.7074082608687
 21
100.7379882945871
 31
0.0
  0
LINE
  5
43
  8
0
 10
140.20740826086859
 20
96.737988294586984
 30
0.0
 11
139.70740826086859
 21
97.237988294586984
 31
0.0
  0
LINE
  5
44
  8
0
 10
139.70740826086859
 20
90.23798829458687
 30
0.0
 11
140.2074082608687
 21
90.737988294586856
 31
0.0
  0
LINE
  5
45
  8
0
 10
129.2074082608687
 20
86.237988294587097
 30
0.0
 11
129.7074082608687
 21
86.737988294587083
 31
0.0
  0
LINE
  5
46
  8
0
 10
115.2074082608687
 20
86.737988294586984
 30
0.0
 11
115.7074082608686
 21
86.237988294586984
 31
0.0
  0
LINE
  5
47
  8
0
 10
89.707408260868789
 20
76.237988294587325
 30
0.0
 11
90.207408260868775
 21
76.737988294587325
 31
0.0
  0
LINE
  5
48
  8
0
 10
75.207408260868846
 20
76.737988294587325
 30
0.0
 11
75.707408260868846
 21
76.237988294587325
 31
0.0
  0
ARC
  5
49
  8
0
 10
130.1074082608686
 20
97.637988294586961
 30
0.0
 40
0.4
 50
180.0
 51
269.99999999999989
  0
ARC
  5
4A
  8
0
 10
130.1074082608686
 20
89.837988294586907
 30
0.0
 40
0.4
 50
90.0
 51
179.99999999999989
  0
LINE
  5
4B
  8
2
 10
137.60740826086851
 20
90.737988294587083
 30
0.0
 11
137.60740826086851
 21
96.737988294587112
 31
0.0
  0
LINE
  5
4C
  8
2
 10
133.8074082608685
 20
90.737988294586756
 30
0.0
 11
133.8074082608685
 21
96.737988294586984
 31
0.0
  0
LINE
  5
4D
  8
2
 10
133.8074082608685
 20
96.737988294587112
 30
0.0
 11
137.60740826086851
 21
96.737988294587112
 31
0.0
  0
LINE
  5
4E
  8
2
 10
133.8074082608685
 20
90.737988294586984
 30
0.0
 11
137.60740826086851
 21
90.737988294586856
 31
0.0
  0
LINE
  5
4F
  8
2
 10
133.3074082608685
 20
97.237988294586984
 30
0.0
 11
133.8074082608685
 21
96.737988294586984
 31
0.0
  0
LINE
  5
50
  8
2
 10
133.8074082608685
 20
90.737988294586756
 30
0.0
 11
133.3074082608685
 21
90.237988294586756
 31
0.0
  0
LINE
  5
51
  8
2
 10
137.60740826086851
 20
90.737988294587083
 30
0.0
 11
138.10740826086851
 21
90.237988294587097
 31
0.0
  0
LINE
  5
52
  8
2
 10
137.60740826086851
 20
96.737988294587112
 30
0.0
 11
138.10740826086851
 21
97.237988294587097
 31
0.0
  0
LINE
  5
53
  8
0
 10
61.711725275174018
 20
93.73798829458687
 30
0.0
 11
65.207408260868675
 21
93.73798829458687
 31
0.0
  0
ARC
  5
54
  8
0
 10
68.486029545687614
 20
91.23798829458687
 30
0.0
 40
7.2208862578987887
 50
159.7438419996262
 51
200.2561580003738
  0
LINE
  5
55
  8
0
 10
61.265143287788788
 20
88.73798829458687
 30
0.0
 11
61.207408260868732
 21
88.837988294588712
 31
0.0
  0
LINE
  5
56
  8
0
 10
61.265143287788788
 20
88.73798829458687
 30
0.0
 11
65.207408260868675
 21
88.73798829458687
 31
0.0
  0
LINE
  5
57
  8
0
 10
61.265143287788788
 20
98.73798829458687
 30
0.0
 11
65.207408260868675
 21
98.73798829458687
 31
0.0
  0
LINE
  5
58
  8
0
 10
61.265143287788788
 20
98.73798829458687
 30
0.0
 11
61.207408260868732
 21
98.637988294584915
 31
0.0
  0
ARC
  5
59
  8
0
 10
68.486029545687614
 20
96.23798829458687
 30
0.0
 40
7.2208862578987887
 50
159.7438419996262
 51
200.2561580003738
  0
LINE
  5
5A
  8
0
 10
61.207408260868732
 20
88.837988294588712
 30
0.0
 11
61.207408260868732
 21
98.637988294584915
 31
0.0
  0
LINE
  5
5B
  8
3
 10
65.207408260868775
 20
96.196488294586956
 30
0.0
 11
70.207408260868775
 21
96.196488294586956
 31
0.0
  0
LINE
  5
5C
  8
0
 10
65.207408260868775
 20
96.737988294586884
 30
0.0
 11
70.207408260868775
 21
96.737988294586884
 31
0.0
  0
LINE
  5
5D
  8
0
 10
65.207408260868775
 20
90.737988294586856
 30
0.0
 11
70.207408260868775
 21
90.737988294586856
 31
0.0
  0
LINE
  5
5E
  8
3
 10
65.207408260868775
 20
91.279488294586784
 30
0.0
 11
70.207408260868775
 21
91.279488294586784
 31
0.0
  0
LINE
  5
5F
  8
0
 10
65.207408260868732
 20
98.73798829458687
 30
0.0
 11
65.207408260868775
 21
88.73798829458687
 31
0.0
  0
LINE
  5
60
  8
0
 10
70.207408260868775
 20
88.837988294588712
 30
0.0
 11
70.207408260868775
 21
98.637988294584915
 31
0.0
  0
ARC
  5
61
  8
0
 10
77.486029545687671
 20
96.23798829458687
 30
0.0
 40
7.2208862578987887
 50
159.7438419996262
 51
200.2561580003738
  0
LINE
  5
62
  8
0
 10
70.265143287788845
 20
98.73798829458687
 30
0.0
 11
70.207408260868775
 21
98.637988294584915
 31
0.0
  0
LINE
  5
63
  8
0
 10
70.265143287788845
 20
98.73798829458687
 30
0.0
 11
75.207408260868775
 21
98.73798829458687
 31
0.0
  0
LINE
  5
64
  8
0
 10
70.265143287788845
 20
88.73798829458687
 30
0.0
 11
75.207408260868775
 21
88.73798829458687
 31
0.0
  0
LINE
  5
65
  8
0
 10
70.265143287788845
 20
88.73798829458687
 30
0.0
 11
70.207408260868775
 21
88.837988294588712
 31
0.0
  0
ARC
  5
66
  8
0
 10
77.486029545687671
 20
91.23798829458687
 30
0.0
 40
7.2208862578987887
 50
159.7438419996262
 51
200.2561580003738
  0
LINE
  5
67
  8
0
 10
70.711725275174075
 20
93.73798829458687
 30
0.0
 11
75.207408260868775
 21
93.73798829458687
 31
0.0
  0
LINE
  5
68
  8
0
 10
110.2074082608687
 20
96.737988294585406
 30
0.0
 11
95.207408260868775
 21
96.737988294585406
 31
0.0
  0
LINE
  5
69
  8
3
 10
110.2074082608687
 20
96.196488294585578
 30
0.0
 11
95.207408260868775
 21
96.196488294585578
 31
0.0
  0
LINE
  5
6A
  8
3
 10
110.2074082608687
 20
91.279488294585434
 30
0.0
 11
95.207408260868775
 21
91.279488294585434
 31
0.0
  0
LINE
  5
6B
  8
0
 10
110.2074082608687
 20
90.737988294585392
 30
0.0
 11
95.207408260868775
 21
90.737988294585392
 31
0.0
  0
LINE
  5
6C
  8
0
 10
94.703091246563375
 20
93.737988294587097
 30
0.0
 11
90.207408260868675
 21
93.737988294587097
 31
0.0
  0
ARC
  5
6D
  8
0
 10
87.928786976049793
 20
91.237988294587097
 30
0.0
 40
7.2208862578987887
 50
339.74384199962623
 51
20.256158000373759
  0
LINE
  5
6E
  8
0
 10
95.149673233948604
 20
88.737988294587097
 30
0.0
 11
95.207408260868675
 21
88.837988294588939
 31
0.0
  0
LINE
  5
6F
  8
0
 10
95.149673233948604
 20
88.737988294587097
 30
0.0
 11
90.207408260868675
 21
88.737988294587097
 31
0.0
  0
LINE
  5
70
  8
0
 10
95.149673233948604
 20
98.737988294587097
 30
0.0
 11
90.207408260868675
 21
98.737988294587097
 31
0.0
  0
LINE
  5
71
  8
0
 10
95.149673233948604
 20
98.737988294587097
 30
0.0
 11
95.207408260868675
 21
98.637988294585156
 31
0.0
  0
ARC
  5
72
  8
0
 10
87.928786976049793
 20
96.237988294587097
 30
0.0
 40
7.2208862578987887
 50
339.74384199962623
 51
20.256158000373791
  0
LINE
  5
73
  8
0
 10
95.207408260868675
 20
88.837988294588939
 30
0.0
 11
95.207408260868675
 21
98.637988294585156
 31
0.0
  0
LINE
  5
74
  8
0
 10
110.2074082608687
 20
88.837988294588939
 30
0.0
 11
110.2074082608687
 21
98.637988294585156
 31
0.0
  0
ARC
  5
75
  8
0
 10
117.4860295456875
 20
96.237988294587097
 30
0.0
 40
7.2208862578987887
 50
159.7438419996262
 51
200.2561580003738
  0
LINE
  5
76
  8
0
 10
110.2651432877887
 20
98.737988294587097
 30
0.0
 11
110.2074082608687
 21
98.637988294585156
 31
0.0
  0
LINE
  5
77
  8
0
 10
110.2651432877887
 20
98.737988294587097
 30
0.0
 11
115.2074082608687
 21
98.737988294587097
 31
0.0
  0
LINE
  5
78
  8
0
 10
110.2651432877887
 20
88.737988294587097
 30
0.0
 11
115.2074082608687
 21
88.737988294587097
 31
0.0
  0
LINE
  5
79
  8
0
 10
110.2651432877887
 20
88.737988294587097
 30
0.0
 11
110.2074082608687
 21
88.837988294588939
 31
0.0
  0
ARC
  5
7A
  8
0
 10
117.4860295456875
 20
91.237988294587097
 30
0.0
 40
7.2208862578987887
 50
159.7438419996262
 51
200.2561580003738
  0
LINE
  5
7B
  8
0
 10
110.7117252751739
 20
93.737988294587097
 30
0.0
 11
115.2074082608687
 21
93.737988294587097
 31
0.0
  0
LINE
  5
7C
  8
0
 10
8.5823486325496106
 20
56.044942731037963
 30
0.0
 11
8.5823486325496106
 21
41.544942731037729
 31
0.0
  0
LINE
  5
7D
  8
0
 10
75.707408260868846
 20
76.237988294587325
 30
0.0
 11
89.707408260868789
 21
76.237988294587325
 31
0.0
  0
CIRCLE
  5
7E
  8
0
 10
82.707408260868917
 20
83.737988294587211
 30
0.0
 40
3.5000000000004539
  0
CIRCLE
  5
7F
  8
0
 10
82.707408260868917
 20
83.737988294587211
 30
0.0
 40
5.500000000001136
  0
LINE
  5
80
  8
1
 10
82.707408260868917
 20
75.737988294586188
 30
0.0
 11
82.707408260868917
 21
94.237988294588348
 31
0.0
  0
LINE
  5
81
  8
1
 10
74.707408260867709
 20
83.737988294587211
 30
0.0
 11
90.707408260869983
 21
83.737988294587211
 31
0.0
  0
LINE
  5
82
  8
1
 10
16.082348632549611
 20
40.2949427310377
 30
0.0
 11
16.082348632549611
 21
57.794942731037963
 31
0.0
  0
LINE
  5
83
  8
1
 10
36.082348632549603
 20
40.294942731037622
 30
0.0
 11
36.082348632549603
 21
57.79494273103797
 31
0.0
  0
LINE
  5
84
  8
1
 10
74.707408260867595
 20
103.7379882945871
 30
0.0
 11
90.707408260870096
 21
103.7379882945871
 31
0.0
  0
LINE
  5
85
  8
1
 10
82.707408260868917
 20
111.73798829458821
 30
0.0
 11
82.707408260868917
 21
93.237988294585961
 31
0.0
  0
LINE
  5
86
  8
0
 10
115.7074082608686
 20
101.2379882945871
 30
0.0
 11
129.20740826086859
 21
101.2379882945871
 31
0.0
  0
LINE
  5
87
  8
0
 10
140.2074082608687
 20
90.737988294586856
 30
0.0
 11
140.20740826086859
 21
96.737988294586984
 31
0.0
  0
LINE
  5
88
  8
0
 10
129.7074082608687
 20
100.7379882945871
 30
0.0
 11
129.7074082608687
 21
97.637988294586961
 31
0.0
  0
LINE
  5
89
  8
0
 10
115.2074082608687
 20
100.7379882945871
 30
0.0
 11
115.2074082608687
 21
86.737988294586984
 31
0.0
  0
LINE
  5
8A
  8
0
 10
129.2074082608687
 20
86.237988294587097
 30
0.0
 11
115.7074082608686
 21
86.237988294586984
 31
0.0
  0
LINE
  5
8B
  8
0
 10
139.70740826086859
 20
90.23798829458687
 30
0.0
 11
130.1074082608686
 21
90.23798829458687
 31
0.0
  0
LINE
  5
8C
  8
0
 10
139.70740826086859
 20
97.237988294586984
 30
0.0
 11
130.1074082608686
 21
97.237988294586984
 31
0.0
  0
LINE
  5
8D
  8
0
 10
129.70740826086859
 20
89.837988294586907
 30
0.0
 11
129.7074082608687
 21
86.737988294587083
 31
0.0
  0
LINE
  5
8E
  8
1
 10
135.70740826086859
 20
87.737988294586884
 30
0.0
 11
135.70740826086859
 21
99.737988294586984
 31
0.0
  0
LINE
  5
8F
  8
0
 10
65.207408914458512
 20
52.5449427310391
 30
0.0
 11
70.207408260868732
 21
52.5449427310391
 31
0.0
  0
LINE
  5
90
  8
3
 10
65.207408914458512
 20
52.003442731039293
 30
0.0
 11
70.207408260868732
 21
52.003442731039293
 31
0.0
  0
LINE
  5
91
  8
3
 10
65.207408914458512
 20
47.086442731039142
 30
0.0
 11
70.207408260868732
 21
47.086442731039142
 31
0.0
  0
LINE
  5
92
  8
0
 10
65.207408914458512
 20
46.544942731039093
 30
0.0
 11
70.207408260868732
 21
46.544942731039093
 31
0.0
  0
LINE
  5
93
  8
0
 10
65.207408914458512
 20
55.318445422935383
 30
0.0
 11
65.207408914458512
 21
43.771440039142931
 31
0.0
  0
LINE
  5
94
  8
0
 10
61.207408914458512
 20
54.444942731038623
 30
0.0
 11
61.207408914458512
 21
44.644942731039677
 31
0.0
  0
LINE
  5
95
  8
0
 10
61.711725928762952
 20
55.318445422935383
 30
0.0
 11
61.207408914458512
 21
54.444942731038623
 31
0.0
  0
ARC
  5
96
  8
0
 10
63.82096668980617
 20
53.875069749961419
 30
0.0
 40
2.5558227484274911
 50
154.38424746934001
 51
214.38424746797401
  0
LINE
  5
97
  8
0
 10
61.711725928762952
 20
55.318445422935383
 30
0.0
 11
65.207408914458512
 21
55.318445422935383
 31
0.0
  0
LINE
  5
98
  8
0
 10
61.711725928771358
 20
52.431694076987363
 30
0.0
 11
65.207408914458512
 21
52.431694076987363
 31
0.0
  0
LINE
  5
99
  8
0
 10
61.711725928771358
 20
46.658191385090952
 30
0.0
 11
65.207408914458512
 21
46.658191385090952
 31
0.0
  0
LINE
  5
9A
  8
0
 10
61.711725928762952
 20
43.771440039143037
 30
0.0
 11
65.207408914458512
 21
43.771440039142931
 31
0.0
  0
ARC
  5
9B
  8
0
 10
70.818561953936893
 20
49.544942731050917
 30
0.0
 40
9.5534180125581827
 50
162.4120462259726
 51
197.5879537741755
  0
ARC
  5
9C
  8
0
 10
63.82096668980617
 20
45.214815712117002
 30
0.0
 40
2.5558227484274911
 50
145.61575253202599
 51
205.61575253065999
  0
LINE
  5
9D
  8
0
 10
61.711725928762952
 20
43.771440039142931
 30
0.0
 11
61.207408914458512
 21
44.644942731039677
 31
0.0
  0
LINE
  5
9E
  8
0
 10
70.207408260868732
 20
44.644942731039677
 30
0.0
 11
70.207408260868732
 21
54.444942731038743
 31
0.0
  0
LINE
  5
9F
  8
0
 10
70.711725275173166
 20
43.771440039143037
 30
0.0
 11
70.207408260868732
 21
44.644942731039677
 31
0.0
  0
ARC
  5
A0
  8
0
 10
72.82096603621639
 20
45.214815712117002
 30
0.0
 40
2.5558227484274911
 50
145.61575253202611
 51
205.6157525306601
  0
LINE
  5
A1
  8
0
 10
70.711725275173166
 20
43.771440039143037
 30
0.0
 11
75.207408260868732
 21
43.771440039143037
 31
0.0
  0
LINE
  5
A2
  8
0
 10
70.711725275181564
 20
46.658191385090952
 30
0.0
 11
75.207408260868732
 21
46.658191385090952
 31
0.0
  0
LINE
  5
A3
  8
0
 10
70.711725275181564
 20
52.431694076987469
 30
0.0
 11
75.207408260868732
 21
52.431694076987469
 31
0.0
  0
LINE
  5
A4
  8
0
 10
70.711725275173166
 20
55.318445422935383
 30
0.0
 11
75.207408260868732
 21
55.318445422935497
 31
0.0
  0
ARC
  5
A5
  8
0
 10
79.818561300347113
 20
49.544942731027497
 30
0.0
 40
9.5534180125581827
 50
162.4120462258245
 51
197.5879537740274
  0
ARC
  5
A6
  8
0
 10
72.82096603621639
 20
53.875069749961419
 30
0.0
 40
2.5558227484274911
 50
154.38424746934001
 51
214.38424746797401
  0
LINE
  5
A7
  8
0
 10
70.711725275173166
 20
55.318445422935383
 30
0.0
 11
70.207408260868732
 21
54.444942731038743
 31
0.0
  0
LINE
  5
A8
  8
0
 10
94.703091246564284
 20
55.318445422935383
 30
0.0
 11
95.207408260868732
 21
54.444942731038743
 31
0.0
  0
ARC
  5
A9
  8
0
 10
92.593850485521074
 20
53.875069749961419
 30
0.0
 40
2.5558227484274911
 50
325.61575253202602
 51
25.61575253066
  0
ARC
  5
AA
  8
0
 10
85.596255221390336
 20
49.544942731027497
 30
0.0
 40
9.5534180125581827
 50
342.41204622597257
 51
17.587953774175489
  0
LINE
  5
AB
  8
0
 10
94.703091246564284
 20
55.318445422935383
 30
0.0
 11
90.207408260868732
 21
55.318445422935497
 31
0.0
  0
LINE
  5
AC
  8
0
 10
94.703091246555886
 20
52.431694076987469
 30
0.0
 11
90.207408260868732
 21
52.431694076987469
 31
0.0
  0
LINE
  5
AD
  8
0
 10
94.703091246555886
 20
46.658191385090952
 30
0.0
 11
90.207408260868732
 21
46.658191385090952
 31
0.0
  0
LINE
  5
AE
  8
0
 10
94.703091246564284
 20
43.771440039143037
 30
0.0
 11
90.207408260868732
 21
43.771440039143037
 31
0.0
  0
ARC
  5
AF
  8
0
 10
92.593850485521074
 20
45.214815712117002
 30
0.0
 40
2.5558227484274911
 50
334.38424746933998
 51
34.38424746797395
  0
LINE
  5
B0
  8
0
 10
94.703091246564284
 20
43.771440039143037
 30
0.0
 11
95.207408260868732
 21
44.644942731039677
 31
0.0
  0
LINE
  5
B1
  8
0
 10
95.207408260868732
 20
44.644942731039677
 30
0.0
 11
95.207408260868732
 21
54.444942731038743
 31
0.0
  0
LINE
  5
B2
  8
0
 10
110.7117259287629
 20
43.77144003914281
 30
0.0
 11
110.2074089144584
 21
44.644942731039677
 31
0.0
  0
ARC
  5
B3
  8
0
 10
112.8209666898061
 20
45.214815712116888
 30
0.0
 40
2.5558227484274911
 50
145.61575253202599
 51
205.61575253065999
  0
ARC
  5
B4
  8
0
 10
119.81856195393679
 20
49.54494273105081
 30
0.0
 40
9.5534180125581827
 50
162.4120462259726
 51
197.5879537741755
  0
LINE
  5
B5
  8
0
 10
110.7117259287629
 20
43.771440039142931
 30
0.0
 11
115.2074089144584
 21
43.77144003914281
 31
0.0
  0
LINE
  5
B6
  8
0
 10
110.7117259287713
 20
46.658191385090952
 30
0.0
 11
115.2074089144584
 21
46.658191385090952
 31
0.0
  0
LINE
  5
B7
  8
0
 10
110.7117259287713
 20
52.431694076987242
 30
0.0
 11
115.2074089144584
 21
52.431694076987242
 31
0.0
  0
LINE
  5
B8
  8
0
 10
110.7117259287629
 20
55.318445422935262
 30
0.0
 11
115.2074089144584
 21
55.318445422935383
 31
0.0
  0
ARC
  5
B9
  8
0
 10
112.8209666898061
 20
53.875069749961312
 30
0.0
 40
2.5558227484274911
 50
154.38424746934001
 51
214.38424746797401
  0
LINE
  5
BA
  8
0
 10
110.7117259287629
 20
55.318445422935383
 30
0.0
 11
110.2074089144584
 21
54.444942731038509
 31
0.0
  0
LINE
  5
BB
  8
0
 10
110.2074089144584
 20
54.444942731038509
 30
0.0
 11
110.2074089144584
 21
44.644942731039677
 31
0.0
  0
LINE
  5
BC
  8
0
 10
115.7074089144585
 20
56.54494273103797
 30
0.0
 11
139.7074089144586
 21
56.54494273103797
 31
0.0
  0
CIRCLE
  5
BD
  8
0
 10
82.707408260868917
 20
103.7379882945871
 30
0.0
 40
5.500000000001136
  0
CIRCLE
  5
BE
  8
0
 10
82.707408260868917
 20
103.7379882945871
 30
0.0
 40
3.5000000000004539
  0
LINE
  5
BF
  8
0
 10
90.207408260868775
 20
76.737988294587325
 30
0.0
 11
90.207408260868775
 21
110.7379882945871
 31
0.0
  0
LINE
  5
C0
  8
0
 10
75.207408260868846
 20
76.737988294587325
 30
0.0
 11
75.207408260868775
 21
110.7379882945872
 31
0.0
  0
LINE
  5
C1
  8
0
 10
75.707408260868789
 20
111.2379882945872
 30
0.0
 11
89.707408260868789
 21
111.2379882945871
 31
0.0
  0
LINE
  5
C2
  8
0
 10
43.58234863254966
 20
56.044942731037963
 30
0.0
 11
43.582348632549611
 21
41.544942731037729
 31
0.0
  0
LINE
  5
C3
  8
2
 10
88.207408260868476
 20
50.544942731037963
 30
0.0
 11
77.207408260868704
 21
50.544942731037963
 31
0.0
  0
LINE
  5
C4
  8
2
 10
79.207408260868704
 20
50.544942731037963
 30
0.0
 11
79.207408260868704
 21
41.544942731037729
 31
0.0
  0
LINE
  5
C5
  8
2
 10
86.207408260868704
 20
50.544942731037963
 30
0.0
 11
86.207408260868476
 21
41.544942731037729
 31
0.0
  0
LINE
  5
C6
  8
2
 10
88.207408260868704
 20
56.54494273103797
 30
0.0
 11
88.207408260868476
 21
50.544942731037963
 31
0.0
  0
LINE
  5
C7
  8
2
 10
77.207408260868704
 20
50.544942731037963
 30
0.0
 11
77.207408260868704
 21
56.54494273103797
 31
0.0
  0
LINE
  5
C8
  8
0
 10
9.0823486325496106
 20
56.54494273103797
 30
0.0
 11
43.08234863254966
 21
56.54494273103797
 31
0.0
  0
LINE
  5
C9
  8
0
 10
75.707408260868732
 20
56.54494273103785
 30
0.0
 11
89.707408260868675
 21
56.544942731037729
 31
0.0
  0
LINE
  5
CA
  8
0
 10
90.207408260868675
 20
41.544942731037729
 30
0.0
 11
90.207408260868675
 21
56.044942731037743
 31
0.0
  0
LINE
  5
CB
  8
0
 10
75.207408260868675
 20
41.544942731037729
 30
0.0
 11
75.207408260868732
 21
56.04494273103785
 31
0.0
  0
LINE
  5
CC
  8
0
 10
129.70740891445851
 20
56.544942731037729
 30
0.0
 11
129.70740891445851
 21
41.544942731037729
 31
0.0
  0
LINE
  5
CD
  8
0
 10
115.2074089144585
 20
56.044942731037963
 30
0.0
 11
115.2074089144584
 21
42.044942731037729
 31
0.0
  0
LINE
  5
CE
  8
0
 10
110.2074089144585
 20
46.544942731037622
 30
0.0
 11
95.207408260868732
 21
46.544942731037622
 31
0.0
  0
LINE
  5
CF
  8
3
 10
110.2074089144585
 20
47.086442731037657
 30
0.0
 11
95.207408260868732
 21
47.086442731037657
 31
0.0
  0
LINE
  5
D0
  8
3
 10
110.2074089144585
 20
52.003442731037801
 30
0.0
 11
95.207408260868732
 21
52.003442731037801
 31
0.0
  0
LINE
  5
D1
  8
0
 10
110.2074089144585
 20
52.544942731037729
 30
0.0
 11
95.207408260868732
 21
52.544942731037729
 31
0.0
  0
LINE
  5
D2
  8
0
 10
140.20740891445851
 20
42.04494273103785
 30
0.0
 11
140.20740891445871
 21
56.044942731037963
 31
0.0
  0
LINE
  5
D3
  8
0
 10
8.5823486325496106
 20
41.544942731037729
 30
0.0
 11
43.582348632549611
 21
41.544942731037587
 31
0.0
  0
LINE
  5
D4
  8
0
 10
75.207408260868675
 20
41.544942731037729
 30
0.0
 11
90.207408260868675
 21
41.544942731037729
 31
0.0
  0
LINE
  5
D5
  8
1
 10
140.1074089144582
 20
48.044942731037743
 30
0.0
 11
131.30740891445839
 21
48.044942731037743
 31
0.0
  0
LINE
  5
D6
  8
1
 10
135.70740891445851
 20
52.44494273103723
 30
0.0
 11
135.70740891445851
 21
43.644942731037823
 31
0.0
  0
LINE
  5
D7
  8
1
 10
127.7074082608686
 20
49.544942731039107
 30
0.0
 11
58.707408914458519
 21
49.5449427310391
 31
0.0
  0
LINE
  5
D8
  8
1
 10
82.707408260868704
 20
59.04494273103797
 30
0.0
 11
82.707408260868704
 21
39.044942731037743
 31
0.0
  0
LINE
  5
D9
  8
1
 10
34.355851324445823
 20
49.544942731039221
 30
0.0
 11
17.808845940653342
 21
49.544942731039221
 31
0.0
  0
LINE
  5
DA
  8
1
 10
26.082348632549611
 20
59.044942731037963
 30
0.0
 11
26.082348632549621
 21
39.044942731037672
 31
0.0
  0
LINE
  5
DB
  8
1
 10
142.70740826086859
 20
93.737988294586941
 30
0.0
 11
58.707408260868732
 21
93.737988294586813
 31
0.0
  0
CIRCLE
  5
DC
  8
0
 10
26.082348632549611
 20
49.544942731039221
 30
0.0
 40
4.9000000000000004
  0
LINE
  5
DD
  8
0
 10
26.082348632549611
 20
55.318445422935497
 30
0.0
 11
21.082348632549671
 21
52.431694076987412
 31
0.0
  0
LINE
  5
DE
  8
0
 10
31.08234863254955
 20
52.431694076987291
 30
0.0
 11
26.082348632549611
 21
55.318445422935497
 31
0.0
  0
LINE
  5
DF
  8
0
 10
31.082348632549611
 20
46.658191385091072
 30
0.0
 11
31.08234863254955
 21
52.431694076987291
 31
0.0
  0
LINE
  5
E0
  8
0
 10
26.082348632549611
 20
43.771440039142931
 30
0.0
 11
31.082348632549611
 21
46.658191385091072
 31
0.0
  0
LINE
  5
E1
  8
0
 10
21.0823486325495
 20
46.658191385091072
 30
0.0
 11
26.082348632549611
 21
43.771440039142931
 31
0.0
  0
LINE
  5
E2
  8
0
 10
21.082348632549671
 20
52.431694076987412
 30
0.0
 11
21.0823486325495
 21
46.658191385091072
 31
0.0
  0
LINE
  5
E3
  8
0
 10
157.5
 20
41.544942731037949
 30
0.0
 11
157.5
 21
56.044942731037949
 31
0.0
  0
LINE
  5
E4
  8
0
 10
158.0
 20
56.544942731037949
 30
0.0
 11
172.0
 21
56.544942731037949
 31
0.0
  0
LINE
  5
E5
  8
0
 10
172.5
 20
56.044942731037949
 30
0.0
 11
172.5
 21
41.544942731037949
 31
0.0
  0
LINE
  5
E6
  8
0
 10
172.5
 20
41.544942731037949
 30
0.0
 11
157.5
 21
41.544942731037949
 31
0.0
  0
LINE
  5
E7
  8
1
 10
165.0
 20
59.044942731037942
 30
0.0
 11
165.0
 21
39.044942731037949
 31
0.0
  0
LINE
  5
E8
  8
0
 10
158.0
 20
56.544942731037949
 30
0.0
 11
157.5
 21
56.044942731037949
 31
0.0
  0
LINE
  5
E9
  8
0
 10
172.0
 20
56.544942731037949
 30
0.0
 11
172.5
 21
56.044942731037949
 31
0.0
  0
LINE
  5
EA
  8
1
 10
156.5
 20
48.044942731037743
 30
0.0
 11
173.5
 21
48.044942731037722
 31
0.0
  0
LINE
  5
EB
  8
2
 10
168.0
 20
46.144942731037908
 30
0.0
 11
168.5
 21
45.644942731037908
 31
0.0
  0
LINE
  5
EC
  8
2
 10
162.0
 20
46.144942731037908
 30
0.0
 11
161.5
 21
45.644942731037908
 31
0.0
  0
LINE
  5
ED
  8
2
 10
161.9999999999996
 20
49.94494273103787
 30
0.0
 11
161.4999999999996
 21
50.444942731037862
 31
0.0
  0
LINE
  5
EE
  8
2
 10
168.49999999999989
 20
50.444942731037862
 30
0.0
 11
167.99999999999989
 21
49.94494273103787
 31
0.0
  0
LINE
  5
EF
  8
2
 10
161.99999999999989
 20
49.94494273103787
 30
0.0
 11
161.99999999999969
 21
46.144942731037908
 31
0.0
  0
LINE
  5
F0
  8
2
 10
168.0
 20
49.94494273103787
 30
0.0
 11
168.0
 21
46.144942731037908
 31
0.0
  0
LINE
  5
F1
  8
2
 10
161.9999999999996
 20
49.94494273103787
 30
0.0
 11
167.99999999999989
 21
49.94494273103787
 31
0.0
  0
LINE
  5
F2
  8
2
 10
162.0
 20
46.144942731037908
 30
0.0
 11
168.0
 21
46.144942731037908
 31
0.0
  0
LINE
  5
F3
  8
0
 10
161.49999999999969
 20
56.044942731037949
 30
0.0
 11
161.49999999999969
 21
41.544942731037949
 31
0.0
  0
LINE
  5
F4
  8
0
 10
161.99999999999969
 20
56.544942731037949
 30
0.0
 11
161.49999999999969
 21
56.044942731037949
 31
0.0
  0
LINE
  5
F5
  8
0
 10
168.0000000000002
 20
56.544942731037949
 30
0.0
 11
168.5000000000002
 21
56.044942731037949
 31
0.0
  0
LINE
  5
F6
  8
0
 10
168.5000000000002
 20
56.044942731037949
 30
0.0
 11
168.5000000000002
 21
41.544942731037949
 31
0.0
  0
CIRCLE
  5
100
  8
0
 10
135.70740891445851
 20
48.044942731037743
 30
0.0
 40
1.8999999999999999
  0
TEXT
  5
255
  8
0
 62
     3
 10
0.0
 20
0.0
 30
0.0
 40
10.0
  1
ATB35
  7
STANDARD1
  0
ENDSEC
  0
EOF
