  0
SECTION
  2
HEADER
  9
$ACADVER
  1
AC1009
  9
$INSBASE
 10
0.0
 20
0.0
 30
0.0
  9
$EXTMIN
 10
-0.0204638472032742
 20
-2.960436562073669
 30
0.0
  9
$EXTMAX
 10
1104.2921797215381
 20
704.35251798561183
 30
0.0
  9
$LIMMIN
 10
0.0
 20
0.0
  9
$LIMMAX
 10
1500.0
 20
1080.0
  9
$ORTHOMODE
 70
     1
  9
$REGENMODE
 70
     1
  9
$FILLMODE
 70
     1
  9
$QTEXTMODE
 70
     0
  9
$MIRRTEXT
 70
     0
  9
$DRAGMODE
 70
     2
  9
$LTSCALE
 40
40.0
  9
$OSMODE
 70
    37
  9
$ATTMODE
 70
     1
  9
$TEXTSIZE
 40
0.2
  9
$TRACEWID
 40
0.05
  9
$TEXTSTYLE
  7
K90
  9
$CLAYER
  8
0
  9
$CELTYPE
  6
BYLAYER
  9
$CECOLOR
 62
   256
  9
$DIMSCALE
 40
4.0
  9
$DIMASZ
 40
3.0
  9
$DIMEXO
 40
2.0
  9
$DIMDLI
 40
0.3799999999999999
  9
$DIMRND
 40
0.0
  9
$DIMDLE
 40
0.0
  9
$DIMEXE
 40
2.0
  9
$DIMTP
 40
0.0
  9
$DIMTM
 40
0.0
  9
$DIMTXT
 40
3.2000000000000002
  9
$DIMCEN
 40
0.0
  9
$DIMTSZ
 40
0.0
  9
$DIMTOL
 70
     0
  9
$DIMLIM
 70
     0
  9
$DIMTIH
 70
     0
  9
$DIMTOH
 70
     0
  9
$DIMSE1
 70
     0
  9
$DIMSE2
 70
     0
  9
$DIMTAD
 70
     1
  9
$DIMZIN
 70
     0
  9
$DIMBLK
  1

  9
$DIMASO
 70
     1
  9
$DIMSHO
 70
     0
  9
$DIMPOST
  1

  9
$DIMAPOST
  1

  9
$DIMALT
 70
     0
  9
$DIMALTD
 70
     2
  9
$DIMALTF
 40
25.399999999999999
  9
$DIMLFAC
 40
1.0
  9
$DIMTOFL
 70
     0
  9
$DIMTVP
 40
1.6000000000000001
  9
$DIMTIX
 70
     1
  9
$DIMSOXD
 70
     0
  9
$DIMSAH
 70
     0
  9
$DIMBLK1
  1

  9
$DIMBLK2
  1

  9
$DIMSTYLE
  2
STANDARD
  9
$DIMCLRD
 70
     0
  9
$DIMCLRE
 70
     0
  9
$DIMCLRT
 70
     0
  9
$DIMTFAC
 40
1.0
  9
$DIMGAP
 40
0.09
  9
$LUNITS
 70
     2
  9
$LUPREC
 70
     1
  9
$SKETCHINC
 40
0.1
  9
$FILLETRAD
 40
0.0
  9
$AUNITS
 70
     0
  9
$AUPREC
 70
     0
  9
$MENU
  1
E:\r13\win\SUPPORT\ACAD
  9
$ELEVATION
 40
0.0
  9
$PELEVATION
 40
0.0
  9
$THICKNESS
 40
0.0
  9
$LIMCHECK
 70
     0
  9
$BLIPMODE
 70
     0
  9
$CHAMFERA
 40
0.0
  9
$CHAMFERB
 40
0.0
  9
$SKPOLY
 70
     0
  9
$TDCREATE
 40
2449840.600555555
  9
$TDUPDATE
 40
2458646.435035937
  9
$TDINDWG
 40
0.0032743403
  9
$TDUSRTIMER
 40
0.0032743403
  9
$USRTIMER
 70
     1
  9
$ANGBASE
 50
0.0
  9
$ANGDIR
 70
     0
  9
$PDMODE
 70
     0
  9
$PDSIZE
 40
0.0
  9
$PLINEWID
 40
0.0
  9
$COORDS
 70
     1
  9
$SPLFRAME
 70
     0
  9
$SPLINETYPE
 70
     6
  9
$SPLINESEGS
 70
     8
  9
$ATTDIA
 70
     0
  9
$ATTREQ
 70
     1
  9
$HANDLING
 70
     1
  9
$HANDSEED
  5
479
  9
$SURFTAB1
 70
     6
  9
$SURFTAB2
 70
     6
  9
$SURFTYPE
 70
     6
  9
$SURFU
 70
     6
  9
$SURFV
 70
     6
  9
$UCSNAME
  2

  9
$UCSORG
 10
0.0
 20
0.0
 30
0.0
  9
$UCSXDIR
 10
1.0
 20
0.0
 30
0.0
  9
$UCSYDIR
 10
0.0
 20
1.0
 30
0.0
  9
$PUCSNAME
  2

  9
$PUCSORG
 10
0.0
 20
0.0
 30
0.0
  9
$PUCSXDIR
 10
1.0
 20
0.0
 30
0.0
  9
$PUCSYDIR
 10
0.0
 20
1.0
 30
0.0
  9
$USERI1
 70
     0
  9
$USERI2
 70
     1
  9
$USERI3
 70
     1
  9
$USERI4
 70
     0
  9
$USERI5
 70
     0
  9
$USERR1
 40
0.0
  9
$USERR2
 40
0.0
  9
$USERR3
 40
0.0
  9
$USERR4
 40
0.0
  9
$USERR5
 40
0.0
  9
$WORLDVIEW
 70
     1
  9
$SHADEDGE
 70
     3
  9
$SHADEDIF
 70
    70
  9
$TILEMODE
 70
     1
  9
$MAXACTVP
 70
    16
  9
$PLIMCHECK
 70
     0
  9
$PEXTMIN
 10
1.0000000000000000E+020
 20
1.0000000000000000E+020
 30
1.0000000000000000E+020
  9
$PEXTMAX
 10
-1.0000000000000000E+020
 20
-1.0000000000000000E+020
 30
-1.0000000000000000E+020
  9
$PLIMMIN
 10
0.0
 20
0.0
  9
$PLIMMAX
 10
12.0
 20
9.0
  9
$UNITMODE
 70
     0
  9
$VISRETAIN
 70
     0
  9
$PLINEGEN
 70
     0
  9
$PSLTSCALE
 70
     0
  0
ENDSEC
  0
SECTION
  2
TABLES
  0
TABLE
  2
VPORT
 70
     1
  0
VPORT
  2
*ACTIVE
 70
     0
 10
0.0
 20
0.0
 11
1.0
 21
1.0
 12
966.25766871165638
 22
400.0
 13
0.0
 23
0.0
 14
40.0
 24
40.0
 15
40.0
 25
40.0
 16
0.0
 26
0.0
 36
1.0
 17
0.0
 27
0.0
 37
0.0
 40
800.0
 41
2.415644171779141
 42
50.0
 43
0.0
 44
0.0
 50
0.0
 51
0.0
 71
     0
 72
   500
 73
     1
 74
     0
 75
     0
 76
     0
 77
     0
 78
     0
  0
ENDTAB
  0
TABLE
  2
LTYPE
 70
     4
  0
LTYPE
  2
CONTINUOUS
 70
     0
  3
Solid Line
 72
    65
 73
     0
 40
0.0
  0
LTYPE
  2
CENTER
 70
     0
  3
____ _ ____ _ ____ _ ____ _ ____ _ ____ _ ____
 72
    65
 73
     4
 40
2.0
 49
1.25
 49
-0.25
 49
0.25
 49
-0.25
  0
LTYPE
  2
HIDDEN
 70
     0
  3
_ _ _ _ _ _ _ _ _ _ _ _ _ _ _ _ _ _ _ _ _ _ _
 72
    65
 73
     2
 40
0.375
 49
0.25
 49
-0.125
  0
LTYPE
  2
PHANTOM2
 70
     0
  3
___ _ _ ___ _ _ ___ _ _ ___ _ _
 72
    65
 73
     6
 40
1.25
 49
0.625
 49
-0.125
 49
0.125
 49
-0.125
 49
0.125
 49
-0.125
  0
ENDTAB
  0
TABLE
  2
LAYER
 70
     3
  0
LAYER
  2
0
 70
     0
 62
     7
  6
CONTINUOUS
  0
LAYER
  2
1
 70
     0
 62
     1
  6
CENTER
  0
LAYER
  2
2
 70
     0
 62
     2
  6
HIDDEN
  0
ENDTAB
  0
TABLE
  2
STYLE
 70
     3
  0
STYLE
  2
STANDARD
 70
     0
 40
0.0
 41
1.0
 50
0.0
 71
     0
 42
0.2
  3
romans.shx
  4

  0
STYLE
  2
K90
 70
     0
 40
0.0
 41
1.0
 50
0.0
 71
     0
 42
0.2
  3
romans.shx
  4

  0
STYLE
  2
STANDARD1
 70
     0
 40
0.0
 41
1.0
 50
0.0
 71
     0
 42
3.0
  3
txt
  4

  0
ENDTAB
  0
TABLE
  2
VIEW
 70
     1
  0
VIEW
  2
ALL
 70
     0
 40
1080.0
 10
883.96638655462186
 20
540.0
 41
0.0
 11
0.0
 21
0.0
 31
1.0
 12
0.0
 22
0.0
 32
0.0
 42
0.0
 43
0.0
 44
0.0
 50
0.0
 71
     0
  0
ENDTAB
  0
TABLE
  2
UCS
 70
     0
  0
ENDTAB
  0
TABLE
  2
APPID
 70
     5
  0
APPID
  2
ACAD
 70
     0
  0
APPID
  2
ACAD_MLEADERVER
 70
     0
  0
APPID
  2
ACAD_DSTYLE_DIMJAG
 70
     0
  0
APPID
  2
ACAD_DSTYLE_DIMTALN
 70
     0
  0
APPID
  2
ACAD_NAV_VCDISPLAY
 70
     0
  0
ENDTAB
  0
TABLE
  2
DIMSTYLE
 70
     1
  0
DIMSTYLE
  2
STANDARD
 70
     0
  3

  4

  5

  6

  7

 40
1.0
 41
0.18
 42
0.0625
 43
0.38
 44
0.18
 45
0.0
 46
0.0
 47
0.0
 48
0.0
140
0.18
141
0.09
142
0.0
143
25.399999999999999
144
1.0
145
0.0
146
1.0
147
0.09
 71
     0
 72
     0
 73
     1
 74
     1
 75
     0
 76
     0
 77
     0
 78
     0
170
     0
171
     2
172
     0
173
     0
174
     0
175
     0
176
     0
177
     0
178
     0
  0
ENDTAB
  0
ENDSEC
  0
SECTION
  2
BLOCKS
  0
BLOCK
  8
0
  2
$MODEL_SPACE
 70
     0
 10
0.0
 20
0.0
 30
0.0
  3
$MODEL_SPACE
  1

  0
ENDBLK
  5
27E
  8
0
  0
BLOCK
 67
     1
  8
0
  2
$PAPER_SPACE
 70
     0
 10
0.0
 20
0.0
 30
0.0
  3
$PAPER_SPACE
  1

  0
ENDBLK
  5
27C
 67
     1
  8
0
  0
ENDSEC
  0
SECTION
  2
ENTITIES
  0
LINE
  5
36
  8
0
 10
1023.292179721538
 20
677.35251798561148
 30
0.0
 11
1023.292179721538
 21
439.10858989947991
 31
0.0
  0
ARC
  5
37
  8
0
 10
1022.292179721538
 20
565.95262934432412
 30
0.0
 40
4.0
 50
180.0
 51
257.44414220141408
  0
ARC
  5
38
  8
2
 10
1032.2921797215381
 20
610.85251798561148
 30
0.0
 40
49.999999999999972
 50
259.63024019452268
 51
282.55585779858569
  0
ARC
  5
39
  8
2
 10
1042.2921797215381
 20
565.95262934432412
 30
0.0
 40
4.0
 50
282.55585779858581
 51
0.0000000000004071
  0
LINE
  5
3A
  8
2
 10
1046.2921797215381
 20
565.95262934432412
 30
0.0
 11
1046.2921797215381
 21
623.85251798561148
 31
0.0
  0
LINE
  5
3B
  8
0
 10
1018.292179721538
 20
565.95262934432412
 30
0.0
 11
1018.292179721538
 21
623.85251798561171
 31
0.0
  0
LINE
  5
3C
  8
0
 10
1018.292179721538
 20
623.85251798561171
 30
0.0
 11
1019.673421923656
 21
651.47736202797125
 31
0.0
  0
LINE
  5
3D
  8
2
 10
1044.91093751942
 20
651.47736202797125
 30
0.0
 11
1046.2921797215381
 21
623.85251798561148
 31
0.0
  0
ARC
  5
3E
  8
2
 10
1042.4140566722249
 20
651.35251798561148
 30
0.0
 40
2.5
 50
2.862405226112037
 51
83.612667386059925
  0
ARC
  5
3F
  8
0
 10
1022.170302770851
 20
651.35251798561148
 30
0.0
 40
2.5
 50
96.38733261392882
 51
177.137594773888
  0
LINE
  5
40
  8
0
 10
1021.292179721538
 20
653.85251798561137
 30
0.0
 11
1021.292179721538
 21
656.85251798561148
 31
0.0
  0
LINE
  5
41
  8
2
 10
1043.2921797215381
 20
653.85251798561137
 30
0.0
 11
1043.2921797215381
 21
656.85251798561148
 31
0.0
  0
LINE
  5
42
  8
2
 10
1043.2921797215381
 20
653.85251798561137
 30
0.0
 11
1023.292179721538
 21
653.85251798561137
 31
0.0
  0
LINE
  5
43
  8
2
 10
1046.2921797215381
 20
623.85251798561217
 30
0.0
 11
1023.292179721538
 21
623.85251798561148
 31
0.0
  0
ARC
  5
44
  8
0
 10
1023.792179721538
 20
658.35251798561137
 30
0.0
 40
1.5
 50
180.0
 51
250.52877936681941
  0
LINE
  5
45
  8
0
 10
1022.292179721538
 20
677.35251798561148
 30
0.0
 11
1022.292179721538
 21
658.35251798561137
 31
0.0
  0
LINE
  5
46
  8
2
 10
1023.292179721538
 20
677.35251798561148
 30
0.0
 11
1046.2921797215381
 21
677.35251798561148
 31
0.0
  0
LINE
  5
47
  8
2
 10
1023.292179721538
 20
656.85251798561148
 30
0.0
 11
1046.2921797215381
 21
656.85251798561148
 31
0.0
  0
LINE
  5
48
  8
0
 10
1055.692179721538
 20
674.35251798561171
 30
0.0
 11
1055.2921797215381
 21
674.35251798561171
 31
0.0
  0
LINE
  5
49
  8
0
 10
1055.692179721538
 20
658.35251798561126
 30
0.0
 11
1055.2921797215381
 21
658.35251798561126
 31
0.0
  0
LINE
  5
4A
  8
0
 10
1055.692179721538
 20
674.35251798561171
 30
0.0
 11
1055.692179721538
 21
658.35251798561126
 31
0.0
  0
LINE
  5
4B
  8
1
 10
1032.2921797215381
 20
555.85251798561148
 30
0.0
 11
1032.2921797215381
 21
671.35251798561114
 31
0.0
  0
ARC
  5
4C
  8
0
 10
762.62517445793026
 20
661.86417052798436
 30
0.0
 40
3.0
 50
34.278265318466573
 51
102.49855834475881
  0
ARC
  5
4D
  8
0
 10
763.03884101197855
 20
664.00082307035746
 30
0.0
 40
4.0
 50
30.89903015366124
 51
102.03468931217409
  0
ARC
  5
4E
  8
0
 10
785.3487545682874
 20
677.35251798561148
 30
0.0
 40
22.0
 50
210.89903015366141
 51
232.69820970785361
  0
LINE
  5
4F
  8
0
 10
772.01646294231466
 20
659.8525179856108
 30
0.0
 11
776.47463489363884
 21
659.8525179856108
 31
0.0
  0
LINE
  5
50
  8
0
 10
770.51635759409726
 20
657.85251798561069
 30
0.0
 11
778.36663454640404
 21
657.85251798561069
 31
0.0
  0
ARC
  5
51
  8
0
 10
785.3487545682874
 20
677.35251798561148
 30
0.0
 40
24.5
 50
214.278265318466
 51
232.74208399868999
  0
LINE
  5
52
  8
0
 10
772.01646294231432
 20
659.8525179856108
 30
0.0
 11
770.51635759409726
 21
657.85251798561069
 31
0.0
  0
CIRCLE
  5
53
  8
0
 10
785.34875456828752
 20
559.35251798561137
 30
0.0
 40
122.0
  0
CIRCLE
  5
54
  8
0
 10
785.34875456828752
 20
559.3525179856116
 30
0.0
 40
125.0
  0
LINE
  5
55
  8
0
 10
771.34875456828763
 20
623.85251798561217
 30
0.0
 11
799.3487545682874
 21
623.85251798561137
 31
0.0
  0
LINE
  5
56
  8
0
 10
799.34875456828729
 20
565.95262934432424
 30
0.0
 11
799.3487545682874
 21
623.85251798561183
 31
0.0
  0
LINE
  5
57
  8
0
 10
771.34875456828775
 20
565.95262934432424
 30
0.0
 11
771.34875456828763
 21
623.85251798561171
 31
0.0
  0
ARC
  5
58
  8
0
 10
775.34875456828775
 20
565.95262934432424
 30
0.0
 40
4.0
 50
179.9999999999996
 51
257.44414220141419
  0
ARC
  5
59
  8
0
 10
785.34875456828752
 20
610.85251798561148
 30
0.0
 40
49.999999999999972
 50
257.44414220141431
 51
282.55585779858581
  0
ARC
  5
5A
  8
0
 10
795.34875456828729
 20
565.95262934432424
 30
0.0
 40
4.0
 50
282.55585779858592
 51
0.0
  0
LINE
  5
5B
  8
0
 10
774.34875456828752
 20
653.85251798561148
 30
0.0
 11
796.34875456828752
 21
653.85251798561148
 31
0.0
  0
ARC
  5
5C
  8
0
 10
795.47063151897476
 20
651.3525179856116
 30
0.0
 40
2.5
 50
2.8624052261119859
 51
83.612667386071166
  0
ARC
  5
5D
  8
0
 10
775.22687761760039
 20
651.3525179856116
 30
0.0
 40
2.5
 50
96.387332613940075
 51
177.137594773888
  0
LINE
  5
5E
  8
0
 10
772.72999677040582
 20
651.47736202797125
 30
0.0
 11
771.34875456828763
 21
623.85251798561171
 31
0.0
  0
LINE
  5
5F
  8
0
 10
799.3487545682874
 20
623.85251798561183
 30
0.0
 11
797.96751236616922
 21
651.47736202797125
 31
0.0
  0
LINE
  5
60
  8
0
 10
796.34875456828752
 20
653.85251798561148
 30
0.0
 11
796.34875456828752
 21
656.85251798561148
 31
0.0
  0
LINE
  5
61
  8
0
 10
774.34875456828752
 20
653.85251798561148
 30
0.0
 11
774.34875456828752
 21
656.85251798561148
 31
0.0
  0
LINE
  5
62
  8
1
 10
785.34875456828752
 20
682.35251798561137
 30
0.0
 11
785.34875456828752
 21
555.85251798561114
 31
0.0
  0
LINE
  5
63
  8
1
 10
769.34875456828752
 20
666.35251798561137
 30
0.0
 11
801.34875456828786
 21
666.35251798561137
 31
0.0
  0
ARC
  5
64
  8
0
 10
785.34875456828752
 20
666.35251798561137
 30
0.0
 40
11.0
 50
300.27264131890809
 51
239.72735868109191
  0
ARC
  5
65
  8
0
 10
785.34875456828752
 20
666.35251798561137
 30
0.0
 40
3.0
 50
0.0
 51
180.0
  0
LINE
  5
66
  8
0
 10
774.34875456828752
 20
656.85251798561148
 30
0.0
 11
796.34875456828752
 21
656.85251798561148
 31
0.0
  0
LINE
  5
67
  8
0
 10
788.34875456828752
 20
666.35251798561137
 30
0.0
 11
788.34875456828752
 21
656.85251798561148
 31
0.0
  0
LINE
  5
68
  8
0
 10
782.3487545682874
 20
666.35251798561137
 30
0.0
 11
782.3487545682874
 21
656.85251798561148
 31
0.0
  0
LINE
  5
69
  8
0
 10
788.34875456828752
 20
661.74274575696506
 30
0.0
 11
782.3487545682874
 21
661.74274575696529
 31
0.0
  0
ARC
  5
6A
  8
0
 10
1053.2921797215381
 20
439.2284859248723
 30
0.0
 40
2.0
 50
310.68364526332238
 51
0.0
  0
ARC
  5
6B
  8
0
 10
807.65866812459649
 20
664.00082307035746
 30
0.0
 40
4.0
 50
77.965310687825863
 51
149.1009698463387
  0
ARC
  5
6C
  8
0
 10
808.07233467864467
 20
661.86417052798436
 30
0.0
 40
3.0
 50
77.501441655241194
 51
145.72173468153341
  0
LINE
  5
6D
  8
0
 10
798.6810461942606
 20
659.8525179856108
 30
0.0
 11
800.18115154247755
 21
657.85251798561069
 31
0.0
  0
ARC
  5
6E
  8
0
 10
785.34875456828752
 20
677.35251798561148
 30
0.0
 40
24.5
 50
307.25791600130998
 51
325.72173468153397
  0
LINE
  5
6F
  8
0
 10
800.18115154247755
 20
657.85251798561069
 30
0.0
 11
792.33087459017077
 21
657.85251798561069
 31
0.0
  0
LINE
  5
70
  8
0
 10
798.68104619426003
 20
659.8525179856108
 30
0.0
 11
794.22287424293597
 21
659.8525179856108
 31
0.0
  0
ARC
  5
71
  8
0
 10
785.34875456828752
 20
677.35251798561148
 30
0.0
 40
22.0
 50
307.30179029214639
 51
329.10096984633861
  0
ARC
  5
72
  8
2
 10
1055.8526226675201
 20
654.39197462588004
 30
0.0
 40
4.0
 50
98.054254139420323
 51
188.8263709542268
  0
LINE
  5
73
  8
2
 10
1044.5064654358241
 20
655.35251798561148
 30
0.0
 11
1046.2921797215381
 21
655.35251798561148
 31
0.0
  0
LINE
  5
74
  8
2
 10
1046.2921797215381
 20
677.3525179856116
 30
0.0
 11
1046.2921797215381
 21
655.35251798561148
 31
0.0
  0
LINE
  5
75
  8
1
 10
1041.2921797215381
 20
673.85251798561148
 30
0.0
 11
1060.2921797215331
 21
673.85251798561137
 31
0.0
  0
LINE
  5
76
  8
1
 10
1002.292179721538
 20
666.35251798561137
 30
0.0
 11
1060.2921797215331
 21
666.35251798561137
 31
0.0
  0
LINE
  5
77
  8
2
 10
1050.2921797215381
 20
586.85251798561148
 30
0.0
 11
1050.8331506593099
 21
586.85251798561148
 31
0.0
  0
ARC
  5
78
  8
2
 10
1050.2921797215381
 20
584.8525179856116
 30
0.0
 40
2.0
 50
90.000000000000156
 51
180.0
  0
ARC
  5
79
  8
0
 10
1082.2921797215381
 20
584.85251798561171
 30
0.0
 40
2.0
 50
0.0000000000000509
 51
90.000000000000099
  0
LINE
  5
7A
  8
0
 10
1064.9426004066911
 20
591.85251798561171
 30
0.0
 11
1068.2921797215381
 21
591.85251798561171
 31
0.0
  0
LINE
  5
7B
  8
0
 10
1068.2921797215381
 20
526.85251798561126
 30
0.0
 11
1068.2921797215381
 21
591.85251798561171
 31
0.0
  0
LINE
  5
7C
  8
0
 10
1055.2921797215381
 20
486.7725179856111
 30
0.0
 11
1055.2921797215381
 21
679.47655004635044
 31
0.0
  0
LINE
  5
7D
  8
0
 10
1046.2921797215381
 20
684.3525179856116
 30
0.0
 11
1025.0335013534029
 21
681.57964689411563
 31
0.0
  0
ARC
  5
7E
  8
0
 10
1045.469596053129
 20
670.37670473169067
 30
0.0
 40
14.0
 50
49.316354736676118
 51
86.631590529988117
  0
ARC
  5
7F
  8
0
 10
1025.2921797215381
 20
679.59644607174323
 30
0.0
 40
2.0
 50
97.431407971172547
 51
180.0
  0
ARC
  5
80
  8
0
 10
1053.2921797215381
 20
679.47655004635044
 30
0.0
 40
2.0
 50
0.0
 51
49.31635473667577
  0
LINE
  5
81
  8
2
 10
1053.8029991402941
 20
590.27678205432346
 30
0.0
 11
1050.5518681798601
 21
613.03469877736075
 31
0.0
  0
LINE
  5
82
  8
2
 10
1051.899991213445
 20
653.77821197773176
 30
0.0
 11
1055.2921797215381
 21
631.93251798560937
 31
0.0
  0
ARC
  5
83
  8
0
 10
1064.9426004066911
 20
595.85251798561171
 30
0.0
 40
4.0
 50
188.826370954228
 51
269.99999999999977
  0
ARC
  5
84
  8
2
 10
1050.8331506593099
 20
589.8525179856116
 30
0.0
 40
3.0
 50
270.0
 51
8.1301023541560351
  0
LINE
  5
85
  8
0
 10
1068.2921797215381
 20
586.85251798561171
 30
0.0
 11
1082.2921797215381
 21
586.85251798561171
 31
0.0
  0
LINE
  5
86
  8
2
 10
1050.0013891635481
 20
613.35251798561171
 30
0.0
 11
1046.2871034492621
 21
639.3525179856116
 31
0.0
  0
LINE
  5
87
  8
2
 10
1050.0013891635481
 20
613.3525179856116
 30
0.0
 11
1050.5518681798601
 21
613.03469877736075
 31
0.0
  0
LINE
  5
88
  8
2
 10
1046.2871034492621
 20
639.3525179856116
 30
0.0
 11
1046.753695830547
 21
639.62190522254843
 31
0.0
  0
LINE
  5
89
  8
2
 10
1046.753695830547
 20
639.62190522254843
 30
0.0
 11
1044.5064654358241
 21
655.35251798561148
 31
0.0
  0
ARC
  5
8A
  8
0
 10
785.34875456828752
 20
559.3525179856116
 30
0.0
 40
108.0
 50
102.49855834475891
 51
77.501441655241152
  0
ARC
  5
8B
  8
0
 10
785.34875456828752
 20
559.3525179856116
 30
0.0
 40
111.0
 50
102.03468931217409
 51
77.965310687825976
  0
LINE
  5
8C
  8
2
 10
1046.753695830547
 20
479.08313074867471
 30
0.0
 11
1043.1554021857171
 21
453.89507523485997
 31
0.0
  0
LINE
  5
8D
  8
2
 10
1046.2871034492621
 20
479.35251798561148
 30
0.0
 11
1046.753695830547
 21
479.08313074867471
 31
0.0
  0
LINE
  5
8E
  8
2
 10
1050.0013891635481
 20
505.35251798561148
 30
0.0
 11
1050.5518681798601
 21
505.67033719386239
 31
0.0
  0
LINE
  5
8F
  8
2
 10
1050.0013891635481
 20
505.35251798561148
 30
0.0
 11
1046.2871034492621
 21
479.3525179856116
 31
0.0
  0
ARC
  5
90
  8
2
 10
1053.98865832255
 20
452.3091309637382
 30
0.0
 40
4.0
 50
171.17362904577209
 51
246.0375110254235
  0
ARC
  5
91
  8
2
 10
1039.1956042110719
 20
454.46076065980918
 30
0.0
 40
4.0
 50
277.43140797117252
 51
351.86989764584388
  0
LINE
  5
92
  8
0
 10
1068.2921797215381
 20
531.85251798561148
 30
0.0
 11
1082.2921797215381
 21
531.85251798561148
 31
0.0
  0
ARC
  5
93
  8
2
 10
1050.8331506593099
 20
528.85251798561148
 30
0.0
 40
3.0
 50
351.86989764584388
 51
90.0
  0
ARC
  5
94
  8
0
 10
1064.9426004066911
 20
522.85251798561148
 30
0.0
 40
4.0
 50
90.000000000000242
 51
171.17362904577189
  0
LINE
  5
95
  8
0
 10
1055.2921797215381
 20
486.77251798561042
 30
0.0
 11
1060.9899689526169
 21
523.46628063375965
 31
0.0
  0
LINE
  5
96
  8
2
 10
1053.8029991402941
 20
528.42825391689962
 30
0.0
 11
1050.5518681798601
 21
505.67033719386239
 31
0.0
  0
ARC
  5
97
  8
2
 10
1051.2921797215381
 20
444.75302562925771
 30
0.0
 40
4.0
 50
0.0
 51
66.037511025423143
  0
ARC
  5
98
  8
2
 10
1025.2921797215381
 20
446.59644607174312
 30
0.0
 40
2.0
 50
97.431407971172519
 51
179.99999999999989
  0
ARC
  5
99
  8
0
 10
1025.2921797215381
 20
439.10858989947991
 30
0.0
 40
2.0
 50
180.0
 51
262.56859202882748
  0
ARC
  5
9A
  8
0
 10
1045.469596053129
 20
448.3283312395323
 30
0.0
 40
14.0
 50
273.3684094700119
 51
310.68364526332249
  0
LINE
  5
9B
  8
2
 10
1052.364104458336
 20
448.6538847692571
 30
0.0
 11
1052.9167335857519
 21
448.40827182373869
 31
0.0
  0
LINE
  5
9C
  8
2
 10
1025.0335013534029
 20
448.57964689411563
 30
0.0
 11
1039.7129609473429
 21
450.49435901506428
 31
0.0
  0
LINE
  5
9D
  8
0
 10
1046.2921797215381
 20
434.35251798561148
 30
0.0
 11
1025.0335013534029
 21
437.1253890771074
 31
0.0
  0
LINE
  5
9E
  8
0
 10
1055.2921797215381
 20
486.77251798561161
 30
0.0
 11
1055.2921797215381
 21
439.2284859248723
 31
0.0
  0
LINE
  5
9F
  8
0
 10
1064.9426004066911
 20
526.85251798561148
 30
0.0
 11
1068.2921797215381
 21
526.85251798561148
 31
0.0
  0
LINE
  5
A0
  8
2
 10
1083.7921797215381
 20
570.35251798561137
 30
0.0
 11
1083.7921797215381
 21
548.35251798561148
 31
0.0
  0
LINE
  5
A1
  8
2
 10
1048.2921797215381
 20
570.35251798561137
 30
0.0
 11
1083.7921797215381
 21
570.35251798561137
 31
0.0
  0
LINE
  5
A2
  8
2
 10
1083.7921797215381
 20
570.35251798561137
 30
0.0
 11
1084.2921797215381
 21
570.85251798561137
 31
0.0
  0
LINE
  5
A3
  8
2
 10
1083.7921797215381
 20
548.35251798561148
 30
0.0
 11
1084.2921797215381
 21
547.8525179856116
 31
0.0
  0
ARC
  5
A4
  8
0
 10
1082.2921797215381
 20
533.85251798561137
 30
0.0
 40
2.0
 50
269.99999999999989
 51
360.0
  0
ARC
  5
A5
  8
2
 10
1050.2921797215381
 20
533.8525179856116
 30
0.0
 40
2.0
 50
180.0
 51
269.99999999999977
  0
LINE
  5
A6
  8
2
 10
1048.2921797215381
 20
584.85251798561148
 30
0.0
 11
1048.2921797215381
 21
533.8525179856116
 31
0.0
  0
LINE
  5
A7
  8
0
 10
1084.2921797215381
 20
584.85251798561148
 30
0.0
 11
1084.2921797215381
 21
533.85251798561137
 31
0.0
  0
LINE
  5
A8
  8
2
 10
1048.2921797215381
 20
548.35251798561148
 30
0.0
 11
1083.7921797215381
 21
548.35251798561148
 31
0.0
  0
LINE
  5
A9
  8
2
 10
1050.2921797215381
 20
531.85251798561148
 30
0.0
 11
1050.8331506593099
 21
531.85251798561148
 31
0.0
  0
ARC
  5
AA
  8
0
 10
785.34875456828752
 20
559.35251798561137
 30
0.0
 40
80.0
 50
99.555695434340237
 51
80.444304565659792
  0
ARC
  5
AB
  8
0
 10
785.34875456828752
 20
559.35251798561137
 30
0.0
 40
54.0
 50
105.0261137591192
 51
74.973886240880773
  0
ARC
  5
AC
  8
0
 10
785.34875456828752
 20
559.35251798561137
 30
0.0
 40
27.5
 50
120.6032946082064
 51
59.396705391793873
  0
ARC
  5
AD
  8
0
 10
785.34875456828752
 20
559.35251798561137
 30
0.0
 40
19.0
 50
137.4631016370127
 51
42.536898362988516
  0
ARC
  5
AE
  8
0
 10
785.34875456828752
 20
559.35251798561137
 30
0.0
 40
11.0
 50
166.04416625491859
 51
13.95583374508154
  0
LINE
  5
AF
  8
0
 10
1023.292179721538
 20
679.59644607174323
 30
0.0
 11
1023.292179721538
 21
677.35251798561148
 31
0.0
  0
LINE
  5
B0
  8
1
 10
1003.292179721538
 20
559.35251798561137
 30
0.0
 11
1104.2921797215381
 21
559.35251798561137
 31
0.0
  0
LINE
  5
B1
  8
1
 10
785.34875456828752
 20
414.35251798561251
 30
0.0
 11
785.34875456828752
 21
704.35251798561103
 31
0.0
  0
LINE
  5
B2
  8
1
 10
640.34875456828695
 20
559.35251798561137
 30
0.0
 11
930.34875456828752
 21
559.35251798561137
 31
0.0
  0
LINE
  5
F3
  8
1
 10
245.5075757678874
 20
559.35251798561137
 30
0.0
 11
535.50757576788726
 21
559.35251798561137
 31
0.0
  0
LINE
  5
F4
  8
1
 10
390.50757576788749
 20
414.35251798561143
 30
0.0
 11
390.50757576788749
 21
704.35251798561183
 31
0.0
  0
ARC
  5
F5
  8
0
 10
390.50757576788749
 20
559.3525179856116
 30
0.0
 40
111.0
 50
102.03468931217409
 51
77.965310687825976
  0
ARC
  5
F6
  8
0
 10
390.50757576788749
 20
559.3525179856116
 30
0.0
 40
108.0
 50
102.49855834475891
 51
77.501441655241152
  0
ARC
  5
F7
  8
0
 10
390.50757576788749
 20
677.35251798561148
 30
0.0
 40
22.0
 50
307.30179029214639
 51
329.10096984633861
  0
LINE
  5
F8
  8
0
 10
403.83986739385989
 20
659.8525179856108
 30
0.0
 11
402.9071725355235
 21
659.8525179856108
 31
0.0
  0
LINE
  5
F9
  8
0
 10
405.33997274207758
 20
657.85251798561069
 30
0.0
 11
401.63187349852961
 21
657.85251798561069
 31
0.0
  0
ARC
  5
FA
  8
0
 10
390.50757576788749
 20
677.35251798561148
 30
0.0
 40
24.5
 50
307.25791600130998
 51
325.72173468153397
  0
LINE
  5
FB
  8
0
 10
403.83986739386057
 20
659.8525179856108
 30
0.0
 11
405.33997274207758
 21
657.85251798561069
 31
0.0
  0
ARC
  5
FC
  8
0
 10
413.23115587824458
 20
661.86417052798436
 30
0.0
 40
3.0
 50
77.501441655241194
 51
145.72173468153341
  0
ARC
  5
FD
  8
0
 10
412.8174893241964
 20
664.00082307035746
 30
0.0
 40
4.0
 50
77.965310687825863
 51
149.1009698463387
  0
CIRCLE
  5
FE
  8
0
 10
390.50757576788749
 20
666.35251798561137
 30
0.0
 40
13.99999999999971
  0
LINE
  5
FF
  8
1
 10
374.50757576788749
 20
666.35251798561137
 30
0.0
 11
406.50757576788789
 21
666.35251798561137
 31
0.0
  0
LINE
  5
100
  8
1
 10
390.50757576788749
 20
682.35251798561137
 30
0.0
 11
390.50757576788749
 21
555.85251798561114
 31
0.0
  0
CIRCLE
  5
101
  8
0
 10
390.50757576788749
 20
559.3525179856116
 30
0.0
 40
125.0
  0
CIRCLE
  5
102
  8
0
 10
390.50757576788749
 20
559.35251798561137
 30
0.0
 40
122.0
  0
LINE
  5
103
  8
0
 10
377.17528414191429
 20
659.8525179856108
 30
0.0
 11
375.67517879369728
 21
657.85251798561069
 31
0.0
  0
ARC
  5
104
  8
0
 10
390.50757576788737
 20
677.35251798561148
 30
0.0
 40
24.5
 50
214.278265318466
 51
232.74208399868999
  0
LINE
  5
105
  8
0
 10
375.67517879369728
 20
657.85251798561069
 30
0.0
 11
379.3832780372453
 21
657.85251798561069
 31
0.0
  0
LINE
  5
106
  8
0
 10
377.17528414191469
 20
659.8525179856108
 30
0.0
 11
378.10797900025142
 21
659.8525179856108
 31
0.0
  0
ARC
  5
107
  8
0
 10
390.50757576788737
 20
677.35251798561148
 30
0.0
 40
22.0
 50
210.89903015366141
 51
232.69820970785361
  0
ARC
  5
108
  8
0
 10
368.19766221157852
 20
664.00082307035746
 30
0.0
 40
4.0
 50
30.89903015366124
 51
102.03468931217409
  0
ARC
  5
109
  8
0
 10
367.78399565753023
 20
661.86417052798436
 30
0.0
 40
3.0
 50
34.278265318466573
 51
102.49855834475881
  0
CIRCLE
  5
148
  8
0
 10
390.50757576788749
 20
559.35251798561137
 30
0.0
 40
11.000000000001419
  0
CIRCLE
  5
149
  8
0
 10
390.50757576788749
 20
559.35251798561126
 30
0.0
 40
19.000000000000679
  0
CIRCLE
  5
14A
  8
0
 10
390.50757576788749
 20
559.35251798561137
 30
0.0
 40
27.500000000000512
  0
CIRCLE
  5
14B
  8
0
 10
390.50757576788749
 20
559.35251798561126
 30
0.0
 40
54.000000000000227
  0
CIRCLE
  5
14C
  8
0
 10
390.50757576788749
 20
559.35251798561137
 30
0.0
 40
80.000000000000227
  0
LINE
  5
14D
  8
2
 10
1055.2921797215381
 20
486.7725179856111
 30
0.0
 11
1050.036026868476
 21
452.92289361188642
 31
0.0
  0
LINE
  5
14E
  8
0
 10
1055.2921797215381
 20
631.93251798560891
 30
0.0
 11
1060.9899689526169
 21
595.23875533746354
 31
0.0
  0
LINE
  5
14F
  8
0
 10
106.0729133524225
 20
631.93251798560891
 30
0.0
 11
100.375124121344
 21
595.23875533746354
 31
0.0
  0
LINE
  5
150
  8
2
 10
106.0729133524225
 20
486.7725179856111
 30
0.0
 11
111.3290662054855
 21
452.92289361188642
 31
0.0
  0
LINE
  5
151
  8
1
 10
158.07291335242269
 20
559.35251798561137
 30
0.0
 11
57.072913352422667
 21
559.35251798561126
 31
0.0
  0
LINE
  5
152
  8
0
 10
138.0729133524228
 20
679.59644607174323
 30
0.0
 11
138.07291335242249
 21
677.35251798561148
 31
0.0
  0
LINE
  5
153
  8
2
 10
111.0729133524225
 20
531.85251798561148
 30
0.0
 11
110.5319424146507
 21
531.85251798561148
 31
0.0
  0
LINE
  5
154
  8
2
 10
113.0729133524225
 20
548.35251798561148
 30
0.0
 11
77.572913352422802
 21
548.35251798561148
 31
0.0
  0
LINE
  5
155
  8
0
 10
77.072913352422574
 20
584.85251798561148
 30
0.0
 11
77.072913352422802
 21
533.85251798561137
 31
0.0
  0
LINE
  5
156
  8
2
 10
113.0729133524225
 20
584.85251798561148
 30
0.0
 11
113.0729133524225
 21
533.8525179856116
 31
0.0
  0
ARC
  5
157
  8
2
 10
111.0729133524225
 20
533.8525179856116
 30
0.0
 40
2.0
 50
270.00000000000023
 51
0.0000000000000254
  0
ARC
  5
158
  8
0
 10
79.072913352422802
 20
533.85251798561137
 30
0.0
 40
2.0
 50
180.00000000000011
 51
270.00000000000023
  0
LINE
  5
159
  8
2
 10
77.572913352422802
 20
548.35251798561148
 30
0.0
 11
77.072913352422802
 21
547.8525179856116
 31
0.0
  0
LINE
  5
15A
  8
2
 10
77.572913352422802
 20
570.35251798561137
 30
0.0
 11
77.072913352422802
 21
570.85251798561137
 31
0.0
  0
LINE
  5
15B
  8
2
 10
113.0729133524225
 20
570.35251798561137
 30
0.0
 11
77.572913352422802
 21
570.35251798561137
 31
0.0
  0
LINE
  5
15C
  8
2
 10
77.572913352422802
 20
570.35251798561137
 30
0.0
 11
77.572913352422802
 21
548.35251798561148
 31
0.0
  0
LINE
  5
15D
  8
0
 10
96.42249266726958
 20
526.85251798561148
 30
0.0
 11
93.072913352422816
 21
526.85251798561148
 31
0.0
  0
LINE
  5
15E
  8
0
 10
106.0729133524225
 20
486.77251798561161
 30
0.0
 11
106.0729133524228
 21
439.2284859248723
 31
0.0
  0
LINE
  5
15F
  8
0
 10
115.0729133524226
 20
434.35251798561148
 30
0.0
 11
136.33159172055821
 21
437.1253890771074
 31
0.0
  0
LINE
  5
160
  8
2
 10
136.33159172055821
 20
448.57964689411563
 30
0.0
 11
121.652132126618
 21
450.49435901506428
 31
0.0
  0
LINE
  5
161
  8
2
 10
109.00098861562491
 20
448.6538847692571
 30
0.0
 11
108.44835948820879
 21
448.40827182373869
 31
0.0
  0
ARC
  5
162
  8
0
 10
115.8954970208317
 20
448.3283312395323
 30
0.0
 40
14.0
 50
229.31635473667751
 51
266.63159052998822
  0
ARC
  5
163
  8
0
 10
136.0729133524228
 20
439.10858989947991
 30
0.0
 40
2.0
 50
277.43140797117258
 51
0.0000000000000254
  0
ARC
  5
164
  8
2
 10
136.0729133524228
 20
446.59644607174312
 30
0.0
 40
2.0
 50
0.0000000000000763
 51
82.568592028827496
  0
ARC
  5
165
  8
2
 10
110.0729133524225
 20
444.75302562925771
 30
0.0
 40
4.0
 50
113.9624889745769
 51
180.0
  0
LINE
  5
166
  8
2
 10
107.5620939336672
 20
528.42825391689962
 30
0.0
 11
110.813224894101
 21
505.67033719386239
 31
0.0
  0
LINE
  5
167
  8
0
 10
106.0729133524225
 20
486.77251798561042
 30
0.0
 11
100.3751241213438
 21
523.46628063375965
 31
0.0
  0
ARC
  5
168
  8
0
 10
96.42249266726958
 20
522.85251798561148
 30
0.0
 40
4.0
 50
8.8263709542280893
 51
89.999999999999787
  0
ARC
  5
169
  8
2
 10
110.5319424146507
 20
528.85251798561148
 30
0.0
 40
3.0
 50
90.000000000000028
 51
188.13010235415609
  0
LINE
  5
16A
  8
0
 10
93.072913352422816
 20
531.85251798561148
 30
0.0
 11
79.072913352422802
 21
531.85251798561148
 31
0.0
  0
ARC
  5
16B
  8
2
 10
122.169488862889
 20
454.46076065980918
 30
0.0
 40
4.0
 50
188.13010235415621
 51
262.5685920288276
  0
ARC
  5
16C
  8
2
 10
107.3764347514111
 20
452.3091309637382
 30
0.0
 40
4.0
 50
293.9624889745765
 51
8.8263709542279365
  0
LINE
  5
16D
  8
2
 10
111.36370391041299
 20
505.35251798561148
 30
0.0
 11
115.0779896246988
 21
479.3525179856116
 31
0.0
  0
LINE
  5
16E
  8
2
 10
111.36370391041299
 20
505.35251798561148
 30
0.0
 11
110.813224894101
 21
505.67033719386239
 31
0.0
  0
LINE
  5
16F
  8
2
 10
115.0779896246988
 20
479.35251798561148
 30
0.0
 11
114.61139724341361
 21
479.08313074867471
 31
0.0
  0
LINE
  5
170
  8
2
 10
114.61139724341361
 20
479.08313074867471
 30
0.0
 11
118.20969088824449
 21
453.89507523485997
 31
0.0
  0
LINE
  5
171
  8
2
 10
114.61139724341361
 20
639.62190522254843
 30
0.0
 11
116.8586276381368
 21
655.35251798561148
 31
0.0
  0
LINE
  5
172
  8
2
 10
115.0779896246988
 20
639.3525179856116
 30
0.0
 11
114.61139724341361
 21
639.62190522254843
 31
0.0
  0
LINE
  5
173
  8
2
 10
111.36370391041299
 20
613.3525179856116
 30
0.0
 11
110.813224894101
 21
613.03469877736075
 31
0.0
  0
LINE
  5
174
  8
2
 10
111.36370391041299
 20
613.35251798561171
 30
0.0
 11
115.0779896246988
 21
639.3525179856116
 31
0.0
  0
LINE
  5
175
  8
0
 10
93.072913352422816
 20
586.85251798561171
 30
0.0
 11
79.072913352422802
 21
586.85251798561171
 31
0.0
  0
ARC
  5
176
  8
2
 10
110.5319424146507
 20
589.8525179856116
 30
0.0
 40
3.0
 50
171.86989764584399
 51
270.00000000000011
  0
ARC
  5
177
  8
0
 10
96.42249266726958
 20
595.85251798561171
 30
0.0
 40
4.0
 50
270.00000000000028
 51
351.17362904577197
  0
LINE
  5
178
  8
2
 10
109.4651018605159
 20
653.77821197773176
 30
0.0
 11
106.0729133524225
 21
631.93251798560937
 31
0.0
  0
LINE
  5
179
  8
2
 10
107.5620939336672
 20
590.27678205432346
 30
0.0
 11
110.813224894101
 21
613.03469877736075
 31
0.0
  0
ARC
  5
17A
  8
0
 10
108.0729133524225
 20
679.47655004635044
 30
0.0
 40
2.0
 50
130.68364526332419
 51
180.0
  0
ARC
  5
17B
  8
0
 10
136.0729133524228
 20
679.59644607174323
 30
0.0
 40
2.0
 50
0.0000000000000254
 51
82.568592028827496
  0
ARC
  5
17C
  8
0
 10
115.8954970208317
 20
670.37670473169067
 30
0.0
 40
14.0
 50
93.368409470011898
 51
130.68364526332391
  0
LINE
  5
17D
  8
0
 10
115.0729133524226
 20
684.3525179856116
 30
0.0
 11
136.33159172055821
 21
681.57964689411563
 31
0.0
  0
LINE
  5
17E
  8
0
 10
106.0729133524225
 20
486.7725179856111
 30
0.0
 11
106.0729133524225
 21
679.47655004635044
 31
0.0
  0
LINE
  5
17F
  8
0
 10
93.072913352422816
 20
526.85251798561126
 30
0.0
 11
93.072913352422816
 21
591.85251798561171
 31
0.0
  0
LINE
  5
180
  8
0
 10
96.42249266726958
 20
591.85251798561171
 30
0.0
 11
93.072913352422816
 21
591.85251798561171
 31
0.0
  0
ARC
  5
181
  8
0
 10
79.072913352422802
 20
584.85251798561171
 30
0.0
 40
2.0
 50
89.999999999999915
 51
180.0
  0
ARC
  5
182
  8
2
 10
111.0729133524225
 20
584.8525179856116
 30
0.0
 40
2.0
 50
0.0000000000000254
 51
89.999999999999872
  0
LINE
  5
183
  8
2
 10
111.0729133524225
 20
586.85251798561148
 30
0.0
 11
110.5319424146507
 21
586.85251798561148
 31
0.0
  0
LINE
  5
184
  8
1
 10
255.07291335242309
 20
666.35251798561137
 30
0.0
 11
85.672913352422611
 21
666.35251798561137
 31
0.0
  0
LINE
  5
185
  8
1
 10
120.0729133524226
 20
673.85251798561148
 30
0.0
 11
101.0729133524285
 21
673.85251798561137
 31
0.0
  0
LINE
  5
186
  8
2
 10
115.0729133524226
 20
677.3525179856116
 30
0.0
 11
115.0729133524226
 21
655.35251798561148
 31
0.0
  0
LINE
  5
187
  8
2
 10
116.85862763813699
 20
655.35251798561148
 30
0.0
 11
115.0729133524226
 21
655.35251798561148
 31
0.0
  0
ARC
  5
188
  8
2
 10
105.51247040644139
 20
654.39197462588004
 30
0.0
 40
4.0
 50
351.17362904577323
 51
81.945745860579734
  0
ARC
  5
189
  8
0
 10
108.0729133524225
 20
439.2284859248723
 30
0.0
 40
2.0
 50
180.0
 51
229.31635473667771
  0
LINE
  5
18A
  8
0
 10
139.0729133524228
 20
658.35251798561137
 30
0.0
 11
139.0729133524228
 21
655.35251798561148
 31
0.0
  0
ARC
  5
18B
  8
0
 10
229.97280199370991
 20
676.35251798561114
 30
0.0
 40
4.0
 50
12.555857798585921
 51
90.000000000000028
  0
ARC
  5
18C
  8
0
 10
185.07291335242269
 20
666.35251798561137
 30
0.0
 40
49.999999999999972
 50
347.44414220141442
 51
12.555857798585819
  0
ARC
  5
18D
  8
0
 10
229.97280199370991
 20
656.3525179856116
 30
0.0
 40
4.0
 50
269.99999999999972
 51
347.44414220141419
  0
LINE
  5
18E
  8
0
 10
229.97280199370991
 20
652.3525179856116
 30
0.0
 11
172.0729133524226
 21
652.35251798561148
 31
0.0
  0
LINE
  5
18F
  8
0
 10
229.97280199370991
 20
680.35251798561114
 30
0.0
 11
172.07291335242229
 21
680.35251798561114
 31
0.0
  0
LINE
  5
190
  8
0
 10
172.07291335242229
 20
680.35251798561114
 30
0.0
 11
144.44806931006289
 21
678.97127578349318
 31
0.0
  0
LINE
  5
191
  8
0
 10
144.44806931006289
 20
653.73376018772967
 30
0.0
 11
172.0729133524226
 21
652.35251798561148
 31
0.0
  0
ARC
  5
192
  8
0
 10
144.57291335242249
 20
656.23064103492425
 30
0.0
 40
2.5
 50
186.38733261394009
 51
267.137594773888
  0
ARC
  5
193
  8
0
 10
144.57291335242249
 20
676.47439493629838
 30
0.0
 40
2.5
 50
92.862405226112017
 51
173.61266738607119
  0
LINE
  5
194
  8
0
 10
142.0729133524228
 20
677.35251798561137
 30
0.0
 11
139.0729133524228
 21
677.35251798561137
 31
0.0
  0
LINE
  5
195
  8
0
 10
142.0729133524228
 20
655.35251798561126
 30
0.0
 11
139.0729133524228
 21
655.35251798561126
 31
0.0
  0
LINE
  5
196
  8
0
 10
142.0729133524228
 20
655.35251798561148
 30
0.0
 11
142.0729133524228
 21
677.35251798561137
 31
0.0
  0
LINE
  5
197
  8
0
 10
172.07291335242201
 20
652.3525179856116
 30
0.0
 11
172.07291335242269
 21
680.35251798561114
 31
0.0
  0
LINE
  5
198
  8
0
 10
105.6729133524227
 20
674.35251798561171
 30
0.0
 11
105.6729133524225
 21
658.35251798561126
 31
0.0
  0
LINE
  5
199
  8
0
 10
105.6729133524225
 20
658.35251798561126
 30
0.0
 11
106.0729133524225
 21
658.35251798561126
 31
0.0
  0
LINE
  5
19A
  8
0
 10
105.6729133524225
 20
674.35251798561171
 30
0.0
 11
106.0729133524225
 21
674.35251798561171
 31
0.0
  0
LINE
  5
19B
  8
2
 10
138.0729133524228
 20
656.85251798561148
 30
0.0
 11
115.0729133524228
 21
656.85251798561148
 31
0.0
  0
LINE
  5
19C
  8
2
 10
138.0729133524228
 20
677.35251798561148
 30
0.0
 11
115.0729133524228
 21
677.35251798561148
 31
0.0
  0
LINE
  5
19D
  8
0
 10
139.0729133524228
 20
677.35251798561148
 30
0.0
 11
139.0729133524228
 21
658.35251798561137
 31
0.0
  0
ARC
  5
19E
  8
0
 10
137.5729133524228
 20
658.35251798561137
 30
0.0
 40
1.5
 50
289.47122063449058
 51
0.0000000000000254
  0
LINE
  5
19F
  8
0
 10
138.0729133524228
 20
677.35251798561148
 30
0.0
 11
138.0729133524228
 21
439.10858989947991
 31
0.0
  0
LINE
  5
1A0
  8
0
 10
1023.292179721538
 20
677.35251798561148
 30
0.0
 11
1022.292179721538
 21
677.35251798561114
 31
0.0
  0
LINE
  5
1A1
  8
0
 10
1021.292179721538
 20
656.85251798561148
 30
0.0
 11
1023.292179721538
 21
656.85251798561148
 31
0.0
  0
LINE
  5
1A2
  8
0
 10
1021.292179721538
 20
653.85251798561137
 30
0.0
 11
1023.292179721538
 21
653.85251798561137
 31
0.0
  0
ARC
  5
1A3
  8
2
 10
1023.792179721538
 20
658.35251798561137
 30
0.0
 40
1.5
 50
250.52877936681941
 51
270.0
  0
ARC
  5
1A4
  8
0
 10
1032.2921797215381
 20
610.85251798561148
 30
0.0
 40
50.0
 50
257.44414220141499
 51
259.63024019452268
  0
LINE
  5
1A5
  8
0
 10
1023.292179721538
 20
623.85251798561148
 30
0.0
 11
1018.292179721538
 21
623.85251798561148
 31
0.0
  0
LINE
  5
1A6
  8
0
 10
138.0729133524226
 20
677.3525179856116
 30
0.0
 11
139.0729133524228
 21
677.35251798561114
 31
0.0
  0
ARC
  5
1A7
  8
2
 10
137.5729133524228
 20
658.35251798561137
 30
0.0
 40
1.5
 50
270.0
 51
289.47122063449058
  0
ARC
  5
1F6
  8
0
 10
785.3487545682874
 20
230.83812949640301
 30
0.0
 40
14.0
 50
40.005200884859811
 51
139.99479911514049
  0
LINE
  5
1F7
  8
0
 10
796.34875456828763
 20
241.8381294964027
 30
0.0
 11
796.34875456828752
 21
239.83812949640301
 31
0.0
  0
LINE
  5
1F8
  8
0
 10
774.34875456828752
 20
241.8381294964027
 30
0.0
 11
774.34875456828752
 21
239.8381294964029
 31
0.0
  0
LINE
  5
1F9
  8
0
 10
796.34875456828763
 20
241.8381294964027
 30
0.0
 11
794.00900860613183
 21
241.8381294964027
 31
0.0
  0
LINE
  5
1FA
  8
0
 10
796.34875456828752
 20
240.83812949640259
 30
0.0
 11
795.14671353942015
 21
240.83812949640259
 31
0.0
  0
LINE
  5
1FB
  8
0
 10
712.76875456829009
 20
207.8381294964025
 30
0.0
 11
749.46251721643534
 21
202.14034026532411
 31
0.0
  0
LINE
  5
1FC
  8
1
 10
785.34875456828752
 20
264.83812949640469
 30
0.0
 11
785.34875456828752
 21
158.83812949640259
 31
0.0
  0
LINE
  5
1FE
  8
0
 10
759.84875456828752
 20
178.83812949640259
 30
0.0
 11
810.84875456828752
 21
178.83812949640279
 31
0.0
  0
ARC
  5
1FF
  8
0
 10
810.84875456828752
 20
180.83812949640279
 30
0.0
 40
2.0
 50
270.00000000000011
 51
0.0000000000001158
  0
LINE
  5
200
  8
0
 10
817.84875456828752
 20
198.18770881124959
 30
0.0
 11
817.84875456828752
 21
194.83812949640279
 31
0.0
  0
LINE
  5
201
  8
0
 10
857.92875456828733
 20
207.83812949640259
 30
0.0
 11
905.47278662902636
 21
207.8381294964029
 31
0.0
  0
LINE
  5
202
  8
0
 10
910.34875456828763
 20
216.8381294964027
 30
0.0
 11
907.57588347679132
 21
238.09680786453831
 31
0.0
  0
ARC
  5
203
  8
0
 10
896.37294131436647
 20
217.6607131648118
 30
0.0
 40
14.0
 50
319.31635473667751
 51
356.63159052998822
  0
ARC
  5
204
  8
0
 10
905.59268265441892
 20
237.8381294964029
 30
0.0
 40
2.0
 50
7.4314079711725514
 51
90.000000000000014
  0
LINE
  5
205
  8
0
 10
857.92875456828835
 20
207.83812949640259
 30
0.0
 11
821.23499192013935
 21
202.14034026532391
 31
0.0
  0
ARC
  5
206
  8
0
 10
821.8487545682874
 20
198.18770881124959
 30
0.0
 40
4.0
 50
98.826370954228054
 51
179.9999999999998
  0
LINE
  5
207
  8
0
 10
812.8487545682874
 20
194.83812949640279
 30
0.0
 11
812.8487545682874
 21
180.83812949640279
 31
0.0
  0
LINE
  5
208
  8
0
 10
757.84875456828729
 20
194.83812949640279
 30
0.0
 11
757.84875456828729
 21
180.83812949640279
 31
0.0
  0
ARC
  5
209
  8
0
 10
748.84875456828729
 20
198.18770881124959
 30
0.0
 40
4.0
 50
0.0000000000002685
 51
81.173629045771975
  0
ARC
  5
20A
  8
0
 10
665.22472250754845
 20
209.8381294964025
 30
0.0
 40
2.0
 50
220.68364526332419
 51
270.0
  0
ARC
  5
20B
  8
0
 10
665.10482648215566
 20
237.8381294964027
 30
0.0
 40
2.0
 50
90.000000000000014
 51
172.56859202882751
  0
ARC
  5
20C
  8
0
 10
674.32456782220811
 20
217.66071316481171
 30
0.0
 40
14.0
 50
183.3684094700119
 51
220.68364526332391
  0
LINE
  5
20D
  8
0
 10
660.3487545682874
 20
216.8381294964025
 30
0.0
 11
663.12162565978326
 21
238.09680786453811
 31
0.0
  0
LINE
  5
20E
  8
0
 10
857.9287545682879
 20
207.83812949640259
 30
0.0
 11
665.22472250754845
 21
207.8381294964025
 31
0.0
  0
LINE
  5
20F
  8
0
 10
817.84875456828752
 20
194.83812949640279
 30
0.0
 11
752.84875456828729
 21
194.83812949640279
 31
0.0
  0
LINE
  5
210
  8
0
 10
752.84875456828729
 20
198.18770881124959
 30
0.0
 11
752.84875456828729
 21
194.83812949640279
 31
0.0
  0
ARC
  5
211
  8
0
 10
759.84875456828718
 20
180.83812949640279
 30
0.0
 40
2.0
 50
179.99999999999989
 51
269.99999999999989
  0
ARC
  5
212
  8
0
 10
905.47278662902636
 20
209.83812949640259
 30
0.0
 40
2.0
 50
270.0
 51
319.31635473667768
  0
LINE
  5
213
  8
1
 10
805.34875456828729
 20
230.83812949640301
 30
0.0
 11
765.34875456828752
 21
230.83812949640279
 31
0.0
  0
LINE
  5
214
  8
0
 10
665.10482648215566
 20
239.8381294964027
 30
0.0
 11
905.59268265441892
 21
239.8381294964029
 31
0.0
  0
LINE
  5
215
  8
0
 10
463.08757576788491
 20
207.83812949640279
 30
0.0
 11
426.39381311973949
 21
202.14034026532411
 31
0.0
  0
LINE
  5
216
  8
1
 10
390.5075757678876
 20
356.8381294964027
 30
0.0
 11
390.50757576788737
 21
158.8381294964027
 31
0.0
  0
LINE
  5
218
  8
0
 10
416.00757576788749
 20
178.83812949640259
 30
0.0
 11
365.00757576788749
 21
178.83812949640279
 31
0.0
  0
ARC
  5
219
  8
0
 10
365.00757576788749
 20
180.83812949640279
 30
0.0
 40
2.0
 50
179.9999999999998
 51
269.99999999999989
  0
LINE
  5
21A
  8
0
 10
358.00757576788749
 20
198.18770881124959
 30
0.0
 11
358.00757576788749
 21
194.83812949640279
 31
0.0
  0
LINE
  5
21B
  8
0
 10
317.92757576788767
 20
207.83812949640259
 30
0.0
 11
270.38354370714842
 21
207.8381294964029
 31
0.0
  0
LINE
  5
21C
  8
0
 10
265.5075757678876
 20
216.8381294964027
 30
0.0
 11
268.28044685938352
 21
238.09680786453831
 31
0.0
  0
ARC
  5
21D
  8
0
 10
279.48338902180848
 20
217.6607131648118
 30
0.0
 40
14.0
 50
183.36840947001181
 51
220.6836452633226
  0
ARC
  5
21E
  8
0
 10
270.26364768175603
 20
237.8381294964029
 30
0.0
 40
2.0
 50
90.000000000000014
 51
172.5685920288274
  0
LINE
  5
21F
  8
0
 10
317.92757576788648
 20
207.83812949640259
 30
0.0
 11
354.62133841603571
 21
202.14034026532391
 31
0.0
  0
ARC
  5
220
  8
0
 10
354.00757576788749
 20
198.18770881124959
 30
0.0
 40
4.0
 50
0.0000000000002176
 51
81.173629045771904
  0
LINE
  5
221
  8
0
 10
363.00757576788749
 20
194.83812949640279
 30
0.0
 11
363.00757576788749
 21
180.83812949640279
 31
0.0
  0
LINE
  5
222
  8
0
 10
418.00757576788772
 20
194.83812949640279
 30
0.0
 11
418.00757576788772
 21
180.83812949640279
 31
0.0
  0
ARC
  5
223
  8
0
 10
427.00757576788772
 20
198.18770881124959
 30
0.0
 40
4.0
 50
98.826370954228054
 51
179.99999999999969
  0
ARC
  5
224
  8
0
 10
510.6316078286265
 20
209.83812949640279
 30
0.0
 40
2.0
 50
270.00000000000011
 51
319.31635473667581
  0
ARC
  5
225
  8
0
 10
510.75150385401918
 20
237.83812949640301
 30
0.0
 40
2.0
 50
7.4314079711725514
 51
90.000000000000014
  0
ARC
  5
226
  8
0
 10
501.53176251396678
 20
217.66071316481191
 30
0.0
 40
14.0
 50
319.31635473667609
 51
356.6315905299881
  0
LINE
  5
227
  8
0
 10
515.5075757678876
 20
216.8381294964027
 30
0.0
 11
512.73470467639163
 21
238.09680786453839
 31
0.0
  0
LINE
  5
228
  8
0
 10
317.92757576788722
 20
207.83812949640259
 30
0.0
 11
510.6316078286265
 21
207.83812949640279
 31
0.0
  0
LINE
  5
229
  8
0
 10
358.00757576788737
 20
194.83812949640279
 30
0.0
 11
423.00757576788772
 21
194.83812949640279
 31
0.0
  0
LINE
  5
22A
  8
0
 10
423.00757576788772
 20
198.18770881124959
 30
0.0
 11
423.00757576788772
 21
194.83812949640279
 31
0.0
  0
ARC
  5
22B
  8
0
 10
416.0075757678876
 20
180.83812949640279
 30
0.0
 40
2.0
 50
270.00000000000011
 51
0.0000000000001158
  0
ARC
  5
22C
  8
0
 10
270.38354370714842
 20
209.83812949640259
 30
0.0
 40
2.0
 50
220.6836452633224
 51
270.00000000000011
  0
LINE
  5
22D
  8
0
 10
382.50757576788749
 20
240.8381294964029
 30
0.0
 11
379.50757576788749
 21
240.8381294964029
 31
0.0
  0
ARC
  5
22E
  8
0
 10
400.5075757678872
 20
331.73801813769001
 30
0.0
 40
4.0
 50
0.000000000000014
 51
77.444142201414124
  0
ARC
  5
22F
  8
0
 10
390.50757576788737
 20
286.83812949640281
 30
0.0
 40
49.999999999999972
 50
77.444142201414223
 51
102.55585779858571
  0
ARC
  5
230
  8
0
 10
380.5075757678876
 20
331.73801813769001
 30
0.0
 40
4.0
 50
102.55585779858571
 51
180.0000000000004
  0
LINE
  5
231
  8
0
 10
376.5075757678876
 20
331.73801813769001
 30
0.0
 11
376.50757576788749
 21
273.83812949640259
 31
0.0
  0
LINE
  5
232
  8
0
 10
404.5075757678872
 20
331.73801813769001
 30
0.0
 11
404.5075757678872
 21
273.83812949640242
 31
0.0
  0
LINE
  5
233
  8
0
 10
404.5075757678872
 20
273.83812949640242
 30
0.0
 11
403.12633356576907
 21
246.21328545404299
 31
0.0
  0
LINE
  5
234
  8
0
 10
377.88881797000568
 20
246.21328545404299
 30
0.0
 11
376.50757576788749
 21
273.83812949640259
 31
0.0
  0
ARC
  5
235
  8
0
 10
380.38569881720019
 20
246.3381294964027
 30
0.0
 40
2.5
 50
182.86240522611209
 51
263.61266738605991
  0
ARC
  5
236
  8
0
 10
400.6294527185745
 20
246.3381294964027
 30
0.0
 40
2.5
 50
276.38733261392878
 51
357.137594773888
  0
LINE
  5
237
  8
0
 10
401.50757576788732
 20
243.8381294964029
 30
0.0
 11
401.50757576788732
 21
240.8381294964029
 31
0.0
  0
LINE
  5
238
  8
0
 10
379.50757576788737
 20
243.8381294964029
 30
0.0
 11
379.50757576788737
 21
240.8381294964029
 31
0.0
  0
LINE
  5
239
  8
0
 10
379.50757576788749
 20
243.8381294964029
 30
0.0
 11
401.50757576788732
 21
243.8381294964029
 31
0.0
  0
LINE
  5
23A
  8
0
 10
376.5075757678876
 20
273.83812949640208
 30
0.0
 11
404.5075757678872
 21
273.83812949640281
 31
0.0
  0
LINE
  5
23B
  8
0
 10
401.50757576788737
 20
240.8381294964029
 30
0.0
 11
382.50757576788749
 21
240.8381294964029
 31
0.0
  0
LINE
  5
23C
  8
0
 10
510.75150385401918
 20
239.83812949640301
 30
0.0
 11
270.26364768175603
 21
239.8381294964029
 31
0.0
  0
LINE
  5
23D
  8
0
 10
401.5075757678876
 20
239.8381294964027
 30
0.0
 11
401.5075757678872
 21
240.8381294964029
 31
0.0
  0
LINE
  5
23E
  8
0
 10
379.50757576788737
 20
239.8381294964027
 30
0.0
 11
379.50757576788772
 21
240.8381294964029
 31
0.0
  0
LINE
  5
240
  8
0
 10
776.68850053044298
 20
241.8381294964027
 30
0.0
 11
774.34875456828752
 21
241.8381294964027
 31
0.0
  0
LINE
  5
241
  8
0
 10
775.55079559715466
 20
240.83812949640259
 30
0.0
 11
774.34875456828752
 21
240.83812949640259
 31
0.0
  0
TEXT
  5
3BB
  8
0
 62
     3
 10
0.0
 20
0.0
 30
0.0
 40
10.0
  1
ASH250
  7
STANDARD1
  0
ENDSEC
  0
EOF
